  0
SECTION
  2
HEADER
  9
$ACADVER
  1
AC1009
  9
$INSBASE
 10
0
 20
0
 30
0
  9
$EXTMIN
 10
0
 20
0
  9
$EXTMAX
 10
297
 20
210
  9
$LIMMIN
 10
0
 20
0
  9
$LIMMAX
 10
297
 20
210
  9
$LTSCALE
 40
1
  0
ENDSEC
  0
SECTION
  2
TABLES
  0
TABLE
  2
LTYPE
 70
     9
  0
LTYPE
  2
CONTINUOUS
 70
    64
  3
実線
 72
    65
 73
     0
 40
0.0
  0
LTYPE
  2
DASHED1
 70
    64
  3
--  --  --  --  --  --  --  --  
 72
    65
 73
     2
 40
2.5
 49
1.25
 49
-1.25
  0
LTYPE
  2
DASHED2
 70
    64
  3
----    ----    ----    ----    
 72
    65
 73
     2
 40
5.0
 49
2.5
 49
-2.5
  0
LTYPE
  2
DASHED3
 70
    64
  3
------  ------  ------  ------  
 72
    65
 73
     2
 40
5.0
 49
3.75
 49
-1.25
  0
LTYPE
  2
CENTER1
 70
    64
  3
----- - ----- - ----- - ----- - 
 72
    65
 73
     4
 40
10.0
 49
6.25
 49
-1.25
 49
1.25
 49
-1.25
  0
LTYPE
  2
CENTER2
 70
    64
  3
----------  --  ----------  --  
 72
    65
 73
     4
 40
20.0
 49
12.5
 49
-2.5
 49
2.5
 49
-2.5
  0
LTYPE
  2
PHANTOM1
 70
    64
  3
--- - - --- - - --- - - --- - - 
 72
    65
 73
     6
 40
10.0
 49
3.25
 49
-1.25
 49
1.25
 49
-1.25
 49
1.25
 49
-1.25
  0
LTYPE
  2
PHANTOM2
 70
    64
  3
--------  -  -  --------  -  -  
 72
    65
 73
     6
 40
20.0
 49
10.0
 49
-2.5
 49
1.25
 49
-2.5
 49
1.25
 49
-2.5
  0
LTYPE
  2
DOT
 70
    64
  3
-   -   -   -   -   -   -   -   
 72
    65
 73
     2
 40
2.5
 49
0.625
 49
-1.875
  0
LTYPE
  2
DUMMY
 70
    64
  3
ダミー
 72
    65
 73
     0
 40
0.0
  0
LTYPE
  2
RAND1
 70
    64
  3
ランダム線1
 72
    65
 73
     4
 40
10.0
 49
1.0
 49
-2.0
 49
3.0
 49
-4.0
  0
LTYPE
  2
RAND2
 70
    64
  3
ランダム線2
 72
    65
 73
     4
 40
14.0
 49
2.0
 49
-3.0
 49
4.0
 49
-5.0
  0
LTYPE
  2
RAND3
 70
    64
  3
ランダム線3
 72
    65
 73
     4
 40
18.0
 49
3.0
 49
-4.0
 49
5.0
 49
-6.0
  0
LTYPE
  2
RAND4
 70
    64
  3
ランダム線4
 72
    65
 73
     4
 40
22.0
 49
4.0
 49
-5.0
 49
6.0
 49
-7.0
  0
LTYPE
  2
RAND5
 70
    64
  3
ランダム線5
 72
    65
 73
     4
 40
26.0
 49
5.0
 49
-6.0
 49
7.0
 49
-8.0
  0
LTYPE
  2
LONG1
 70
    64
  3
----------  --  ----------  --  
 72
    65
 73
     4
 40
40.0
 49
32.5
 49
-2.5
 49
2.5
 49
-2.5
  0
LTYPE
  2
LONG2
 70
    64
  3
--------  -  -  --------  -  -  
 72
    65
 73
     6
 40
40.0
 49
30.0
 49
-2.5
 49
1.25
 49
-2.5
 49
1.25
 49
-2.5
  0
LTYPE
  2
LONG3
 70
    64
  3
+++++++++++++++..+++++++++++++++
 72
    65
 73
     2
 40
40.0
 49
37.5
 49
-2.5
  0
LTYPE
  2
LONG4
 70
    64
  3
+++++++++++++++..+++++++++++++++
 72
    65
 73
     2
 40
80.0
 49
75.0
 49
-5.0
  0
LTYPE
  2
LONG5
 70
    64
  3
----------  --  ----------  --  
 72
    65
 73
     4
 40
60.0
 49
37.5
 49
-7.5
 49
7.5
 49
-7.5
  0
LTYPE
  2
dashed
 70
   64
  3
-------   -------------   ------
 72
   65
 73
    2
 40
7.5
 49
6
 49
-1.5
  0
LTYPE
  2
dashed_spaced
 70
   64
  3
----        --------        ----
 72
   65
 73
    2
 40
12
 49
6
 49
-6
  0
LTYPE
  2
long_dashed_dotted
 70
   64
  3
------------- --- --------------
 72
   65
 73
    4
 40
15.25
 49
12
 49
-1.5
 49
0.25
 49
-1.5
  0
LTYPE
  2
long_dashed_double-dotted
 70
   64
  3
----------- --- --- ------------
 72
   65
 73
    6
 40
17
 49
12
 49
-1.5
 49
0.25
 49
-1.5
 49
0.25
 49
-1.5
  0
LTYPE
  2
long_dashed_triplicate-dotted
 70
   64
  3
--------- --- --- --- ----------
 72
   65
 73
    8
 40
18.75
 49
12
 49
-1.5
 49
0.25
 49
-1.5
 49
0.25
 49
-1.5
 49
0.25
 49
-1.5
  0
LTYPE
  2
dotted
 70
   64
  3
   -       -       -       -    
 72
   65
 73
    2
 40
1.75
 49
0.25
 49
-1.5
  0
LTYPE
  2
chain
 70
   64
  3
-------------- -- --------------
 72
   65
 73
    4
 40
18.5
 49
12
 49
-1.5
 49
3.5
 49
-1.5
  0
LTYPE
  2
chain_double_dash
 70
   64
  3
------------ -- -- -------------
 72
   65
 73
    6
 40
23.5
 49
12
 49
-1.5
 49
3.5
 49
-1.5
 49
3.5
 49
-1.5
  0
LTYPE
  2
dashed_dotted
 70
   64
  3
-----------     -     ----------
 72
   65
 73
    4
 40
9.25
 49
6
 49
-1.5
 49
0.25
 49
-1.5
  0
LTYPE
  2
double-dashed_dotted
 70
   64
  3
------   -----------   -   -----
 72
   65
 73
    6
 40
16.75
 49
6
 49
-1.5
 49
6
 49
-1.5
 49
0.25
 49
-1.5
  0
LTYPE
  2
dashed_double-dotted
 70
   64
  3
---------    -    -    ---------
 72
   65
 73
    6
 40
11
 49
6
 49
-1.5
 49
0.25
 49
-1.5
 49
0.25
 49
-1.5
  0
LTYPE
  2
double-dashed_double-dotted
 70
   64
  3
-----   ---------   -   -   ----
 72
   65
 73
    8
 40
18.5
 49
6
 49
-1.5
 49
6
 49
-1.5
 49
0.25
 49
-1.5
 49
0.25
 49
-1.5
  0
LTYPE
  2
dashed_triplicate-dotted
 70
   64
  3
-------    -    -    -    ------
 72
   65
 73
    8
 40
12.75
 49
6
 49
-1.5
 49
0.25
 49
-1.5
 49
0.25
 49
-1.5
 49
0.25
 49
-1.5
  0
LTYPE
  2
double-dashed_triplicate-dotted
 70
   64
  3
-----  ---------  -  -  -  -----
 72
   65
 73
   10
 40
20.25
 49
6
 49
-1.5
 49
6
 49
-1.5
 49
0.25
 49
-1.5
 49
0.25
 49
-1.5
 49
0.25
 49
-1.5
  0
LTYPE
  2
undefined
 70
   64
  3
--------------------------------
 72
   65
 73
    0
 40
0
  0
LTYPE
  2
AIGENLINE001
 70
   64
  3
                                
 72
   65
 73
    4
 40
4.2333600000000002
 49
2.1166800000000001
 49
-0.7055599999999999
 49
0.7055599999999999
 49
-0.7055599999999999
  0
LTYPE
  2
2-AXIS
 70
   64
  3
                                
 72
   65
 73
    0
 40
0
  0
LTYPE
  2
BORDER
 70
   64
  3
                                
 72
   65
 73
    0
 40
0
  0
LTYPE
  2
BORDER2
 70
   64
  3
                                
 72
   65
 73
    0
 40
0
  0
LTYPE
  2
BORDERX2
 70
   64
  3
                                
 72
   65
 73
    0
 40
0
  0
LTYPE
  2
CENTER
 70
   64
  3
                                
 72
   65
 73
    0
 40
0
  0
LTYPE
  2
CENTER2_23
 70
   64
  3
                                
 72
   65
 73
    0
 40
0
  0
LTYPE
  2
CENTERX2
 70
   64
  3
                                
 72
   65
 73
    0
 40
0
  0
LTYPE
  2
DASHDOT
 70
   64
  3
                                
 72
   65
 73
    0
 40
0
  0
LTYPE
  2
DASHDOT2
 70
   64
  3
                                
 72
   65
 73
    0
 40
0
  0
LTYPE
  2
DASHDOTX2
 70
   64
  3
                                
 72
   65
 73
    0
 40
0
  0
LTYPE
  2
DASHED
 70
   64
  3
                                
 72
   65
 73
    0
 40
0
  0
LTYPE
  2
DASHED2_29
 70
   64
  3
                                
 72
   65
 73
    0
 40
0
  0
LTYPE
  2
DASHEDX2
 70
   64
  3
                                
 72
   65
 73
    0
 40
0
  0
LTYPE
  2
DIVIDE
 70
   64
  3
                                
 72
   65
 73
    0
 40
0
  0
LTYPE
  2
DIVIDE2
 70
   64
  3
                                
 72
   65
 73
    0
 40
0
  0
ENDTAB
  0
TABLE
  2
STYLE
  5
3
100
AcDbSymbolTable
 70
     1
  0
STYLE
  5
10
100
AcDbSymbolTableRecord
100
AcDbTextStyleTableRecord
  2
STANDARD
 70
     0
 40
0.0
 41
1.0
 50
0.0
 71
     0
 42
0.2
  3
txt
  4
bigfont.shx
  0
STYLE
  5
26
100
AcDbSymbolTableRecord
100
AcDbTextStyleTableRecord
  2
TATEGAKI
 70
    68
 40
0.0
 41
1.0
 50
0.0
 71
     0
 42
1.0
  3
txt
  4
bigfont.shx
  0
ENDTAB
  0
TABLE
  2
LAYER
 70
   11
  0
LAYER
  2
_1-0_芯__寸法線
 70
   64
 62
    7
  6
CONTINUOUS
  0
LAYER
  2
_1-2_ハッチング
 70
   64
 62
    7
  6
CONTINUOUS
  0
LAYER
  2
_1-3_断熱材
 70
   64
 62
    7
  6
CONTINUOUS
  0
LAYER
  2
_1-4_リベットル__フ
 70
   64
 62
    7
  6
CONTINUOUS
  0
LAYER
  2
_1-6_アンカ__類
 70
   64
 62
    7
  6
CONTINUOUS
  0
LAYER
  2
_1-7_設備
 70
   64
 62
    7
  6
CONTINUOUS
  0
LAYER
  2
_1-8_下地など
 70
   64
 62
    7
  6
CONTINUOUS
  0
LAYER
  2
_e-0_
 70
   64
 62
    7
  6
CONTINUOUS
  0
LAYER
  2
_e-e_
 70
   64
 62
    7
  6
CONTINUOUS
  0
LAYER
  2
_f-f_
 70
   64
 62
    7
  6
CONTINUOUS
  0
LAYER
  2
ADD_LINE
 70
   64
 62
    7
  6
CONTINUOUS
  0
ENDTAB
  0
ENDSEC
  0
SECTION
  2
BLOCKS
  0
ENDSEC
  0
SECTION
  2
ENTITIES
  0
LINE
  8
_f-f_
  6
CONTINUOUS
 62
    7
 10
13.5
 20
197
 11
13.5
 21
17
  0
LINE
  8
_f-f_
  6
CONTINUOUS
 62
    7
 10
13.5
 20
197
 11
283.5
 21
197
  0
LINE
  8
_f-f_
  6
CONTINUOUS
 62
    7
 10
283.5
 20
197
 11
283.5
 21
17
  0
LINE
  8
_f-f_
  6
CONTINUOUS
 62
    7
 10
283.5
 20
17
 11
13.5
 21
17
  0
SOLID
  8
_f-f_
  6
CONTINUOUS
 62
    5
 10
236.97536482015869
 20
15.135014055698207
 11
235.41260194015859
 21
14.597233959698244
 12
233.7490795136022
 22
12.030232905347191
 13
233.7490795136022
 23
12.030232905347191
  0
SOLID
  8
_f-f_
  6
CONTINUOUS
 62
    5
 10
236.97536482015869
 20
15.135014055698207
 11
235.44783384279719
 21
14.653922266010412
 12
235.41260194015859
 22
14.597233959698244
 13
235.41260194015859
 23
14.597233959698244
  0
SOLID
  8
_f-f_
  6
CONTINUOUS
 62
    5
 10
236.97536482015869
 20
15.135014055698207
 11
235.44348964523115
 21
14.814711211354776
 12
235.44783384279719
 22
14.653922266010412
 13
235.44783384279719
 23
14.653922266010412
  0
SOLID
  8
_f-f_
  6
CONTINUOUS
 62
    5
 10
236.97536482015869
 20
15.135014055698207
 11
235.37802752940809
 21
14.882325091646777
 12
235.44348964523115
 22
14.814711211354776
 13
235.44348964523115
 23
14.814711211354776
  0
SOLID
  8
_f-f_
  6
CONTINUOUS
 62
    5
 10
236.97536482015869
 20
15.135014055698207
 11
235.23671672676957
 21
14.943561152901822
 12
235.37802752940809
 22
14.882325091646777
 13
235.37802752940809
 23
14.882325091646777
  0
SOLID
  8
_f-f_
  6
CONTINUOUS
 62
    5
 10
236.97536482015869
 20
15.135014055698207
 11
231.75858153825016
 21
14.827104307519747
 12
235.23671672676957
 22
14.943561152901822
 13
235.23671672676957
 23
14.943561152901822
  0
SOLID
  8
_f-f_
  6
CONTINUOUS
 62
    5
 10
236.97536482015869
 20
15.135014055698207
 11
232.06580002015863
 21
15.134816487698203
 12
231.75858153825016
 22
14.827104307519747
 13
231.75858153825016
 23
14.827104307519747
  0
SOLID
  8
_f-f_
  6
CONTINUOUS
 62
    5
 10
233.7490795136022
 20
12.030232905347191
 11
237.28752157062101
 21
14.827697368205875
 12
236.97536482015869
 22
15.135014055698207
 13
236.97536482015869
 23
15.135014055698207
  0
SOLID
  8
_f-f_
  6
CONTINUOUS
 62
    5
 10
233.7490795136022
 20
12.030232905347191
 11
237.23911742342443
 21
14.662629348534509
 12
237.28752157062101
 22
14.827697368205875
 13
237.28752157062101
 23
14.827697368205875
  0
SOLID
  8
_f-f_
  6
CONTINUOUS
 62
    5
 10
233.7490795136022
 20
12.030232905347191
 11
234.52749735533226
 21
10.733752628573797
 12
234.7892749001586
 22
10.88042668929819
 13
234.7892749001586
 23
10.88042668929819
  0
SOLID
  8
_f-f_
  6
CONTINUOUS
 62
    5
 10
233.7490795136022
 20
12.030232905347191
 11
234.31609954015863
 21
10.81863729729821
 12
234.52749735533226
 22
10.733752628573797
 13
234.52749735533226
 23
10.733752628573797
  0
SOLID
  8
_f-f_
  6
CONTINUOUS
 62
    5
 10
233.7490795136022
 20
12.030232905347191
 11
233.74611586015862
 21
11.682740458898223
 12
234.31609954015863
 22
10.81863729729821
 13
234.31609954015863
 23
10.81863729729821
  0
SOLID
  8
_f-f_
  6
CONTINUOUS
 62
    5
 10
233.7490795136022
 20
12.030232905347191
 11
233.69277264325217
 21
11.856303946266479
 12
233.74611586015862
 22
11.682740458898223
 13
233.74611586015862
 23
11.682740458898223
  0
SOLID
  8
_f-f_
  6
CONTINUOUS
 62
    5
 10
231.75858153825016
 20
14.827104307519747
 11
235.08661474015867
 21
14.909095047698244
 12
235.23671672676957
 22
14.943561152901822
 13
235.23671672676957
 23
14.943561152901822
  0
SOLID
  8
_f-f_
  6
CONTINUOUS
 62
    5
 10
231.75858153825016
 20
14.827104307519747
 11
233.61868450015868
 21
12.669167847698219
 12
235.08661474015867
 22
14.909095047698244
 13
235.08661474015867
 23
14.909095047698244
  0
SOLID
  8
_f-f_
  6
CONTINUOUS
 62
    5
 10
231.75858153825016
 20
14.827104307519747
 11
233.36184569383056
 21
12.528992955061909
 12
233.61868450015868
 22
12.669167847698219
 13
233.61868450015868
 23
12.669167847698219
  0
SOLID
  8
_f-f_
  6
CONTINUOUS
 62
    5
 10
231.75858153825016
 20
14.827104307519747
 11
233.14254562015859
 21
12.622541799698183
 12
233.36184569383056
 22
12.528992955061909
 13
233.36184569383056
 23
12.528992955061909
  0
SOLID
  8
_f-f_
  6
CONTINUOUS
 62
    5
 10
231.75858153825016
 20
14.827104307519747
 11
231.79611970015864
 21
14.683571175698262
 12
233.14254562015859
 22
12.622541799698183
 13
233.14254562015859
 23
12.622541799698183
  0
ARC
  8
_f-f_
  6
CONTINUOUS
 62
    1
 10
235.22789232415863
 20
14.712033315698221
 40
0.217477092
 50
328.13846999999998
 51
2.2615330000000116
  0
ARC
  8
_f-f_
  6
CONTINUOUS
 62
    1
 10
235.20651958255868
 20
14.716275265298208
 40
0.2387205912
 50
1.0417719999999999
 51
44.073639999999997
  0
ARC
  8
_f-f_
  6
CONTINUOUS
 62
    1
 10
235.19156286175863
 20
14.452033827698216
 40
0.4689556368
 50
66.570734999999999
 51
102.931843
  0
ARC
  8
_f-f_
  6
CONTINUOUS
 62
    1
 10
237.02758780495867
 20
14.814288750098285
 40
0.260279376
 50
324.36078900000001
 51
2.9529709999999993
  0
ARC
  8
_f-f_
  6
CONTINUOUS
 62
    1
 10
232.07207198095867
 20
14.832415614098267
 40
0.3135354768
 50
180.97063600000004
 51
208.34173000000004
  0
ARC
  8
_f-f_
  6
CONTINUOUS
 62
    1
 10
233.98573291615867
 20
11.857541216498191
 40
0.2929628856
 50
143.88086999999999
 51
180.24197799999999
  0
ARC
  8
_f-f_
  6
CONTINUOUS
 62
    1
 10
234.52945733935863
 20
11.04430852209822
 40
0.3105620784
 50
226.60652999999999
 51
269.63839899999999
  0
ARC
  8
_f-f_
  6
CONTINUOUS
 62
    1
 10
234.52688648575864
 20
11.041782944498237
 40
0.3080315616
 50
270.11356000000001
 51
328.41042499999998
  0
ARC
  8
_f-f_
  6
CONTINUOUS
 62
    1
 10
234.00220761775864
 20
11.856427426898193
 40
0.3094359408
 50
180.022864
 51
214.145926
  0
ARC
  8
_f-f_
  6
CONTINUOUS
 62
    1
 10
233.36445399775863
 20
12.838928151698155
 40
0.3099455016
 50
224.27817500000003
 51
269.51790500000004
  0
ARC
  8
_f-f_
  6
CONTINUOUS
 62
    1
 10
233.35885129855865
 20
12.839866599698212
 40
0.3108880655999999
 50
270.55186700000002
 51
326.69684100000006
  0
ARC
  8
_f-f_
  6
CONTINUOUS
 62
    1
 10
236.97555497935861
 20
14.823012200498198
 40
0.3120026784
 50
0.860427
 51
90.034943999999982
  0
ARC
  8
_f-f_
  6
CONTINUOUS
 62
    1
 10
232.06827949855861
 20
14.825122062098245
 40
0.309704304
 50
90.458761999999993
 51
179.63327899999999
  0
SOLID
  8
_f-f_
  6
CONTINUOUS
 62
   70
 10
235.3592583789839
 20
15.664101361536453
 11
236.00431761052957
 21
15.467422329706778
 12
236.2927671804093
 22
15.73818913178016
 13
236.2927671804093
 23
15.73818913178016
  0
SOLID
  8
_f-f_
  6
CONTINUOUS
 62
   70
 10
235.60029133369804
 20
16.279624399265259
 11
235.3592583789839
 21
15.664101361536453
 12
236.5328128054206
 22
16.353613516858246
 13
236.2927671804093
 23
15.73818913178016
  0
SOLID
  8
_f-f_
  6
CONTINUOUS
 62
   70
 10
236.19101981268187
 20
16.670512794070959
 11
235.60029133369804
 21
16.279624399265259
 12
236.42019869045436
 22
16.615391008345767
 13
236.5328128054206
 23
16.353613516858246
  0
ARC
  8
_f-f_
  6
CONTINUOUS
 62
    1
 10
236.00221070815871
 20
16.616671155698256
 40
1.1492505864
 50
235.98198100000002
 51
270.10504300000002
  0
ARC
  8
_f-f_
  6
CONTINUOUS
 62
    1
 10
235.63663664335866
 20
16.148141113298266
 40
0.7736713488000001
 50
298.37509499999999
 51
328.00274300000001
  0
ARC
  8
_f-f_
  6
CONTINUOUS
 62
    1
 10
234.71712471295865
 20
16.707292304498239
 40
1.8498135431999998
 50
328.40629300000006
 51
348.97735100000006
  0
ARC
  8
_f-f_
  6
CONTINUOUS
 62
    1
 10
237.17571194335866
 20
15.307750227698264
 40
1.8510779783999998
 50
148.329635
 51
168.90069299999999
  0
ARC
  8
_f-f_
  6
CONTINUOUS
 62
    1
 10
236.05002628015859
 20
16.301035695698289
 40
0.4856410776
 50
6.2152969999999996
 51
40.338358999999997
  0
SOLID
  8
_f-f_
  6
CONTINUOUS
 62
    5
 10
233.7490795136022
 20
12.030232905347191
 11
234.7892749001586
 21
10.88042668929819
 12
237.23911742342443
 22
14.662629348534509
 13
237.23911742342443
 23
14.662629348534509
  0
ARC
  8
_f-f_
  6
CONTINUOUS
 62
    1
 10
236.23946353375865
 20
16.367937159698243
 40
0.3064287911999999
 50
53.856383000000008
 51
99.096113000000003
  0
ARC
  8
_f-f_
  6
CONTINUOUS
 62
    1
 10
236.36472164575864
 20
15.766194423698238
 40
0.9208496303999999
 50
100.872968
 51
146.11269799999999
  0
LINE
  8
_f-f_
  6
CONTINUOUS
 62
    7
 10
267.37625600000001
 20
14.687935999999993
 11
267.06892800000003
 21
14.687935999999993
  0
LINE
  8
_f-f_
  6
CONTINUOUS
 62
    7
 10
267.06892800000003
 20
14.687935999999993
 11
267.06892800000003
 21
13.853760000000037
  0
LINE
  8
_f-f_
  6
CONTINUOUS
 62
    7
 10
267.04697599999997
 20
13.458624000000043
 11
267.02502399999992
 21
13.370815999999991
  0
LINE
  8
_f-f_
  6
CONTINUOUS
 62
    7
 10
267.02502399999992
 20
13.370815999999991
 11
267.02502399999992
 21
13.326912000000021
  0
LINE
  8
_f-f_
  6
CONTINUOUS
 62
    7
 10
267.02502399999992
 20
13.326912000000021
 11
266.99209599999995
 21
13.195199999999971
  0
LINE
  8
_f-f_
  6
CONTINUOUS
 62
    7
 10
266.99209599999995
 20
13.195199999999971
 11
266.97014399999995
 21
13.151296000000031
  0
LINE
  8
_f-f_
  6
CONTINUOUS
 62
    7
 10
266.97014399999995
 20
13.151296000000031
 11
266.93721599999992
 21
13.019583999999952
  0
LINE
  8
_f-f_
  6
CONTINUOUS
 62
    7
 10
266.93721599999992
 20
13.019583999999952
 11
266.91526399999998
 21
12.975680000000011
  0
LINE
  8
_f-f_
  6
CONTINUOUS
 62
    7
 10
266.91526399999998
 20
12.975680000000011
 11
266.90428799999995
 21
12.931776000000013
  0
LINE
  8
_f-f_
  6
CONTINUOUS
 62
    7
 10
266.90428799999995
 20
12.931776000000013
 11
266.88233600000001
 21
12.887871999999987
  0
LINE
  8
_f-f_
  6
CONTINUOUS
 62
    7
 10
266.88233600000001
 20
12.887871999999987
 11
266.87135999999998
 21
12.84396799999999
  0
LINE
  8
_f-f_
  6
CONTINUOUS
 62
    7
 10
266.87135999999998
 20
12.84396799999999
 11
266.82745599999998
 21
12.756160000000023
  0
LINE
  8
_f-f_
  6
CONTINUOUS
 62
    7
 10
266.82745599999998
 20
12.756160000000023
 11
266.81647999999996
 21
12.712256000000025
  0
LINE
  8
_f-f_
  6
CONTINUOUS
 62
    7
 10
266.81647999999996
 20
12.712256000000025
 11
266.7506239999999
 21
12.580544000000003
  0
LINE
  8
_f-f_
  6
CONTINUOUS
 62
    7
 10
266.7506239999999
 20
12.580544000000003
 11
266.71769599999999
 21
12.536639999999977
  0
LINE
  8
_f-f_
  6
CONTINUOUS
 62
    7
 10
266.71769599999999
 20
12.536639999999977
 11
266.67379199999993
 21
12.448831999999982
  0
LINE
  8
_f-f_
  6
CONTINUOUS
 62
    7
 10
266.67379199999993
 20
12.448831999999982
 11
266.64086399999997
 21
12.404927999999984
  0
LINE
  8
_f-f_
  6
CONTINUOUS
 62
    7
 10
266.64086399999997
 20
12.404927999999984
 11
266.61891199999997
 21
12.361024000000015
  0
LINE
  8
_f-f_
  6
CONTINUOUS
 62
    7
 10
266.61891199999997
 20
12.361024000000015
 11
266.48719999999992
 21
12.185407999999995
  0
LINE
  8
_f-f_
  6
CONTINUOUS
 62
    7
 10
266.48719999999992
 20
12.185407999999995
 11
266.44329599999992
 21
12.141503999999998
  0
LINE
  8
_f-f_
  6
CONTINUOUS
 62
    7
 10
266.44329599999992
 20
12.141503999999998
 11
266.41036799999995
 21
12.0976
  0
LINE
  8
_f-f_
  6
CONTINUOUS
 62
    7
 10
266.41036799999995
 20
12.0976
 11
266.36646399999995
 21
12.053696000000031
  0
LINE
  8
_f-f_
  6
CONTINUOUS
 62
    7
 10
266.36646399999995
 20
12.053696000000031
 11
266.36646399999995
 21
12.009792000000004
  0
LINE
  8
_f-f_
  6
CONTINUOUS
 62
    7
 10
266.36646399999995
 20
12.009792000000004
 11
266.38841599999989
 21
11.965888000000007
  0
LINE
  8
_f-f_
  6
CONTINUOUS
 62
    7
 10
266.38841599999989
 20
11.965888000000007
 11
266.42134399999998
 21
11.921984000000009
  0
LINE
  8
_f-f_
  6
CONTINUOUS
 62
    7
 10
266.42134399999998
 20
11.921984000000009
 11
266.44329599999992
 21
11.878080000000011
  0
LINE
  8
_f-f_
  6
CONTINUOUS
 62
    7
 10
266.44329599999992
 20
11.878080000000011
 11
266.476224
 21
11.834176000000014
  0
LINE
  8
_f-f_
  6
CONTINUOUS
 62
    7
 10
266.476224
 20
11.834176000000014
 11
266.49817599999994
 21
11.790272000000016
  0
LINE
  8
_f-f_
  6
CONTINUOUS
 62
    7
 10
266.49817599999994
 20
11.790272000000016
 11
266.53110399999997
 21
11.746368000000018
  0
LINE
  8
_f-f_
  6
CONTINUOUS
 62
    7
 10
266.53110399999997
 20
11.746368000000018
 11
266.55305599999997
 21
11.70246400000002
  0
LINE
  8
_f-f_
  6
CONTINUOUS
 62
    7
 10
269.22022399999992
 20
14.687935999999993
 11
268.9019199999999
 21
14.687935999999993
  0
LINE
  8
_f-f_
  6
CONTINUOUS
 62
    7
 10
268.9019199999999
 20
14.687935999999993
 11
268.9019199999999
 21
13.941568000000032
  0
LINE
  8
_f-f_
  6
CONTINUOUS
 62
    7
 10
268.9019199999999
 20
13.941568000000032
 11
268.56166399999995
 21
13.941568000000032
  0
LINE
  8
_f-f_
  6
CONTINUOUS
 62
    7
 10
268.37507199999993
 20
14.336704000000026
 11
268.35311999999999
 21
14.336704000000026
  0
LINE
  8
_f-f_
  6
CONTINUOUS
 62
    7
 10
268.35311999999999
 20
14.336704000000026
 11
268.34214399999996
 21
14.292800000000028
  0
LINE
  8
_f-f_
  6
CONTINUOUS
 62
    7
 10
268.34214399999996
 20
14.292800000000028
 11
268.32019199999996
 21
14.248896000000016
  0
LINE
  8
_f-f_
  6
CONTINUOUS
 62
    7
 10
268.32019199999996
 20
14.248896000000016
 11
268.29823999999996
 21
14.161087999999992
  0
LINE
  8
_f-f_
  6
CONTINUOUS
 62
    7
 10
268.29823999999996
 20
14.161087999999992
 11
268.27628800000002
 21
14.117184000000023
  0
LINE
  8
_f-f_
  6
CONTINUOUS
 62
    7
 10
268.27628800000002
 20
14.117184000000023
 11
268.26531199999999
 21
14.073279999999997
  0
LINE
  8
_f-f_
  6
CONTINUOUS
 62
    7
 10
268.26531199999999
 20
14.073279999999997
 11
268.24335999999994
 21
14.029375999999999
  0
LINE
  8
_f-f_
  6
CONTINUOUS
 62
    7
 10
268.24335999999994
 20
14.029375999999999
 11
268.23238399999997
 21
13.985471999999987
  0
LINE
  8
_f-f_
  6
CONTINUOUS
 62
    7
 10
268.23238399999997
 20
13.985471999999987
 11
268.18847999999991
 21
13.897663999999992
  0
LINE
  8
_f-f_
  6
CONTINUOUS
 62
    7
 10
268.18847999999991
 20
13.897663999999992
 11
268.17750399999989
 21
13.853760000000037
  0
LINE
  8
_f-f_
  6
CONTINUOUS
 62
    7
 10
268.17750399999989
 20
13.853760000000037
 11
268.11164799999995
 21
13.722048000000001
  0
LINE
  8
_f-f_
  6
CONTINUOUS
 62
    7
 10
268.11164799999995
 20
13.722048000000001
 11
268.07871999999998
 21
13.678143999999975
  0
LINE
  8
_f-f_
  6
CONTINUOUS
 62
    7
 10
268.07871999999998
 20
13.678143999999975
 11
268.03481599999992
 21
13.590336000000008
  0
LINE
  8
_f-f_
  6
CONTINUOUS
 62
    7
 10
268.03481599999992
 20
13.590336000000008
 11
267.90310399999998
 21
13.414720000000017
  0
LINE
  8
_f-f_
  6
CONTINUOUS
 62
    7
 10
267.90310399999998
 20
13.414720000000017
 11
267.85919999999999
 21
13.370815999999991
  0
LINE
  8
_f-f_
  6
CONTINUOUS
 62
    7
 10
267.85919999999999
 20
13.370815999999991
 11
267.99091199999998
 21
13.239103999999998
  0
LINE
  8
_f-f_
  6
CONTINUOUS
 62
    7
 10
267.99091199999998
 20
13.239103999999998
 11
268.02383999999995
 21
13.195199999999971
  0
LINE
  8
_f-f_
  6
CONTINUOUS
 62
    7
 10
268.02383999999995
 20
13.195199999999971
 11
268.11164799999995
 21
13.107392000000061
  0
LINE
  8
_f-f_
  6
CONTINUOUS
 62
    7
 10
268.9019199999999
 20
13.546432000000038
 11
268.9019199999999
 21
13.019583999999952
  0
LINE
  8
_f-f_
  6
CONTINUOUS
 62
    7
 10
268.87996799999996
 20
12.624447999999973
 11
268.85801599999996
 21
12.580544000000003
  0
LINE
  8
_f-f_
  6
CONTINUOUS
 62
    7
 10
268.85801599999996
 20
12.580544000000003
 11
268.82508799999994
 21
12.536639999999977
  0
LINE
  8
_f-f_
  6
CONTINUOUS
 62
    7
 10
268.82508799999994
 20
12.536639999999977
 11
268.80313599999999
 21
12.492735999999979
  0
LINE
  8
_f-f_
  6
CONTINUOUS
 62
    7
 10
268.80313599999999
 20
12.492735999999979
 11
268.70435199999997
 21
12.361024000000015
  0
LINE
  8
_f-f_
  6
CONTINUOUS
 62
    7
 10
268.70435199999997
 20
12.361024000000015
 11
268.68239999999997
 21
12.317120000000017
  0
LINE
  8
_f-f_
  6
CONTINUOUS
 62
    7
 10
268.68239999999997
 20
12.317120000000017
 11
268.64947199999995
 21
12.273216000000019
  0
LINE
  8
_f-f_
  6
CONTINUOUS
 62
    7
 10
268.64947199999995
 20
12.273216000000019
 11
268.60556799999995
 21
12.229311999999993
  0
LINE
  8
_f-f_
  6
CONTINUOUS
 62
    7
 10
268.60556799999995
 20
12.229311999999993
 11
268.50678399999998
 21
12.0976
  0
LINE
  8
_f-f_
  6
CONTINUOUS
 62
    7
 10
268.50678399999998
 20
12.0976
 11
268.41897599999993
 21
12.009792000000004
  0
LINE
  8
_f-f_
  6
CONTINUOUS
 62
    7
 10
268.41897599999993
 20
12.009792000000004
 11
268.38604799999996
 21
11.965888000000007
  0
LINE
  8
_f-f_
  6
CONTINUOUS
 62
    7
 10
268.38604799999996
 20
11.965888000000007
 11
268.21043199999997
 21
11.790272000000016
  0
LINE
  8
_f-f_
  6
CONTINUOUS
 62
    7
 10
268.21043199999997
 20
11.790272000000016
 11
268.15555199999994
 21
11.746368000000018
  0
LINE
  8
_f-f_
  6
CONTINUOUS
 62
    7
 10
268.15555199999994
 20
11.746368000000018
 11
268.11164799999995
 21
11.70246400000002
  0
LINE
  8
_f-f_
  6
CONTINUOUS
 62
    7
 10
268.11164799999995
 20
11.70246400000002
 11
268.05676799999998
 21
11.658559999999994
  0
LINE
  8
_f-f_
  6
CONTINUOUS
 62
    7
 10
268.05676799999998
 20
11.658559999999994
 11
268.01286399999992
 21
11.614655999999997
  0
LINE
  8
_f-f_
  6
CONTINUOUS
 62
    7
 10
268.01286399999992
 20
11.614655999999997
 11
267.95798399999995
 21
11.570752000000027
  0
LINE
  8
_f-f_
  6
CONTINUOUS
 62
    7
 10
267.95798399999995
 20
11.570752000000027
 11
267.89212799999996
 21
11.52684800000003
  0
LINE
  8
_f-f_
  6
CONTINUOUS
 62
    7
 10
267.89212799999996
 20
11.52684800000003
 11
267.72748799999999
 21
11.395136000000008
  0
LINE
  8
_f-f_
  6
CONTINUOUS
 62
    7
 10
267.72748799999999
 20
11.395136000000008
 11
267.79334399999999
 21
11.263423999999986
  0
LINE
  8
_f-f_
  6
CONTINUOUS
 62
    7
 10
267.79334399999999
 20
11.263423999999986
 11
267.8262719999999
 21
11.219519999999989
  0
LINE
  8
_f-f_
  6
CONTINUOUS
 62
    7
 10
267.8262719999999
 20
11.219519999999989
 11
267.89212799999996
 21
11.087808000000024
  0
LINE
  8
_f-f_
  6
CONTINUOUS
 62
    7
 10
267.44211199999995
 20
12.536639999999977
 11
267.48601599999995
 21
12.492735999999979
  0
LINE
  8
_f-f_
  6
CONTINUOUS
 62
    7
 10
267.48601599999995
 20
12.492735999999979
 11
267.61772799999994
 21
12.317120000000017
  0
LINE
  8
_f-f_
  6
CONTINUOUS
 62
    7
 10
267.61772799999994
 20
12.317120000000017
 11
267.63968
 21
12.273216000000019
  0
LINE
  8
_f-f_
  6
CONTINUOUS
 62
    7
 10
267.63968
 20
12.273216000000019
 11
267.67260799999997
 21
12.229311999999993
  0
LINE
  8
_f-f_
  6
CONTINUOUS
 62
    7
 10
267.67260799999997
 20
12.229311999999993
 11
267.69455999999997
 21
12.185407999999995
  0
LINE
  8
_f-f_
  6
CONTINUOUS
 62
    7
 10
267.69455999999997
 20
12.185407999999995
 11
267.72748799999999
 21
12.141503999999998
  0
LINE
  8
_f-f_
  6
CONTINUOUS
 62
    7
 10
267.06892800000003
 20
12.448831999999982
 11
267.06892800000003
 21
10.736576000000014
  0
LINE
  8
_f-f_
  6
CONTINUOUS
 62
    7
 10
268.9019199999999
 20
12.0976
 11
268.9019199999999
 21
10.736576000000014
  0
LINE
  8
_f-f_
  6
CONTINUOUS
 62
    7
 10
269.27510399999994
 20
12.0976
 11
269.37388799999991
 21
11.965888000000007
  0
LINE
  8
_f-f_
  6
CONTINUOUS
 62
    7
 10
269.37388799999991
 20
11.965888000000007
 11
269.41779199999996
 21
11.921984000000009
  0
LINE
  8
_f-f_
  6
CONTINUOUS
 62
    7
 10
269.41779199999996
 20
11.921984000000009
 11
269.45071999999993
 21
11.878080000000011
  0
LINE
  8
_f-f_
  6
CONTINUOUS
 62
    7
 10
269.45071999999993
 20
11.878080000000011
 11
269.49462399999999
 21
11.834176000000014
  0
LINE
  8
_f-f_
  6
CONTINUOUS
 62
    7
 10
269.49462399999999
 20
11.834176000000014
 11
269.5275519999999
 21
11.790272000000016
  0
LINE
  8
_f-f_
  6
CONTINUOUS
 62
    7
 10
269.5275519999999
 20
11.790272000000016
 11
269.70316800000001
 21
11.614655999999997
  0
LINE
  8
_f-f_
  6
CONTINUOUS
 62
    7
 10
269.70316800000001
 20
11.614655999999997
 11
269.75804799999997
 21
11.570752000000027
  0
LINE
  8
_f-f_
  6
CONTINUOUS
 62
    7
 10
269.75804799999997
 20
11.570752000000027
 11
269.80195199999991
 21
11.52684800000003
  0
LINE
  8
_f-f_
  6
CONTINUOUS
 62
    7
 10
269.80195199999991
 20
11.52684800000003
 11
269.91171199999997
 21
11.439040000000034
  0
LINE
  8
_f-f_
  6
CONTINUOUS
 62
    7
 10
269.91171199999997
 20
11.439040000000034
 11
269.95561599999996
 21
11.395136000000008
  0
LINE
  8
_f-f_
  6
CONTINUOUS
 62
    7
 10
269.95561599999996
 20
11.395136000000008
 11
270.01049599999999
 21
11.35123200000001
  0
LINE
  8
_f-f_
  6
CONTINUOUS
 62
    7
 10
270.01049599999999
 20
11.35123200000001
 11
270.07635199999993
 21
11.307327999999984
  0
LINE
  8
_f-f_
  6
CONTINUOUS
 62
    7
 10
270.07635199999993
 20
11.307327999999984
 11
270.18611199999998
 21
11.219519999999989
  0
LINE
  8
_f-f_
  6
CONTINUOUS
 62
    7
 10
267.37625600000001
 20
14.687935999999993
 11
267.44211199999995
 21
14.644031999999967
  0
LINE
  8
_f-f_
  6
CONTINUOUS
 62
    7
 10
267.44211199999995
 20
14.644031999999967
 11
267.39820799999995
 21
14.600128000000012
  0
LINE
  8
_f-f_
  6
CONTINUOUS
 62
    7
 10
267.39820799999995
 20
14.600128000000012
 11
267.38723200000004
 21
14.556224000000014
  0
LINE
  8
_f-f_
  6
CONTINUOUS
 62
    7
 10
267.38723200000004
 20
14.556224000000014
 11
267.38723200000004
 21
13.853760000000037
  0
LINE
  8
_f-f_
  6
CONTINUOUS
 62
    7
 10
267.38723200000004
 20
13.458624000000043
 11
267.38723200000004
 21
12.975680000000011
  0
LINE
  8
_f-f_
  6
CONTINUOUS
 62
    7
 10
267.38723200000004
 20
12.975680000000011
 11
267.51894399999992
 21
12.887871999999987
  0
LINE
  8
_f-f_
  6
CONTINUOUS
 62
    7
 10
267.51894399999992
 20
12.887871999999987
 11
267.683584
 21
12.756160000000023
  0
LINE
  8
_f-f_
  6
CONTINUOUS
 62
    7
 10
267.683584
 20
12.756160000000023
 11
267.90310399999998
 21
12.536639999999977
  0
LINE
  8
_f-f_
  6
CONTINUOUS
 62
    7
 10
267.90310399999998
 20
12.536639999999977
 11
267.96895999999992
 21
12.448831999999982
  0
LINE
  8
_f-f_
  6
CONTINUOUS
 62
    7
 10
267.96895999999992
 20
12.448831999999982
 11
267.80431999999996
 21
12.229311999999993
  0
LINE
  8
_f-f_
  6
CONTINUOUS
 62
    7
 10
267.80431999999996
 20
12.229311999999993
 11
267.76041599999996
 21
12.185407999999995
  0
LINE
  8
_f-f_
  6
CONTINUOUS
 62
    7
 10
267.76041599999996
 20
12.185407999999995
 11
267.72748799999999
 21
12.141503999999998
  0
LINE
  8
_f-f_
  6
CONTINUOUS
 62
    7
 10
269.22022399999992
 20
14.687935999999993
 11
269.27510399999994
 21
14.644031999999967
  0
LINE
  8
_f-f_
  6
CONTINUOUS
 62
    7
 10
269.27510399999994
 20
14.644031999999967
 11
269.23119999999994
 21
14.600128000000012
  0
LINE
  8
_f-f_
  6
CONTINUOUS
 62
    7
 10
269.23119999999994
 20
14.600128000000012
 11
269.23119999999994
 21
13.941568000000032
  0
LINE
  8
_f-f_
  6
CONTINUOUS
 62
    7
 10
269.23119999999994
 20
13.546432000000038
 11
269.23119999999994
 21
13.019583999999952
  0
LINE
  8
_f-f_
  6
CONTINUOUS
 62
    7
 10
269.26412799999991
 20
12.624447999999973
 11
269.28607999999997
 21
12.580544000000003
  0
LINE
  8
_f-f_
  6
CONTINUOUS
 62
    7
 10
269.28607999999997
 20
12.580544000000003
 11
269.48364800000002
 21
12.317120000000017
  0
LINE
  8
_f-f_
  6
CONTINUOUS
 62
    7
 10
269.48364800000002
 20
12.317120000000017
 11
269.5275519999999
 21
12.273216000000019
  0
LINE
  8
_f-f_
  6
CONTINUOUS
 62
    7
 10
269.5275519999999
 20
12.273216000000019
 11
269.56047999999998
 21
12.229311999999993
  0
LINE
  8
_f-f_
  6
CONTINUOUS
 62
    7
 10
269.56047999999998
 20
12.229311999999993
 11
269.64828799999998
 21
12.141503999999998
  0
LINE
  8
_f-f_
  6
CONTINUOUS
 62
    7
 10
269.64828799999998
 20
12.141503999999998
 11
269.70316800000001
 21
12.0976
  0
LINE
  8
_f-f_
  6
CONTINUOUS
 62
    7
 10
269.70316800000001
 20
12.0976
 11
269.74707199999995
 21
12.053696000000031
  0
LINE
  8
_f-f_
  6
CONTINUOUS
 62
    7
 10
269.74707199999995
 20
12.053696000000031
 11
270.02147199999996
 21
11.834176000000014
  0
LINE
  8
_f-f_
  6
CONTINUOUS
 62
    7
 10
270.02147199999996
 20
11.834176000000014
 11
270.35075199999994
 21
11.614655999999997
  0
LINE
  8
_f-f_
  6
CONTINUOUS
 62
    7
 10
270.35075199999994
 20
11.614655999999997
 11
270.42758399999991
 21
11.570752000000027
  0
LINE
  8
_f-f_
  6
CONTINUOUS
 62
    7
 10
270.42758399999991
 20
11.570752000000027
 11
270.38367999999997
 21
11.482944000000003
  0
LINE
  8
_f-f_
  6
CONTINUOUS
 62
    7
 10
270.38367999999997
 20
11.482944000000003
 11
270.35075199999994
 21
11.439040000000034
  0
LINE
  8
_f-f_
  6
CONTINUOUS
 62
    7
 10
270.35075199999994
 20
11.439040000000034
 11
270.24099199999989
 21
11.219519999999989
  0
LINE
  8
_f-f_
  6
CONTINUOUS
 62
    7
 10
270.24099199999989
 20
11.219519999999989
 11
270.18611199999998
 21
11.219519999999989
  0
LINE
  8
_f-f_
  6
CONTINUOUS
 62
    7
 10
268.37507199999993
 20
14.336704000000026
 11
268.55068799999992
 21
14.292800000000028
  0
LINE
  8
_f-f_
  6
CONTINUOUS
 62
    7
 10
268.55068799999992
 20
14.292800000000028
 11
268.70435199999997
 21
14.248896000000016
  0
LINE
  8
_f-f_
  6
CONTINUOUS
 62
    7
 10
268.70435199999997
 20
14.248896000000016
 11
268.70435199999997
 21
14.204992000000018
  0
LINE
  8
_f-f_
  6
CONTINUOUS
 62
    7
 10
268.70435199999997
 20
14.204992000000018
 11
268.63849599999992
 21
14.161087999999992
  0
LINE
  8
_f-f_
  6
CONTINUOUS
 62
    7
 10
268.63849599999992
 20
14.161087999999992
 11
268.62752
 21
14.117184000000023
  0
LINE
  8
_f-f_
  6
CONTINUOUS
 62
    7
 10
268.62752
 20
14.117184000000023
 11
268.60556799999995
 21
14.073279999999997
  0
LINE
  8
_f-f_
  6
CONTINUOUS
 62
    7
 10
268.60556799999995
 20
14.073279999999997
 11
268.58361600000001
 21
13.985471999999987
  0
LINE
  8
_f-f_
  6
CONTINUOUS
 62
    7
 10
268.58361600000001
 20
13.985471999999987
 11
268.56166399999995
 21
13.941568000000032
  0
LINE
  8
_f-f_
  6
CONTINUOUS
 62
    7
 10
268.9019199999999
 20
13.546432000000038
 11
268.40799999999996
 21
13.546432000000038
  0
LINE
  8
_f-f_
  6
CONTINUOUS
 62
    7
 10
268.40799999999996
 20
13.546432000000038
 11
268.34214399999996
 21
13.414720000000017
  0
LINE
  8
_f-f_
  6
CONTINUOUS
 62
    7
 10
268.34214399999996
 20
13.414720000000017
 11
268.30921599999999
 21
13.370815999999991
  0
LINE
  8
_f-f_
  6
CONTINUOUS
 62
    7
 10
268.30921599999999
 20
13.370815999999991
 11
268.26531199999999
 21
13.283008000000024
  0
LINE
  8
_f-f_
  6
CONTINUOUS
 62
    7
 10
268.26531199999999
 20
13.283008000000024
 11
268.13359999999994
 21
13.107392000000061
  0
LINE
  8
_f-f_
  6
CONTINUOUS
 62
    7
 10
268.13359999999994
 20
13.107392000000061
 11
268.11164799999995
 21
13.107392000000061
  0
LINE
  8
_f-f_
  6
CONTINUOUS
 62
    7
 10
267.44211199999995
 20
12.536639999999977
 11
267.38723200000004
 21
12.536639999999977
  0
LINE
  8
_f-f_
  6
CONTINUOUS
 62
    7
 10
267.38723200000004
 20
12.536639999999977
 11
267.38723200000004
 21
10.736576000000014
  0
LINE
  8
_f-f_
  6
CONTINUOUS
 62
    7
 10
267.38723200000004
 20
10.736576000000014
 11
267.06892800000003
 21
10.736576000000014
  0
LINE
  8
_f-f_
  6
CONTINUOUS
 62
    7
 10
267.06892800000003
 20
12.448831999999982
 11
267.03599999999994
 21
12.448831999999982
  0
LINE
  8
_f-f_
  6
CONTINUOUS
 62
    7
 10
267.03599999999994
 20
12.448831999999982
 11
266.99209599999995
 21
12.361024000000015
  0
LINE
  8
_f-f_
  6
CONTINUOUS
 62
    7
 10
266.99209599999995
 20
12.361024000000015
 11
266.98111999999998
 21
12.317120000000017
  0
LINE
  8
_f-f_
  6
CONTINUOUS
 62
    7
 10
266.98111999999998
 20
12.317120000000017
 11
266.91526399999998
 21
12.185407999999995
  0
LINE
  8
_f-f_
  6
CONTINUOUS
 62
    7
 10
266.91526399999998
 20
12.185407999999995
 11
266.88233600000001
 21
12.141503999999998
  0
LINE
  8
_f-f_
  6
CONTINUOUS
 62
    7
 10
266.88233600000001
 20
12.141503999999998
 11
266.8384319999999
 21
12.053696000000031
  0
LINE
  8
_f-f_
  6
CONTINUOUS
 62
    7
 10
266.8384319999999
 20
12.053696000000031
 11
266.77257599999996
 21
11.965888000000007
  0
LINE
  8
_f-f_
  6
CONTINUOUS
 62
    7
 10
266.77257599999996
 20
11.965888000000007
 11
266.7506239999999
 21
11.921984000000009
  0
LINE
  8
_f-f_
  6
CONTINUOUS
 62
    7
 10
266.7506239999999
 20
11.921984000000009
 11
266.65183999999999
 21
11.790272000000016
  0
LINE
  8
_f-f_
  6
CONTINUOUS
 62
    7
 10
266.65183999999999
 20
11.790272000000016
 11
266.607936
 21
11.746368000000018
  0
LINE
  8
_f-f_
  6
CONTINUOUS
 62
    7
 10
266.607936
 20
11.746368000000018
 11
266.57500799999991
 21
11.70246400000002
  0
LINE
  8
_f-f_
  6
CONTINUOUS
 62
    7
 10
266.57500799999991
 20
11.70246400000002
 11
266.55305599999997
 21
11.70246400000002
  0
LINE
  8
_f-f_
  6
CONTINUOUS
 62
    7
 10
268.9019199999999
 20
12.0976
 11
268.87996799999996
 21
12.0976
  0
LINE
  8
_f-f_
  6
CONTINUOUS
 62
    7
 10
268.87996799999996
 20
12.0976
 11
268.84703999999994
 21
12.053696000000031
  0
LINE
  8
_f-f_
  6
CONTINUOUS
 62
    7
 10
268.84703999999994
 20
12.053696000000031
 11
268.82508799999994
 21
12.009792000000004
  0
LINE
  8
_f-f_
  6
CONTINUOUS
 62
    7
 10
268.82508799999994
 20
12.009792000000004
 11
268.79215999999997
 21
11.965888000000007
  0
LINE
  8
_f-f_
  6
CONTINUOUS
 62
    7
 10
268.79215999999997
 20
11.965888000000007
 11
268.77020799999997
 21
11.921984000000009
  0
LINE
  8
_f-f_
  6
CONTINUOUS
 62
    7
 10
268.77020799999997
 20
11.921984000000009
 11
268.60556799999995
 21
11.70246400000002
  0
LINE
  8
_f-f_
  6
CONTINUOUS
 62
    7
 10
268.60556799999995
 20
11.70246400000002
 11
268.56166399999995
 21
11.658559999999994
  0
LINE
  8
_f-f_
  6
CONTINUOUS
 62
    7
 10
268.56166399999995
 20
11.658559999999994
 11
268.52873599999998
 21
11.614655999999997
  0
LINE
  8
_f-f_
  6
CONTINUOUS
 62
    7
 10
268.52873599999998
 20
11.614655999999997
 11
268.26531199999999
 21
11.35123200000001
  0
LINE
  8
_f-f_
  6
CONTINUOUS
 62
    7
 10
268.26531199999999
 20
11.35123200000001
 11
267.99091199999998
 21
11.131712000000022
  0
LINE
  8
_f-f_
  6
CONTINUOUS
 62
    7
 10
267.99091199999998
 20
11.131712000000022
 11
267.92505599999993
 21
11.087808000000024
  0
LINE
  8
_f-f_
  6
CONTINUOUS
 62
    7
 10
267.92505599999993
 20
11.087808000000024
 11
267.89212799999996
 21
11.087808000000024
  0
LINE
  8
_f-f_
  6
CONTINUOUS
 62
    7
 10
269.27510399999994
 20
12.0976
 11
269.23119999999994
 21
12.0976
  0
LINE
  8
_f-f_
  6
CONTINUOUS
 62
    7
 10
269.23119999999994
 20
12.0976
 11
269.23119999999994
 21
10.736576000000014
  0
LINE
  8
_f-f_
  6
CONTINUOUS
 62
    7
 10
269.23119999999994
 20
10.736576000000014
 11
268.9019199999999
 21
10.736576000000014
  0
LINE
  8
_f-f_
  6
CONTINUOUS
 62
    7
 10
273.48988799999995
 20
14.600128000000012
 11
273.07279999999992
 21
14.600128000000012
  0
LINE
  8
_f-f_
  6
CONTINUOUS
 62
    7
 10
273.07279999999992
 20
14.600128000000012
 11
273.07279999999992
 21
13.853760000000037
  0
LINE
  8
_f-f_
  6
CONTINUOUS
 62
    7
 10
273.083776
 20
13.458624000000043
 11
273.083776
 21
13.414720000000017
  0
LINE
  8
_f-f_
  6
CONTINUOUS
 62
    7
 10
273.083776
 20
13.414720000000017
 11
273.09475199999997
 21
13.370815999999991
  0
LINE
  8
_f-f_
  6
CONTINUOUS
 62
    7
 10
273.09475199999997
 20
13.370815999999991
 11
273.09475199999997
 21
13.151296000000031
  0
LINE
  8
_f-f_
  6
CONTINUOUS
 62
    7
 10
273.09475199999997
 20
13.151296000000031
 11
273.105728
 21
13.107392000000061
  0
LINE
  8
_f-f_
  6
CONTINUOUS
 62
    7
 10
273.105728
 20
13.107392000000061
 11
273.105728
 21
12.975680000000011
  0
LINE
  8
_f-f_
  6
CONTINUOUS
 62
    7
 10
273.105728
 20
12.975680000000011
 11
273.11670399999991
 21
12.931776000000013
  0
LINE
  8
_f-f_
  6
CONTINUOUS
 62
    7
 10
273.11670399999991
 20
12.931776000000013
 11
273.11670399999991
 21
12.84396799999999
  0
LINE
  8
_f-f_
  6
CONTINUOUS
 62
    7
 10
273.11670399999991
 20
12.84396799999999
 11
273.12767999999994
 21
12.800064000000049
  0
LINE
  8
_f-f_
  6
CONTINUOUS
 62
    7
 10
273.12767999999994
 20
12.800064000000049
 11
273.12767999999994
 21
12.756160000000023
  0
LINE
  8
_f-f_
  6
CONTINUOUS
 62
    7
 10
273.12767999999994
 20
12.756160000000023
 11
273.13865599999997
 21
12.712256000000025
  0
LINE
  8
_f-f_
  6
CONTINUOUS
 62
    7
 10
273.13865599999997
 20
12.712256000000025
 11
273.13865599999997
 21
12.668351999999999
  0
LINE
  8
_f-f_
  6
CONTINUOUS
 62
    7
 10
273.13865599999997
 20
12.668351999999999
 11
273.149632
 21
12.624447999999973
  0
LINE
  8
_f-f_
  6
CONTINUOUS
 62
    7
 10
273.149632
 20
12.624447999999973
 11
273.149632
 21
12.580544000000003
  0
LINE
  8
_f-f_
  6
CONTINUOUS
 62
    7
 10
273.149632
 20
12.580544000000003
 11
273.17158399999994
 21
12.492735999999979
  0
LINE
  8
_f-f_
  6
CONTINUOUS
 62
    7
 10
273.17158399999994
 20
12.492735999999979
 11
273.17158399999994
 21
12.448831999999982
  0
LINE
  8
_f-f_
  6
CONTINUOUS
 62
    7
 10
273.17158399999994
 20
12.448831999999982
 11
273.20451199999991
 21
12.317120000000017
  0
LINE
  8
_f-f_
  6
CONTINUOUS
 62
    7
 10
273.20451199999991
 20
12.317120000000017
 11
273.20451199999991
 21
12.273216000000019
  0
LINE
  8
_f-f_
  6
CONTINUOUS
 62
    7
 10
273.20451199999991
 20
12.273216000000019
 11
273.25939199999999
 21
12.053696000000031
  0
LINE
  8
_f-f_
  6
CONTINUOUS
 62
    7
 10
273.25939199999999
 20
12.053696000000031
 11
273.28134399999999
 21
12.009792000000004
  0
LINE
  8
_f-f_
  6
CONTINUOUS
 62
    7
 10
273.28134399999999
 20
12.009792000000004
 11
273.31427199999996
 21
11.878080000000011
  0
LINE
  8
_f-f_
  6
CONTINUOUS
 62
    7
 10
273.31427199999996
 20
11.878080000000011
 11
273.3362239999999
 21
11.834176000000014
  0
LINE
  8
_f-f_
  6
CONTINUOUS
 62
    7
 10
273.3362239999999
 20
11.834176000000014
 11
273.34719999999999
 21
11.790272000000016
  0
LINE
  8
_f-f_
  6
CONTINUOUS
 62
    7
 10
273.34719999999999
 20
11.790272000000016
 11
273.41305599999998
 21
11.658559999999994
  0
LINE
  8
_f-f_
  6
CONTINUOUS
 62
    7
 10
273.41305599999998
 20
11.658559999999994
 11
273.42403199999995
 21
11.614655999999997
  0
LINE
  8
_f-f_
  6
CONTINUOUS
 62
    7
 10
273.42403199999995
 20
11.614655999999997
 11
273.44598400000001
 21
11.570752000000027
  0
LINE
  8
_f-f_
  6
CONTINUOUS
 62
    7
 10
273.44598400000001
 20
11.570752000000027
 11
273.47891199999992
 21
11.52684800000003
  0
LINE
  8
_f-f_
  6
CONTINUOUS
 62
    7
 10
273.47891199999992
 20
11.52684800000003
 11
273.52281599999992
 21
11.439040000000034
  0
LINE
  8
_f-f_
  6
CONTINUOUS
 62
    7
 10
273.52281599999992
 20
11.439040000000034
 11
273.555744
 21
11.395136000000008
  0
LINE
  8
_f-f_
  6
CONTINUOUS
 62
    7
 10
273.555744
 20
11.395136000000008
 11
273.57769599999995
 21
11.35123200000001
  0
LINE
  8
_f-f_
  6
CONTINUOUS
 62
    7
 10
273.57769599999995
 20
11.35123200000001
 11
273.70940799999994
 21
11.175616000000019
  0
LINE
  8
_f-f_
  6
CONTINUOUS
 62
    7
 10
273.70940799999994
 20
11.175616000000019
 11
273.79721599999993
 21
11.087808000000024
  0
LINE
  8
_f-f_
  6
CONTINUOUS
 62
    7
 10
273.79721599999993
 20
11.087808000000024
 11
273.85209599999996
 21
11.043903999999998
  0
LINE
  8
_f-f_
  6
CONTINUOUS
 62
    7
 10
273.85209599999996
 20
11.043903999999998
 11
273.98380799999995
 21
10.956095999999974
  0
LINE
  8
_f-f_
  6
CONTINUOUS
 62
    7
 10
273.98380799999995
 20
10.956095999999974
 11
274.093568
 21
10.912192000000005
  0
LINE
  8
_f-f_
  6
CONTINUOUS
 62
    7
 10
273.95087999999998
 20
14.512320000000003
 11
273.90697599999999
 21
14.512320000000003
  0
LINE
  8
_f-f_
  6
CONTINUOUS
 62
    7
 10
273.90697599999999
 20
14.512320000000003
 11
273.85209599999996
 21
14.468416000000005
  0
LINE
  8
_f-f_
  6
CONTINUOUS
 62
    7
 10
273.85209599999996
 20
14.468416000000005
 11
273.80819200000002
 21
14.424512000000007
  0
LINE
  8
_f-f_
  6
CONTINUOUS
 62
    7
 10
273.80819200000002
 20
14.424512000000007
 11
273.69843199999997
 21
14.336704000000026
  0
LINE
  8
_f-f_
  6
CONTINUOUS
 62
    7
 10
273.69843199999997
 20
14.336704000000026
 11
273.65452800000003
 21
14.292800000000028
  0
LINE
  8
_f-f_
  6
CONTINUOUS
 62
    7
 10
273.65452800000003
 20
14.292800000000028
 11
273.69843199999997
 21
14.248896000000016
  0
LINE
  8
_f-f_
  6
CONTINUOUS
 62
    7
 10
273.69843199999997
 20
14.248896000000016
 11
273.77526399999999
 21
14.204992000000018
  0
LINE
  8
_f-f_
  6
CONTINUOUS
 62
    7
 10
273.77526399999999
 20
14.204992000000018
 11
273.84111999999993
 21
14.161087999999992
  0
LINE
  8
_f-f_
  6
CONTINUOUS
 62
    7
 10
273.84111999999993
 20
14.161087999999992
 11
274.06063999999998
 21
13.985471999999987
  0
LINE
  8
_f-f_
  6
CONTINUOUS
 62
    7
 10
272.83132799999998
 20
12.84396799999999
 11
271.15199999999993
 21
12.84396799999999
  0
LINE
  8
_f-f_
  6
CONTINUOUS
 62
    7
 10
271.83251199999995
 20
12.536639999999977
 11
271.83251199999995
 21
11.570752000000027
  0
LINE
  8
_f-f_
  6
CONTINUOUS
 62
    7
 10
271.83251199999995
 20
11.570752000000027
 11
271.56908799999997
 21
11.52684800000003
  0
LINE
  8
_f-f_
  6
CONTINUOUS
 62
    7
 10
271.56908799999997
 20
11.52684800000003
 11
271.19590399999998
 21
11.482944000000003
  0
LINE
  8
_f-f_
  6
CONTINUOUS
 62
    7
 10
271.19590399999998
 20
11.482944000000003
 11
270.99833599999994
 21
11.439040000000034
  0
LINE
  8
_f-f_
  6
CONTINUOUS
 62
    7
 10
270.99833599999994
 20
11.439040000000034
 11
271.04223999999999
 21
11.263423999999986
  0
LINE
  8
_f-f_
  6
CONTINUOUS
 62
    7
 10
271.04223999999999
 20
11.263423999999986
 11
271.04223999999999
 21
11.219519999999989
  0
LINE
  8
_f-f_
  6
CONTINUOUS
 62
    7
 10
271.04223999999999
 20
11.219519999999989
 11
271.08614399999999
 21
11.043903999999998
  0
LINE
  8
_f-f_
  6
CONTINUOUS
 62
    7
 10
271.08614399999999
 20
11.043903999999998
 11
271.11907199999996
 21
11
  0
LINE
  8
_f-f_
  6
CONTINUOUS
 62
    7
 10
273.07279999999992
 20
11.746368000000018
 11
272.95206399999995
 21
11.746368000000018
  0
LINE
  8
_f-f_
  6
CONTINUOUS
 62
    7
 10
272.95206399999995
 20
11.746368000000018
 11
272.71059199999996
 21
11.70246400000002
  0
LINE
  8
_f-f_
  6
CONTINUOUS
 62
    7
 10
272.71059199999996
 20
11.70246400000002
 11
272.44716799999998
 21
11.658559999999994
  0
LINE
  8
_f-f_
  6
CONTINUOUS
 62
    7
 10
272.44716799999998
 20
11.658559999999994
 11
272.16179199999999
 21
11.658559999999994
  0
LINE
  8
_f-f_
  6
CONTINUOUS
 62
    7
 10
274.38991999999996
 20
11.70246400000002
 11
274.31308799999994
 21
11.70246400000002
  0
LINE
  8
_f-f_
  6
CONTINUOUS
 62
    7
 10
274.31308799999994
 20
11.70246400000002
 11
274.31308799999994
 21
11.614655999999997
  0
LINE
  8
_f-f_
  6
CONTINUOUS
 62
    7
 10
274.31308799999994
 20
11.614655999999997
 11
274.30211199999997
 21
11.570752000000027
  0
LINE
  8
_f-f_
  6
CONTINUOUS
 62
    7
 10
274.30211199999997
 20
11.570752000000027
 11
274.30211199999997
 21
11.52684800000003
  0
LINE
  8
_f-f_
  6
CONTINUOUS
 62
    7
 10
274.30211199999997
 20
11.52684800000003
 11
274.29113599999994
 21
11.482944000000003
  0
LINE
  8
_f-f_
  6
CONTINUOUS
 62
    7
 10
274.29113599999994
 20
11.482944000000003
 11
274.29113599999994
 21
11.439040000000034
  0
LINE
  8
_f-f_
  6
CONTINUOUS
 62
    7
 10
274.29113599999994
 20
11.439040000000034
 11
274.269184
 21
11.395136000000008
  0
LINE
  8
_f-f_
  6
CONTINUOUS
 62
    7
 10
274.269184
 20
11.395136000000008
 11
274.23625599999997
 21
11.35123200000001
  0
LINE
  8
_f-f_
  6
CONTINUOUS
 62
    7
 10
274.23625599999997
 20
11.35123200000001
 11
274.137472
 21
11.35123200000001
  0
LINE
  8
_f-f_
  6
CONTINUOUS
 62
    7
 10
273.48988799999995
 20
14.600128000000012
 11
273.51183999999995
 21
14.556224000000014
  0
LINE
  8
_f-f_
  6
CONTINUOUS
 62
    7
 10
273.51183999999995
 20
14.556224000000014
 11
273.44598400000001
 21
14.468416000000005
  0
LINE
  8
_f-f_
  6
CONTINUOUS
 62
    7
 10
273.44598400000001
 20
14.468416000000005
 11
273.44598400000001
 21
13.853760000000037
  0
LINE
  8
_f-f_
  6
CONTINUOUS
 62
    7
 10
273.44598400000001
 20
13.458624000000043
 11
273.44598400000001
 21
13.370815999999991
  0
LINE
  8
_f-f_
  6
CONTINUOUS
 62
    7
 10
273.44598400000001
 20
13.370815999999991
 11
273.45695999999998
 21
13.326912000000021
  0
LINE
  8
_f-f_
  6
CONTINUOUS
 62
    7
 10
273.45695999999998
 20
13.326912000000021
 11
273.45695999999998
 21
13.239103999999998
  0
LINE
  8
_f-f_
  6
CONTINUOUS
 62
    7
 10
273.45695999999998
 20
13.239103999999998
 11
273.46793600000001
 21
13.195199999999971
  0
LINE
  8
_f-f_
  6
CONTINUOUS
 62
    7
 10
273.46793600000001
 20
13.195199999999971
 11
273.46793600000001
 21
13.107392000000061
  0
LINE
  8
_f-f_
  6
CONTINUOUS
 62
    7
 10
273.46793600000001
 20
13.107392000000061
 11
273.47891199999992
 21
13.063488000000007
  0
LINE
  8
_f-f_
  6
CONTINUOUS
 62
    7
 10
273.47891199999992
 20
13.063488000000007
 11
273.47891199999992
 21
13.019583999999952
  0
LINE
  8
_f-f_
  6
CONTINUOUS
 62
    7
 10
273.47891199999992
 20
13.019583999999952
 11
273.48988799999995
 21
12.975680000000011
  0
LINE
  8
_f-f_
  6
CONTINUOUS
 62
    7
 10
273.48988799999995
 20
12.975680000000011
 11
273.48988799999995
 21
12.887871999999987
  0
LINE
  8
_f-f_
  6
CONTINUOUS
 62
    7
 10
273.48988799999995
 20
12.887871999999987
 11
273.50086399999998
 21
12.84396799999999
  0
LINE
  8
_f-f_
  6
CONTINUOUS
 62
    7
 10
273.50086399999998
 20
12.84396799999999
 11
273.50086399999998
 21
12.800064000000049
  0
LINE
  8
_f-f_
  6
CONTINUOUS
 62
    7
 10
273.50086399999998
 20
12.800064000000049
 11
273.52281599999992
 21
12.712256000000025
  0
LINE
  8
_f-f_
  6
CONTINUOUS
 62
    7
 10
273.52281599999992
 20
12.712256000000025
 11
273.52281599999992
 21
12.668351999999999
  0
LINE
  8
_f-f_
  6
CONTINUOUS
 62
    7
 10
273.52281599999992
 20
12.668351999999999
 11
273.53379199999995
 21
12.624447999999973
  0
LINE
  8
_f-f_
  6
CONTINUOUS
 62
    7
 10
273.53379199999995
 20
12.624447999999973
 11
273.53379199999995
 21
12.580544000000003
  0
LINE
  8
_f-f_
  6
CONTINUOUS
 62
    7
 10
273.53379199999995
 20
12.580544000000003
 11
273.56671999999992
 21
12.448831999999982
  0
LINE
  8
_f-f_
  6
CONTINUOUS
 62
    7
 10
273.56671999999992
 20
12.448831999999982
 11
273.56671999999992
 21
12.404927999999984
  0
LINE
  8
_f-f_
  6
CONTINUOUS
 62
    7
 10
273.56671999999992
 20
12.404927999999984
 11
273.63257599999997
 21
12.141503999999998
  0
LINE
  8
_f-f_
  6
CONTINUOUS
 62
    7
 10
273.63257599999997
 20
12.141503999999998
 11
273.65452800000003
 21
12.0976
  0
LINE
  8
_f-f_
  6
CONTINUOUS
 62
    7
 10
273.65452800000003
 20
12.0976
 11
273.67647999999997
 21
12.009792000000004
  0
LINE
  8
_f-f_
  6
CONTINUOUS
 62
    7
 10
273.67647999999997
 20
12.009792000000004
 11
273.69843199999997
 21
11.965888000000007
  0
LINE
  8
_f-f_
  6
CONTINUOUS
 62
    7
 10
273.69843199999997
 20
11.965888000000007
 11
273.70940799999994
 21
11.921984000000009
  0
LINE
  8
_f-f_
  6
CONTINUOUS
 62
    7
 10
273.70940799999994
 20
11.921984000000009
 11
273.84111999999993
 21
11.658559999999994
  0
LINE
  8
_f-f_
  6
CONTINUOUS
 62
    7
 10
273.84111999999993
 20
11.658559999999994
 11
273.87404799999996
 21
11.614655999999997
  0
LINE
  8
_f-f_
  6
CONTINUOUS
 62
    7
 10
273.87404799999996
 20
11.614655999999997
 11
273.89599999999996
 21
11.570752000000027
  0
LINE
  8
_f-f_
  6
CONTINUOUS
 62
    7
 10
273.89599999999996
 20
11.570752000000027
 11
273.92892799999993
 21
11.52684800000003
  0
LINE
  8
_f-f_
  6
CONTINUOUS
 62
    7
 10
273.92892799999993
 20
11.52684800000003
 11
273.97283199999998
 21
11.482944000000003
  0
LINE
  8
_f-f_
  6
CONTINUOUS
 62
    7
 10
273.97283199999998
 20
11.482944000000003
 11
274.0057599999999
 21
11.439040000000034
  0
LINE
  8
_f-f_
  6
CONTINUOUS
 62
    7
 10
274.0057599999999
 20
11.439040000000034
 11
274.06063999999998
 21
11.395136000000008
  0
LINE
  8
_f-f_
  6
CONTINUOUS
 62
    7
 10
274.06063999999998
 20
11.395136000000008
 11
274.137472
 21
11.35123200000001
  0
LINE
  8
_f-f_
  6
CONTINUOUS
 62
    7
 10
273.95087999999998
 20
14.512320000000003
 11
274.10454399999992
 21
14.424512000000007
  0
LINE
  8
_f-f_
  6
CONTINUOUS
 62
    7
 10
274.10454399999992
 20
14.424512000000007
 11
274.15942399999994
 21
14.380608000000009
  0
LINE
  8
_f-f_
  6
CONTINUOUS
 62
    7
 10
274.15942399999994
 20
14.380608000000009
 11
274.22528
 21
14.336704000000026
  0
LINE
  8
_f-f_
  6
CONTINUOUS
 62
    7
 10
274.22528
 20
14.336704000000026
 11
274.28016000000002
 21
14.292800000000028
  0
LINE
  8
_f-f_
  6
CONTINUOUS
 62
    7
 10
274.28016000000002
 20
14.292800000000028
 11
274.32406400000002
 21
14.248896000000016
  0
LINE
  8
_f-f_
  6
CONTINUOUS
 62
    7
 10
274.32406400000002
 20
14.248896000000016
 11
274.35699199999999
 21
14.204992000000018
  0
LINE
  8
_f-f_
  6
CONTINUOUS
 62
    7
 10
274.35699199999999
 20
14.204992000000018
 11
274.24723199999994
 21
14.117184000000023
  0
LINE
  8
_f-f_
  6
CONTINUOUS
 62
    7
 10
274.24723199999994
 20
14.117184000000023
 11
274.20332799999994
 21
14.073279999999997
  0
LINE
  8
_f-f_
  6
CONTINUOUS
 62
    7
 10
274.20332799999994
 20
14.073279999999997
 11
274.093568
 21
13.985471999999987
  0
LINE
  8
_f-f_
  6
CONTINUOUS
 62
    7
 10
274.093568
 20
13.985471999999987
 11
274.06063999999998
 21
13.985471999999987
  0
LINE
  8
_f-f_
  6
CONTINUOUS
 62
    7
 10
273.07279999999992
 20
11.746368000000018
 11
273.083776
 21
11.70246400000002
  0
LINE
  8
_f-f_
  6
CONTINUOUS
 62
    7
 10
273.083776
 20
11.70246400000002
 11
273.083776
 21
11.658559999999994
  0
LINE
  8
_f-f_
  6
CONTINUOUS
 62
    7
 10
273.083776
 20
11.658559999999994
 11
273.105728
 21
11.570752000000027
  0
LINE
  8
_f-f_
  6
CONTINUOUS
 62
    7
 10
273.105728
 20
11.570752000000027
 11
273.105728
 21
11.52684800000003
  0
LINE
  8
_f-f_
  6
CONTINUOUS
 62
    7
 10
273.105728
 20
11.52684800000003
 11
273.11670399999991
 21
11.482944000000003
  0
LINE
  8
_f-f_
  6
CONTINUOUS
 62
    7
 10
273.11670399999991
 20
11.482944000000003
 11
273.03987199999995
 21
11.439040000000034
  0
LINE
  8
_f-f_
  6
CONTINUOUS
 62
    7
 10
273.03987199999995
 20
11.439040000000034
 11
272.62278400000002
 21
11.35123200000001
  0
LINE
  8
_f-f_
  6
CONTINUOUS
 62
    7
 10
272.62278400000002
 20
11.35123200000001
 11
272.18374399999993
 21
11.263423999999986
  0
LINE
  8
_f-f_
  6
CONTINUOUS
 62
    7
 10
272.18374399999993
 20
11.263423999999986
 11
271.72275199999996
 21
11.175616000000019
  0
LINE
  8
_f-f_
  6
CONTINUOUS
 62
    7
 10
271.72275199999996
 20
11.175616000000019
 11
271.48127999999997
 21
11.131712000000022
  0
LINE
  8
_f-f_
  6
CONTINUOUS
 62
    7
 10
271.48127999999997
 20
11.131712000000022
 11
271.2288319999999
 21
11.087808000000024
  0
LINE
  8
_f-f_
  6
CONTINUOUS
 62
    7
 10
271.2288319999999
 20
11.087808000000024
 11
271.17395199999999
 21
11.043903999999998
  0
LINE
  8
_f-f_
  6
CONTINUOUS
 62
    7
 10
271.17395199999999
 20
11.043903999999998
 11
271.15199999999993
 21
11
  0
LINE
  8
_f-f_
  6
CONTINUOUS
 62
    7
 10
271.15199999999993
 20
11
 11
271.11907199999996
 21
11
  0
LINE
  8
_f-f_
  6
CONTINUOUS
 62
    7
 10
274.38991999999996
 20
11.70246400000002
 11
274.47772799999996
 21
11.658559999999994
  0
LINE
  8
_f-f_
  6
CONTINUOUS
 62
    7
 10
274.47772799999996
 20
11.658559999999994
 11
274.67529599999995
 21
11.570752000000027
  0
LINE
  8
_f-f_
  6
CONTINUOUS
 62
    7
 10
274.67529599999995
 20
11.570752000000027
 11
274.67529599999995
 21
11.52684800000003
  0
LINE
  8
_f-f_
  6
CONTINUOUS
 62
    7
 10
274.67529599999995
 20
11.52684800000003
 11
274.65334399999995
 21
11.439040000000034
  0
LINE
  8
_f-f_
  6
CONTINUOUS
 62
    7
 10
274.65334399999995
 20
11.439040000000034
 11
274.65334399999995
 21
11.395136000000008
  0
LINE
  8
_f-f_
  6
CONTINUOUS
 62
    7
 10
274.65334399999995
 20
11.395136000000008
 11
274.63139200000001
 21
11.307327999999984
  0
LINE
  8
_f-f_
  6
CONTINUOUS
 62
    7
 10
274.63139200000001
 20
11.307327999999984
 11
274.63139200000001
 21
11.263423999999986
  0
LINE
  8
_f-f_
  6
CONTINUOUS
 62
    7
 10
274.63139200000001
 20
11.263423999999986
 11
274.60943999999995
 21
11.175616000000019
  0
LINE
  8
_f-f_
  6
CONTINUOUS
 62
    7
 10
274.60943999999995
 20
11.175616000000019
 11
274.60943999999995
 21
11.131712000000022
  0
LINE
  8
_f-f_
  6
CONTINUOUS
 62
    7
 10
274.60943999999995
 20
11.131712000000022
 11
274.59846399999998
 21
11.087808000000024
  0
LINE
  8
_f-f_
  6
CONTINUOUS
 62
    7
 10
274.59846399999998
 20
11.087808000000024
 11
274.55455999999992
 21
11
  0
LINE
  8
_f-f_
  6
CONTINUOUS
 62
    7
 10
274.55455999999992
 20
11
 11
274.52163199999995
 21
10.956095999999974
  0
LINE
  8
_f-f_
  6
CONTINUOUS
 62
    7
 10
274.52163199999995
 20
10.956095999999974
 11
274.46675199999993
 21
10.912192000000005
  0
LINE
  8
_f-f_
  6
CONTINUOUS
 62
    7
 10
274.46675199999993
 20
10.912192000000005
 11
274.093568
 21
10.912192000000005
  0
LINE
  8
_f-f_
  6
CONTINUOUS
 62
    7
 10
277.05708800000002
 20
14.644031999999967
 11
276.99123199999997
 21
14.644031999999967
  0
LINE
  8
_f-f_
  6
CONTINUOUS
 62
    7
 10
276.99123199999997
 20
14.644031999999967
 11
276.94732799999997
 21
14.556224000000014
  0
LINE
  8
_f-f_
  6
CONTINUOUS
 62
    7
 10
276.94732799999997
 20
14.556224000000014
 11
276.9144
 21
14.512320000000003
  0
LINE
  8
_f-f_
  6
CONTINUOUS
 62
    7
 10
276.9144
 20
14.512320000000003
 11
276.89244799999994
 21
14.468416000000005
  0
LINE
  8
_f-f_
  6
CONTINUOUS
 62
    7
 10
276.89244799999994
 20
14.468416000000005
 11
276.82659199999995
 21
14.380608000000009
  0
LINE
  8
_f-f_
  6
CONTINUOUS
 62
    7
 10
276.82659199999995
 20
14.380608000000009
 11
276.80463999999995
 21
14.336704000000026
  0
LINE
  8
_f-f_
  6
CONTINUOUS
 62
    7
 10
276.80463999999995
 20
14.336704000000026
 11
276.70585599999993
 21
14.204992000000018
  0
LINE
  8
_f-f_
  6
CONTINUOUS
 62
    7
 10
276.70585599999993
 20
14.204992000000018
 11
276.66195199999999
 21
14.161087999999992
  0
LINE
  8
_f-f_
  6
CONTINUOUS
 62
    7
 10
276.66195199999999
 20
14.161087999999992
 11
276.59609599999999
 21
14.073279999999997
  0
LINE
  8
_f-f_
  6
CONTINUOUS
 62
    7
 10
276.59609599999999
 20
14.073279999999997
 11
276.42048
 21
13.897663999999992
  0
LINE
  8
_f-f_
  6
CONTINUOUS
 62
    7
 10
276.42048
 20
13.897663999999992
 11
276.36559999999997
 21
13.853760000000037
  0
LINE
  8
_f-f_
  6
CONTINUOUS
 62
    7
 10
276.36559999999997
 20
13.853760000000037
 11
276.32169599999997
 21
13.809856000000011
  0
LINE
  8
_f-f_
  6
CONTINUOUS
 62
    7
 10
276.32169599999997
 20
13.809856000000011
 11
276.21193599999998
 21
13.722048000000001
  0
LINE
  8
_f-f_
  6
CONTINUOUS
 62
    7
 10
276.21193599999998
 20
13.722048000000001
 11
276.01436799999999
 21
13.590336000000008
  0
LINE
  8
_f-f_
  6
CONTINUOUS
 62
    7
 10
276.01436799999999
 20
13.590336000000008
 11
275.860704
 21
13.502527999999984
  0
LINE
  8
_f-f_
  6
CONTINUOUS
 62
    7
 10
275.860704
 20
13.502527999999984
 11
275.68508799999995
 21
13.414720000000017
  0
LINE
  8
_f-f_
  6
CONTINUOUS
 62
    7
 10
275.68508799999995
 20
13.414720000000017
 11
275.46556799999996
 21
13.326912000000021
  0
LINE
  8
_f-f_
  6
CONTINUOUS
 62
    7
 10
275.46556799999996
 20
13.326912000000021
 11
275.33385599999997
 21
13.283008000000024
  0
LINE
  8
_f-f_
  6
CONTINUOUS
 62
    7
 10
275.33385599999997
 20
13.283008000000024
 11
275.22409599999997
 21
13.239103999999998
  0
LINE
  8
_f-f_
  6
CONTINUOUS
 62
    7
 10
275.22409599999997
 20
13.239103999999998
 11
275.23507199999995
 21
13.195199999999971
  0
LINE
  8
_f-f_
  6
CONTINUOUS
 62
    7
 10
275.23507199999995
 20
13.195199999999971
 11
275.257024
 21
13.151296000000031
  0
LINE
  8
_f-f_
  6
CONTINUOUS
 62
    7
 10
275.257024
 20
13.151296000000031
 11
275.26800000000003
 21
13.107392000000061
  0
LINE
  8
_f-f_
  6
CONTINUOUS
 62
    7
 10
275.26800000000003
 20
13.107392000000061
 11
275.28995199999997
 21
13.063488000000007
  0
LINE
  8
_f-f_
  6
CONTINUOUS
 62
    7
 10
275.28995199999997
 20
13.063488000000007
 11
275.300928
 21
13.019583999999952
  0
LINE
  8
_f-f_
  6
CONTINUOUS
 62
    7
 10
275.300928
 20
13.019583999999952
 11
275.32287999999994
 21
12.975680000000011
  0
LINE
  8
_f-f_
  6
CONTINUOUS
 62
    7
 10
275.32287999999994
 20
12.975680000000011
 11
275.33385599999997
 21
12.931776000000013
  0
LINE
  8
_f-f_
  6
CONTINUOUS
 62
    7
 10
275.33385599999997
 20
12.931776000000013
 11
275.35580800000002
 21
12.887871999999987
  0
LINE
  8
_f-f_
  6
CONTINUOUS
 62
    7
 10
277.17782399999993
 20
14.292800000000028
 11
277.19977599999999
 21
14.248896000000016
  0
LINE
  8
_f-f_
  6
CONTINUOUS
 62
    7
 10
277.19977599999999
 20
14.248896000000016
 11
277.2327039999999
 21
14.204992000000018
  0
LINE
  8
_f-f_
  6
CONTINUOUS
 62
    7
 10
277.2327039999999
 20
14.204992000000018
 11
277.25465599999995
 21
14.161087999999992
  0
LINE
  8
_f-f_
  6
CONTINUOUS
 62
    7
 10
277.25465599999995
 20
14.161087999999992
 11
277.48515199999997
 21
13.853760000000037
  0
LINE
  8
_f-f_
  6
CONTINUOUS
 62
    7
 10
277.48515199999997
 20
13.853760000000037
 11
277.70467199999996
 21
13.634240000000005
  0
LINE
  8
_f-f_
  6
CONTINUOUS
 62
    7
 10
277.70467199999996
 20
13.634240000000005
 11
277.86931199999992
 21
13.502527999999984
  0
LINE
  8
_f-f_
  6
CONTINUOUS
 62
    7
 10
277.86931199999992
 20
13.502527999999984
 11
278.06687999999991
 21
13.370815999999991
  0
LINE
  8
_f-f_
  6
CONTINUOUS
 62
    7
 10
278.06687999999991
 20
13.370815999999991
 11
278.14371199999994
 21
13.326912000000021
  0
LINE
  8
_f-f_
  6
CONTINUOUS
 62
    7
 10
278.14371199999994
 20
13.326912000000021
 11
276.27779199999998
 21
13.326912000000021
  0
LINE
  8
_f-f_
  6
CONTINUOUS
 62
    7
 10
276.24486400000001
 20
13.283008000000024
 11
276.24486400000001
 21
12.975680000000011
  0
LINE
  8
_f-f_
  6
CONTINUOUS
 62
    7
 10
278.23151999999993
 20
13.283008000000024
 11
278.38518399999998
 21
13.195199999999971
  0
LINE
  8
_f-f_
  6
CONTINUOUS
 62
    7
 10
278.38518399999998
 20
13.195199999999971
 11
278.56079999999997
 21
13.107392000000061
  0
LINE
  8
_f-f_
  6
CONTINUOUS
 62
    7
 10
278.56079999999997
 20
13.107392000000061
 11
278.78031999999996
 21
13.019583999999952
  0
LINE
  8
_f-f_
  6
CONTINUOUS
 62
    7
 10
278.78031999999996
 20
13.019583999999952
 11
278.91203199999995
 21
12.975680000000011
  0
LINE
  8
_f-f_
  6
CONTINUOUS
 62
    7
 10
278.9339839999999
 20
12.536639999999977
 11
275.43263999999999
 21
12.536639999999977
  0
LINE
  8
_f-f_
  6
CONTINUOUS
 62
    7
 10
276.66195199999999
 20
12.141503999999998
 11
276.6290239999999
 21
12.0976
  0
LINE
  8
_f-f_
  6
CONTINUOUS
 62
    7
 10
276.6290239999999
 20
12.0976
 11
276.54121599999996
 21
11.921984000000009
  0
LINE
  8
_f-f_
  6
CONTINUOUS
 62
    7
 10
276.54121599999996
 20
11.921984000000009
 11
276.50828799999999
 21
11.878080000000011
  0
LINE
  8
_f-f_
  6
CONTINUOUS
 62
    7
 10
276.50828799999999
 20
11.878080000000011
 11
276.42048
 21
11.70246400000002
  0
LINE
  8
_f-f_
  6
CONTINUOUS
 62
    7
 10
276.42048
 20
11.70246400000002
 11
276.38755199999997
 21
11.658559999999994
  0
LINE
  8
_f-f_
  6
CONTINUOUS
 62
    7
 10
276.38755199999997
 20
11.658559999999994
 11
276.29974399999992
 21
11.482944000000003
  0
LINE
  8
_f-f_
  6
CONTINUOUS
 62
    7
 10
276.29974399999992
 20
11.482944000000003
 11
276.26681599999995
 21
11.439040000000034
  0
LINE
  8
_f-f_
  6
CONTINUOUS
 62
    7
 10
276.26681599999995
 20
11.439040000000034
 11
276.20096000000001
 21
11.307327999999984
  0
LINE
  8
_f-f_
  6
CONTINUOUS
 62
    7
 10
276.20096000000001
 20
11.307327999999984
 11
275.57532799999996
 21
11.263423999999986
  0
LINE
  8
_f-f_
  6
CONTINUOUS
 62
    7
 10
275.57532799999996
 20
11.263423999999986
 11
275.49849599999993
 21
11.219519999999989
  0
LINE
  8
_f-f_
  6
CONTINUOUS
 62
    7
 10
275.49849599999993
 20
11.219519999999989
 11
275.50947199999996
 21
11.175616000000019
  0
LINE
  8
_f-f_
  6
CONTINUOUS
 62
    7
 10
275.50947199999996
 20
11.175616000000019
 11
275.53142400000002
 21
11.131712000000022
  0
LINE
  8
_f-f_
  6
CONTINUOUS
 62
    7
 10
275.53142400000002
 20
11.131712000000022
 11
275.59727999999996
 21
10.868288000000035
  0
LINE
  8
_f-f_
  6
CONTINUOUS
 62
    7
 10
275.59727999999996
 20
10.868288000000035
 11
275.63020799999993
 21
10.824384000000038
  0
LINE
  8
_f-f_
  6
CONTINUOUS
 62
    7
 10
277.81443200000001
 20
12.009792000000004
 11
277.77052800000001
 21
12.009792000000004
  0
LINE
  8
_f-f_
  6
CONTINUOUS
 62
    7
 10
277.77052800000001
 20
12.009792000000004
 11
277.50710400000003
 21
11.834176000000014
  0
LINE
  8
_f-f_
  6
CONTINUOUS
 62
    7
 10
277.50710400000003
 20
11.834176000000014
 11
277.55100799999997
 21
11.790272000000016
  0
LINE
  8
_f-f_
  6
CONTINUOUS
 62
    7
 10
277.55100799999997
 20
11.790272000000016
 11
277.88028799999995
 21
11.52684800000003
  0
LINE
  8
_f-f_
  6
CONTINUOUS
 62
    7
 10
277.88028799999995
 20
11.52684800000003
 11
277.92419200000001
 21
11.482944000000003
  0
LINE
  8
_f-f_
  6
CONTINUOUS
 62
    7
 10
277.92419200000001
 20
11.482944000000003
 11
277.97907199999997
 21
11.439040000000034
  0
LINE
  8
_f-f_
  6
CONTINUOUS
 62
    7
 10
277.97907199999997
 20
11.439040000000034
 11
277.73759999999999
 21
11.395136000000008
  0
LINE
  8
_f-f_
  6
CONTINUOUS
 62
    7
 10
277.73759999999999
 20
11.395136000000008
 11
277.14489600000002
 21
11.35123200000001
  0
LINE
  8
_f-f_
  6
CONTINUOUS
 62
    7
 10
277.14489600000002
 20
11.35123200000001
 11
276.58511999999996
 21
11.35123200000001
  0
LINE
  8
_f-f_
  6
CONTINUOUS
 62
    7
 10
278.26444799999996
 20
11.131712000000022
 11
278.30835200000001
 21
11.087808000000024
  0
LINE
  8
_f-f_
  6
CONTINUOUS
 62
    7
 10
278.30835200000001
 20
11.087808000000024
 11
278.36323199999993
 21
11.043903999999998
  0
LINE
  8
_f-f_
  6
CONTINUOUS
 62
    7
 10
278.36323199999993
 20
11.043903999999998
 11
278.3961599999999
 21
11
  0
LINE
  8
_f-f_
  6
CONTINUOUS
 62
    7
 10
278.3961599999999
 20
11
 11
278.44006399999995
 21
10.956095999999974
  0
LINE
  8
_f-f_
  6
CONTINUOUS
 62
    7
 10
278.44006399999995
 20
10.956095999999974
 11
278.47299199999998
 21
10.912192000000005
  0
LINE
  8
_f-f_
  6
CONTINUOUS
 62
    7
 10
278.47299199999998
 20
10.912192000000005
 11
278.51689599999997
 21
10.868288000000035
  0
LINE
  8
_f-f_
  6
CONTINUOUS
 62
    7
 10
278.51689599999997
 20
10.868288000000035
 11
278.54982399999994
 21
10.824384000000038
  0
LINE
  8
_f-f_
  6
CONTINUOUS
 62
    7
 10
277.05708800000002
 20
14.644031999999967
 11
277.36441599999995
 21
14.600128000000012
  0
LINE
  8
_f-f_
  6
CONTINUOUS
 62
    7
 10
277.36441599999995
 20
14.600128000000012
 11
277.40832
 21
14.556224000000014
  0
LINE
  8
_f-f_
  6
CONTINUOUS
 62
    7
 10
277.40832
 20
14.556224000000014
 11
277.36441599999995
 21
14.512320000000003
  0
LINE
  8
_f-f_
  6
CONTINUOUS
 62
    7
 10
277.36441599999995
 20
14.512320000000003
 11
277.37539199999998
 21
14.468416000000005
  0
LINE
  8
_f-f_
  6
CONTINUOUS
 62
    7
 10
277.37539199999998
 20
14.468416000000005
 11
277.50710400000003
 21
14.292800000000028
  0
LINE
  8
_f-f_
  6
CONTINUOUS
 62
    7
 10
277.50710400000003
 20
14.292800000000028
 11
277.59491200000002
 21
14.204992000000018
  0
LINE
  8
_f-f_
  6
CONTINUOUS
 62
    7
 10
277.59491200000002
 20
14.204992000000018
 11
277.62783999999999
 21
14.161087999999992
  0
LINE
  8
_f-f_
  6
CONTINUOUS
 62
    7
 10
277.62783999999999
 20
14.161087999999992
 11
277.67174399999999
 21
14.117184000000023
  0
LINE
  8
_f-f_
  6
CONTINUOUS
 62
    7
 10
277.67174399999999
 20
14.117184000000023
 11
277.72662399999996
 21
14.073279999999997
  0
LINE
  8
_f-f_
  6
CONTINUOUS
 62
    7
 10
277.72662399999996
 20
14.073279999999997
 11
277.77052800000001
 21
14.029375999999999
  0
LINE
  8
_f-f_
  6
CONTINUOUS
 62
    7
 10
277.77052800000001
 20
14.029375999999999
 11
277.93516799999998
 21
13.897663999999992
  0
LINE
  8
_f-f_
  6
CONTINUOUS
 62
    7
 10
277.93516799999998
 20
13.897663999999992
 11
278.13273600000002
 21
13.765952000000013
  0
LINE
  8
_f-f_
  6
CONTINUOUS
 62
    7
 10
278.13273600000002
 20
13.765952000000013
 11
278.28639999999996
 21
13.678143999999975
  0
LINE
  8
_f-f_
  6
CONTINUOUS
 62
    7
 10
278.28639999999996
 20
13.678143999999975
 11
278.46201599999995
 21
13.590336000000008
  0
LINE
  8
_f-f_
  6
CONTINUOUS
 62
    7
 10
278.46201599999995
 20
13.590336000000008
 11
278.68153599999994
 21
13.502527999999984
  0
LINE
  8
_f-f_
  6
CONTINUOUS
 62
    7
 10
278.68153599999994
 20
13.502527999999984
 11
278.80227199999996
 21
13.458624000000043
  0
LINE
  8
_f-f_
  6
CONTINUOUS
 62
    7
 10
278.80227199999996
 20
13.458624000000043
 11
278.94495999999992
 21
13.414720000000017
  0
LINE
  8
_f-f_
  6
CONTINUOUS
 62
    7
 10
278.94495999999992
 20
13.414720000000017
 11
279.09862399999997
 21
13.370815999999991
  0
LINE
  8
_f-f_
  6
CONTINUOUS
 62
    7
 10
279.09862399999997
 20
13.370815999999991
 11
279.08764799999994
 21
13.326912000000021
  0
LINE
  8
_f-f_
  6
CONTINUOUS
 62
    7
 10
279.08764799999994
 20
13.326912000000021
 11
279.04374399999995
 21
13.239103999999998
  0
LINE
  8
_f-f_
  6
CONTINUOUS
 62
    7
 10
279.04374399999995
 20
13.239103999999998
 11
279.03276799999992
 21
13.195199999999971
  0
LINE
  8
_f-f_
  6
CONTINUOUS
 62
    7
 10
279.03276799999992
 20
13.195199999999971
 11
278.98886399999998
 21
13.107392000000061
  0
LINE
  8
_f-f_
  6
CONTINUOUS
 62
    7
 10
278.98886399999998
 20
13.107392000000061
 11
278.97788799999995
 21
13.063488000000007
  0
LINE
  8
_f-f_
  6
CONTINUOUS
 62
    7
 10
278.97788799999995
 20
13.063488000000007
 11
278.9339839999999
 21
12.975680000000011
  0
LINE
  8
_f-f_
  6
CONTINUOUS
 62
    7
 10
278.9339839999999
 20
12.975680000000011
 11
278.91203199999995
 21
12.975680000000011
  0
LINE
  8
_f-f_
  6
CONTINUOUS
 62
    7
 10
277.17782399999993
 20
14.292800000000028
 11
277.14489600000002
 21
14.292800000000028
  0
LINE
  8
_f-f_
  6
CONTINUOUS
 62
    7
 10
277.14489600000002
 20
14.292800000000028
 11
277.11196799999999
 21
14.248896000000016
  0
LINE
  8
_f-f_
  6
CONTINUOUS
 62
    7
 10
277.11196799999999
 20
14.248896000000016
 11
277.09001599999993
 21
14.204992000000018
  0
LINE
  8
_f-f_
  6
CONTINUOUS
 62
    7
 10
277.09001599999993
 20
14.204992000000018
 11
277.05708800000002
 21
14.161087999999992
  0
LINE
  8
_f-f_
  6
CONTINUOUS
 62
    7
 10
277.05708800000002
 20
14.161087999999992
 11
277.03513599999997
 21
14.117184000000023
  0
LINE
  8
_f-f_
  6
CONTINUOUS
 62
    7
 10
277.03513599999997
 20
14.117184000000023
 11
276.83756799999998
 21
13.853760000000037
  0
LINE
  8
_f-f_
  6
CONTINUOUS
 62
    7
 10
276.83756799999998
 20
13.853760000000037
 11
276.79366399999992
 21
13.809856000000011
  0
LINE
  8
_f-f_
  6
CONTINUOUS
 62
    7
 10
276.79366399999992
 20
13.809856000000011
 11
276.76073599999995
 21
13.765952000000013
  0
LINE
  8
_f-f_
  6
CONTINUOUS
 62
    7
 10
276.76073599999995
 20
13.765952000000013
 11
276.49731199999997
 21
13.502527999999984
  0
LINE
  8
_f-f_
  6
CONTINUOUS
 62
    7
 10
276.49731199999997
 20
13.502527999999984
 11
276.27779199999998
 21
13.326912000000021
  0
LINE
  8
_f-f_
  6
CONTINUOUS
 62
    7
 10
276.24486400000001
 20
13.283008000000024
 11
276.21193599999998
 21
13.283008000000024
  0
LINE
  8
_f-f_
  6
CONTINUOUS
 62
    7
 10
276.21193599999998
 20
13.283008000000024
 11
276.01436799999999
 21
13.151296000000031
  0
LINE
  8
_f-f_
  6
CONTINUOUS
 62
    7
 10
276.01436799999999
 20
13.151296000000031
 11
275.78387199999997
 21
13.019583999999952
  0
LINE
  8
_f-f_
  6
CONTINUOUS
 62
    7
 10
275.78387199999997
 20
13.019583999999952
 11
275.58630399999993
 21
12.931776000000013
  0
LINE
  8
_f-f_
  6
CONTINUOUS
 62
    7
 10
275.58630399999993
 20
12.931776000000013
 11
275.47654399999999
 21
12.887871999999987
  0
LINE
  8
_f-f_
  6
CONTINUOUS
 62
    7
 10
275.47654399999999
 20
12.887871999999987
 11
275.35580800000002
 21
12.887871999999987
  0
LINE
  8
_f-f_
  6
CONTINUOUS
 62
    7
 10
278.23151999999993
 20
13.283008000000024
 11
278.16566399999994
 21
13.283008000000024
  0
LINE
  8
_f-f_
  6
CONTINUOUS
 62
    7
 10
278.16566399999994
 20
13.283008000000024
 11
278.16566399999994
 21
12.975680000000011
  0
LINE
  8
_f-f_
  6
CONTINUOUS
 62
    7
 10
278.16566399999994
 20
12.975680000000011
 11
276.24486400000001
 21
12.975680000000011
  0
LINE
  8
_f-f_
  6
CONTINUOUS
 62
    7
 10
277.05708800000002
 20
12.141503999999998
 11
277.01318399999997
 21
12.053696000000031
  0
LINE
  8
_f-f_
  6
CONTINUOUS
 62
    7
 10
277.01318399999997
 20
12.053696000000031
 11
276.98025599999994
 21
12.009792000000004
  0
LINE
  8
_f-f_
  6
CONTINUOUS
 62
    7
 10
276.98025599999994
 20
12.009792000000004
 11
276.958304
 21
11.965888000000007
  0
LINE
  8
_f-f_
  6
CONTINUOUS
 62
    7
 10
276.958304
 20
11.965888000000007
 11
276.92537599999997
 21
11.921984000000009
  0
LINE
  8
_f-f_
  6
CONTINUOUS
 62
    7
 10
276.92537599999997
 20
11.921984000000009
 11
276.88147199999992
 21
11.834176000000014
  0
LINE
  8
_f-f_
  6
CONTINUOUS
 62
    7
 10
276.88147199999992
 20
11.834176000000014
 11
276.84854399999995
 21
11.790272000000016
  0
LINE
  8
_f-f_
  6
CONTINUOUS
 62
    7
 10
276.84854399999995
 20
11.790272000000016
 11
276.82659199999995
 21
11.746368000000018
  0
LINE
  8
_f-f_
  6
CONTINUOUS
 62
    7
 10
276.82659199999995
 20
11.746368000000018
 11
276.79366399999992
 21
11.70246400000002
  0
LINE
  8
_f-f_
  6
CONTINUOUS
 62
    7
 10
276.79366399999992
 20
11.70246400000002
 11
276.74975999999998
 21
11.614655999999997
  0
LINE
  8
_f-f_
  6
CONTINUOUS
 62
    7
 10
276.74975999999998
 20
11.614655999999997
 11
276.71683199999995
 21
11.570752000000027
  0
LINE
  8
_f-f_
  6
CONTINUOUS
 62
    7
 10
276.71683199999995
 20
11.570752000000027
 11
276.69488000000001
 21
11.52684800000003
  0
LINE
  8
_f-f_
  6
CONTINUOUS
 62
    7
 10
276.69488000000001
 20
11.52684800000003
 11
276.66195199999999
 21
11.482944000000003
  0
LINE
  8
_f-f_
  6
CONTINUOUS
 62
    7
 10
276.66195199999999
 20
11.482944000000003
 11
276.61804799999993
 21
11.395136000000008
  0
LINE
  8
_f-f_
  6
CONTINUOUS
 62
    7
 10
276.61804799999993
 20
11.395136000000008
 11
276.58511999999996
 21
11.35123200000001
  0
LINE
  8
_f-f_
  6
CONTINUOUS
 62
    7
 10
277.81443200000001
 20
12.009792000000004
 11
277.92419200000001
 21
11.921984000000009
  0
LINE
  8
_f-f_
  6
CONTINUOUS
 62
    7
 10
277.92419200000001
 20
11.921984000000009
 11
277.990048
 21
11.878080000000011
  0
LINE
  8
_f-f_
  6
CONTINUOUS
 62
    7
 10
277.990048
 20
11.878080000000011
 11
278.20956799999988
 21
11.70246400000002
  0
LINE
  8
_f-f_
  6
CONTINUOUS
 62
    7
 10
278.20956799999988
 20
11.70246400000002
 11
278.25347199999993
 21
11.658559999999994
  0
LINE
  8
_f-f_
  6
CONTINUOUS
 62
    7
 10
278.25347199999993
 20
11.658559999999994
 11
278.36323199999993
 21
11.570752000000027
  0
LINE
  8
_f-f_
  6
CONTINUOUS
 62
    7
 10
278.36323199999993
 20
11.570752000000027
 11
278.40713599999992
 21
11.52684800000003
  0
LINE
  8
_f-f_
  6
CONTINUOUS
 62
    7
 10
278.40713599999992
 20
11.52684800000003
 11
278.46201599999995
 21
11.482944000000003
  0
LINE
  8
_f-f_
  6
CONTINUOUS
 62
    7
 10
278.46201599999995
 20
11.482944000000003
 11
278.54982399999994
 21
11.395136000000008
  0
LINE
  8
_f-f_
  6
CONTINUOUS
 62
    7
 10
278.54982399999994
 20
11.395136000000008
 11
278.60470399999997
 21
11.35123200000001
  0
LINE
  8
_f-f_
  6
CONTINUOUS
 62
    7
 10
278.60470399999997
 20
11.35123200000001
 11
278.73641599999996
 21
11.219519999999989
  0
LINE
  8
_f-f_
  6
CONTINUOUS
 62
    7
 10
278.73641599999996
 20
11.219519999999989
 11
278.76934399999993
 21
11.175616000000019
  0
LINE
  8
_f-f_
  6
CONTINUOUS
 62
    7
 10
278.76934399999993
 20
11.175616000000019
 11
278.81324799999999
 21
11.131712000000022
  0
LINE
  8
_f-f_
  6
CONTINUOUS
 62
    7
 10
278.81324799999999
 20
11.131712000000022
 11
278.87910399999993
 21
11.043903999999998
  0
LINE
  8
_f-f_
  6
CONTINUOUS
 62
    7
 10
278.87910399999993
 20
11.043903999999998
 11
278.90105599999998
 21
11
  0
LINE
  8
_f-f_
  6
CONTINUOUS
 62
    7
 10
278.90105599999998
 20
11
 11
278.82422399999996
 21
10.956095999999974
  0
LINE
  8
_f-f_
  6
CONTINUOUS
 62
    7
 10
278.82422399999996
 20
10.956095999999974
 11
278.69251199999997
 21
10.868288000000035
  0
LINE
  8
_f-f_
  6
CONTINUOUS
 62
    7
 10
278.69251199999997
 20
10.868288000000035
 11
278.61567999999994
 21
10.824384000000038
  0
LINE
  8
_f-f_
  6
CONTINUOUS
 62
    7
 10
278.61567999999994
 20
10.824384000000038
 11
278.54982399999994
 21
10.824384000000038
  0
LINE
  8
_f-f_
  6
CONTINUOUS
 62
    7
 10
278.26444799999996
 20
11.131712000000022
 11
278.08883199999997
 21
11.131712000000022
  0
LINE
  8
_f-f_
  6
CONTINUOUS
 62
    7
 10
278.08883199999997
 20
11.131712000000022
 11
277.69369599999993
 21
11.087808000000024
  0
LINE
  8
_f-f_
  6
CONTINUOUS
 62
    7
 10
277.69369599999993
 20
11.087808000000024
 11
277.28758399999992
 21
11.043903999999998
  0
LINE
  8
_f-f_
  6
CONTINUOUS
 62
    7
 10
277.28758399999992
 20
11.043903999999998
 11
276.10217599999993
 21
10.912192000000005
  0
LINE
  8
_f-f_
  6
CONTINUOUS
 62
    7
 10
276.10217599999993
 20
10.912192000000005
 11
275.73996799999998
 21
10.868288000000035
  0
LINE
  8
_f-f_
  6
CONTINUOUS
 62
    7
 10
275.73996799999998
 20
10.868288000000035
 11
275.67411199999998
 21
10.824384000000038
  0
LINE
  8
_f-f_
  6
CONTINUOUS
 62
    7
 10
275.67411199999998
 20
10.824384000000038
 11
275.63020799999993
 21
10.824384000000038
  0
LINE
  8
_f-f_
  6
CONTINUOUS
 62
    7
 10
280.723072
 20
14.600128000000012
 11
280.33891199999999
 21
14.600128000000012
  0
LINE
  8
_f-f_
  6
CONTINUOUS
 62
    7
 10
280.82185599999991
 20
13.546432000000038
 11
280.79990399999997
 21
13.502527999999984
  0
LINE
  8
_f-f_
  6
CONTINUOUS
 62
    7
 10
280.79990399999997
 20
13.502527999999984
 11
280.76697599999994
 21
13.458624000000043
  0
LINE
  8
_f-f_
  6
CONTINUOUS
 62
    7
 10
280.76697599999994
 20
13.458624000000043
 11
280.74502399999994
 21
13.414720000000017
  0
LINE
  8
_f-f_
  6
CONTINUOUS
 62
    7
 10
280.74502399999994
 20
13.414720000000017
 11
280.67916799999995
 21
13.326912000000021
  0
LINE
  8
_f-f_
  6
CONTINUOUS
 62
    7
 10
280.67916799999995
 20
13.326912000000021
 11
280.65721599999995
 21
13.283008000000024
  0
LINE
  8
_f-f_
  6
CONTINUOUS
 62
    7
 10
280.65721599999995
 20
13.283008000000024
 11
280.59135999999995
 21
13.195199999999971
  0
LINE
  8
_f-f_
  6
CONTINUOUS
 62
    7
 10
280.59135999999995
 20
13.195199999999971
 11
280.54745600000001
 21
13.151296000000031
  0
LINE
  8
_f-f_
  6
CONTINUOUS
 62
    7
 10
280.54745600000001
 20
13.151296000000031
 11
280.48159999999996
 21
13.063488000000007
  0
LINE
  8
_f-f_
  6
CONTINUOUS
 62
    7
 10
280.48159999999996
 20
13.063488000000007
 11
280.43769599999996
 21
13.019583999999952
  0
LINE
  8
_f-f_
  6
CONTINUOUS
 62
    7
 10
280.43769599999996
 20
13.019583999999952
 11
280.40476799999999
 21
12.975680000000011
  0
LINE
  8
_f-f_
  6
CONTINUOUS
 62
    7
 10
280.40476799999999
 20
12.975680000000011
 11
280.22915199999994
 21
12.800064000000049
  0
LINE
  8
_f-f_
  6
CONTINUOUS
 62
    7
 10
280.22915199999994
 20
12.800064000000049
 11
280.17427199999997
 21
12.756160000000023
  0
LINE
  8
_f-f_
  6
CONTINUOUS
 62
    7
 10
280.17427199999997
 20
12.756160000000023
 11
280.13036799999998
 21
12.712256000000025
  0
LINE
  8
_f-f_
  6
CONTINUOUS
 62
    7
 10
280.13036799999998
 20
12.712256000000025
 11
280.02060799999992
 21
12.624447999999973
  0
LINE
  8
_f-f_
  6
CONTINUOUS
 62
    7
 10
280.02060799999992
 20
12.624447999999973
 11
279.95475199999993
 21
12.580544000000003
  0
LINE
  8
_f-f_
  6
CONTINUOUS
 62
    7
 10
279.95475199999993
 20
12.580544000000003
 11
279.89987199999996
 21
12.536639999999977
  0
LINE
  8
_f-f_
  6
CONTINUOUS
 62
    7
 10
279.89987199999996
 20
12.536639999999977
 11
279.70230399999997
 21
12.404927999999984
  0
LINE
  8
_f-f_
  6
CONTINUOUS
 62
    7
 10
279.70230399999997
 20
12.404927999999984
 11
279.62547199999995
 21
12.361024000000015
  0
LINE
  8
_f-f_
  6
CONTINUOUS
 62
    7
 10
279.62547199999995
 20
12.361024000000015
 11
279.55961599999989
 21
12.317120000000017
  0
LINE
  8
_f-f_
  6
CONTINUOUS
 62
    7
 10
279.55961599999989
 20
12.317120000000017
 11
279.60351999999995
 21
12.229311999999993
  0
LINE
  8
_f-f_
  6
CONTINUOUS
 62
    7
 10
279.60351999999995
 20
12.229311999999993
 11
279.61449599999997
 21
12.185407999999995
  0
LINE
  8
_f-f_
  6
CONTINUOUS
 62
    7
 10
279.61449599999997
 20
12.185407999999995
 11
279.70230399999997
 21
12.009792000000004
  0
LINE
  8
_f-f_
  6
CONTINUOUS
 62
    7
 10
282.59996799999999
 20
14.512320000000003
 11
282.17190399999993
 21
14.512320000000003
  0
LINE
  8
_f-f_
  6
CONTINUOUS
 62
    7
 10
282.17190399999993
 20
14.512320000000003
 11
282.17190399999993
 21
13.502527999999984
  0
LINE
  8
_f-f_
  6
CONTINUOUS
 62
    7
 10
282.17190399999993
 20
13.107392000000061
 11
282.17190399999993
 21
11.35123200000001
  0
LINE
  8
_f-f_
  6
CONTINUOUS
 62
    7
 10
281.11820799999992
 20
13.941568000000032
 11
281.08528000000001
 21
13.941568000000032
  0
LINE
  8
_f-f_
  6
CONTINUOUS
 62
    7
 10
281.08528000000001
 20
13.941568000000032
 11
281.06332799999996
 21
13.897663999999992
  0
LINE
  8
_f-f_
  6
CONTINUOUS
 62
    7
 10
281.06332799999996
 20
13.897663999999992
 11
280.69014399999992
 21
13.897663999999992
  0
LINE
  8
_f-f_
  6
CONTINUOUS
 62
    7
 10
280.33891199999999
 20
12.448831999999982
 11
280.33891199999999
 21
10.78048000000004
  0
LINE
  8
_f-f_
  6
CONTINUOUS
 62
    7
 10
280.69014399999992
 20
12.448831999999982
 11
280.76697599999994
 21
12.404927999999984
  0
LINE
  8
_f-f_
  6
CONTINUOUS
 62
    7
 10
280.76697599999994
 20
12.404927999999984
 11
281.03039999999999
 21
12.229311999999993
  0
LINE
  8
_f-f_
  6
CONTINUOUS
 62
    7
 10
281.03039999999999
 20
12.229311999999993
 11
281.14015999999992
 21
12.141503999999998
  0
LINE
  8
_f-f_
  6
CONTINUOUS
 62
    7
 10
281.14015999999992
 20
12.141503999999998
 11
281.20601599999998
 21
12.0976
  0
LINE
  8
_f-f_
  6
CONTINUOUS
 62
    7
 10
280.723072
 20
14.600128000000012
 11
280.67916799999995
 21
14.556224000000014
  0
LINE
  8
_f-f_
  6
CONTINUOUS
 62
    7
 10
280.67916799999995
 20
14.556224000000014
 11
280.66819199999998
 21
14.512320000000003
  0
LINE
  8
_f-f_
  6
CONTINUOUS
 62
    7
 10
280.66819199999998
 20
14.512320000000003
 11
280.66819199999998
 21
13.941568000000032
  0
LINE
  8
_f-f_
  6
CONTINUOUS
 62
    7
 10
280.66819199999998
 20
13.941568000000032
 11
280.69014399999992
 21
13.897663999999992
  0
LINE
  8
_f-f_
  6
CONTINUOUS
 62
    7
 10
282.59996799999999
 20
14.512320000000003
 11
282.62191999999993
 21
14.468416000000005
  0
LINE
  8
_f-f_
  6
CONTINUOUS
 62
    7
 10
282.62191999999993
 20
14.468416000000005
 11
282.57801599999993
 21
14.424512000000007
  0
LINE
  8
_f-f_
  6
CONTINUOUS
 62
    7
 10
282.57801599999993
 20
14.424512000000007
 11
282.55606399999994
 21
14.380608000000009
  0
LINE
  8
_f-f_
  6
CONTINUOUS
 62
    7
 10
282.55606399999994
 20
14.380608000000009
 11
282.55606399999994
 21
13.502527999999984
  0
LINE
  8
_f-f_
  6
CONTINUOUS
 62
    7
 10
282.55606399999994
 20
13.107392000000061
 11
282.55606399999994
 21
11.35123200000001
  0
LINE
  8
_f-f_
  6
CONTINUOUS
 62
    7
 10
283.5
 20
11
 11
281.16211199999998
 21
11
  0
LINE
  8
_f-f_
  6
CONTINUOUS
 62
    7
 10
281.11820799999992
 20
13.941568000000032
 11
281.33772799999997
 21
13.722048000000001
  0
LINE
  8
_f-f_
  6
CONTINUOUS
 62
    7
 10
281.33772799999997
 20
13.722048000000001
 11
281.29382399999997
 21
13.678143999999975
  0
LINE
  8
_f-f_
  6
CONTINUOUS
 62
    7
 10
281.29382399999997
 20
13.678143999999975
 11
281.22796799999992
 21
13.634240000000005
  0
LINE
  8
_f-f_
  6
CONTINUOUS
 62
    7
 10
281.22796799999992
 20
13.634240000000005
 11
281.16211199999998
 21
13.502527999999984
  0
LINE
  8
_f-f_
  6
CONTINUOUS
 62
    7
 10
281.16211199999998
 20
13.502527999999984
 11
281.12918399999995
 21
13.458624000000043
  0
LINE
  8
_f-f_
  6
CONTINUOUS
 62
    7
 10
281.12918399999995
 20
13.458624000000043
 11
281.08528000000001
 21
13.370815999999991
  0
LINE
  8
_f-f_
  6
CONTINUOUS
 62
    7
 10
281.08528000000001
 20
13.370815999999991
 11
281.05235199999998
 21
13.326912000000021
  0
LINE
  8
_f-f_
  6
CONTINUOUS
 62
    7
 10
281.05235199999998
 20
13.326912000000021
 11
281.03039999999999
 21
13.283008000000024
  0
LINE
  8
_f-f_
  6
CONTINUOUS
 62
    7
 10
281.03039999999999
 20
13.283008000000024
 11
280.93161599999996
 21
13.151296000000031
  0
LINE
  8
_f-f_
  6
CONTINUOUS
 62
    7
 10
280.93161599999996
 20
13.151296000000031
 11
280.90966400000002
 21
13.107392000000061
  0
LINE
  8
_f-f_
  6
CONTINUOUS
 62
    7
 10
280.90966400000002
 20
13.107392000000061
 11
280.74502399999994
 21
12.887871999999987
  0
LINE
  8
_f-f_
  6
CONTINUOUS
 62
    7
 10
280.74502399999994
 20
12.887871999999987
 11
280.70111999999995
 21
12.84396799999999
  0
LINE
  8
_f-f_
  6
CONTINUOUS
 62
    7
 10
280.70111999999995
 20
12.84396799999999
 11
280.66819199999998
 21
12.800064000000049
  0
LINE
  8
_f-f_
  6
CONTINUOUS
 62
    7
 10
280.66819199999998
 20
12.800064000000049
 11
280.75599999999997
 21
12.756160000000023
  0
LINE
  8
_f-f_
  6
CONTINUOUS
 62
    7
 10
280.75599999999997
 20
12.756160000000023
 11
280.87673599999994
 21
12.712256000000025
  0
LINE
  8
_f-f_
  6
CONTINUOUS
 62
    7
 10
280.87673599999994
 20
12.712256000000025
 11
281.07430399999998
 21
12.624447999999973
  0
LINE
  8
_f-f_
  6
CONTINUOUS
 62
    7
 10
281.07430399999998
 20
12.624447999999973
 11
281.16211199999998
 21
12.580544000000003
  0
LINE
  8
_f-f_
  6
CONTINUOUS
 62
    7
 10
281.16211199999998
 20
12.580544000000003
 11
281.31577599999991
 21
12.492735999999979
  0
LINE
  8
_f-f_
  6
CONTINUOUS
 62
    7
 10
281.31577599999991
 20
12.492735999999979
 11
281.38163199999997
 21
12.448831999999982
  0
LINE
  8
_f-f_
  6
CONTINUOUS
 62
    7
 10
281.38163199999997
 20
12.448831999999982
 11
281.40358399999991
 21
12.404927999999984
  0
LINE
  8
_f-f_
  6
CONTINUOUS
 62
    7
 10
281.40358399999991
 20
12.404927999999984
 11
281.24991999999997
 21
12.0976
  0
LINE
  8
_f-f_
  6
CONTINUOUS
 62
    7
 10
281.24991999999997
 20
12.0976
 11
281.20601599999998
 21
12.0976
  0
LINE
  8
_f-f_
  6
CONTINUOUS
 62
    7
 10
280.33891199999999
 20
12.448831999999982
 11
280.31695999999999
 21
12.448831999999982
  0
LINE
  8
_f-f_
  6
CONTINUOUS
 62
    7
 10
280.31695999999999
 20
12.448831999999982
 11
280.27305599999988
 21
12.404927999999984
  0
LINE
  8
_f-f_
  6
CONTINUOUS
 62
    7
 10
280.27305599999988
 20
12.404927999999984
 11
280.05353599999995
 21
12.229311999999993
  0
LINE
  8
_f-f_
  6
CONTINUOUS
 62
    7
 10
280.05353599999995
 20
12.229311999999993
 11
279.98767999999995
 21
12.185407999999995
  0
LINE
  8
_f-f_
  6
CONTINUOUS
 62
    7
 10
279.98767999999995
 20
12.185407999999995
 11
279.93279999999993
 21
12.141503999999998
  0
LINE
  8
_f-f_
  6
CONTINUOUS
 62
    7
 10
279.93279999999993
 20
12.141503999999998
 11
279.80108799999994
 21
12.053696000000031
  0
LINE
  8
_f-f_
  6
CONTINUOUS
 62
    7
 10
279.80108799999994
 20
12.053696000000031
 11
279.72425599999997
 21
12.009792000000004
  0
LINE
  8
_f-f_
  6
CONTINUOUS
 62
    7
 10
279.72425599999997
 20
12.009792000000004
 11
279.70230399999997
 21
12.009792000000004
  0
LINE
  8
_f-f_
  6
CONTINUOUS
 62
    7
 10
280.69014399999992
 20
12.448831999999982
 11
280.66819199999998
 21
12.448831999999982
  0
LINE
  8
_f-f_
  6
CONTINUOUS
 62
    7
 10
280.66819199999998
 20
12.448831999999982
 11
280.66819199999998
 21
10.78048000000004
  0
LINE
  8
_f-f_
  6
CONTINUOUS
 62
    7
 10
280.66819199999998
 20
10.78048000000004
 11
280.33891199999999
 21
10.78048000000004
  0
LINE
  8
_f-f_
  6
CONTINUOUS
 62
    7
 10
261.69803650015848
 20
10.818143377298185
 11
261.46786978015854
 21
11.320637828498263
  0
ARC
  8
_f-f_
  6
CONTINUOUS
 62
    7
 10
261.14397350815852
 20
13.801814490098195
 40
2.5022283551999998
 50
277.43740700000006
 51
318.25330200000008
  0
LINE
  8
_f-f_
  6
CONTINUOUS
 62
    7
 10
259.91794882015853
 20
11.278091559698225
 11
259.38451522015851
 21
10.85915849409821
  0
ARC
  8
_f-f_
  6
CONTINUOUS
 62
    7
 10
248.43833509135854
 20
2.5524020556982236
 40
13.741217431199997
 50
37.193868000000002
 51
44.067300000000003
  0
ARC
  8
_f-f_
  6
CONTINUOUS
 62
    7
 10
251.63328789295852
 20
5.1972563964982612
 40
9.6114510576000001
 50
45.985430000000001
 51
52.858862000000002
  0
LINE
  8
_f-f_
  6
CONTINUOUS
 62
    7
 10
257.43649474015854
 20
12.859030695698209
 11
257.84546050015854
 21
13.256932647698193
  0
ARC
  8
_f-f_
  6
CONTINUOUS
 62
    7
 10
259.60822146655852
 20
14.802502172498251
 40
1.5138771480000004
 50
335.50113199999998
 51
353.79681699999998
  0
ARC
  8
_f-f_
  6
CONTINUOUS
 62
    7
 10
255.5557247609585
 20
17.049016618898278
 40
6.1438791120000014
 50
318.37204700000001
 51
332.10656799999998
  0
ARC
  8
_f-f_
  6
CONTINUOUS
 62
    7
 10
253.24143214255852
 20
15.569703169298236
 40
3.3701116512000007
 50
327.63748900000002
 51
343.65418099999999
  0
ARC
  8
_f-f_
  6
CONTINUOUS
 62
    7
 10
253.40907764575854
 20
15.622958446898267
 40
3.2597962655999995
 50
295.64126099999999
 51
325.26891000000001
  0
LINE
  8
_f-f_
  6
CONTINUOUS
 62
    7
 10
254.81970658015848
 20
12.68418301569821
 11
254.54706274015854
 21
13.113498279698177
  0
LINE
  8
_f-f_
  6
CONTINUOUS
 62
    7
 10
253.63923778015851
 20
15.293364807698225
 11
253.08308386015847
 21
15.228364935698238
  0
LINE
  8
_f-f_
  6
CONTINUOUS
 62
    7
 10
253.74691234015856
 20
10.796371383698215
 11
254.30800546015854
 21
10.877532318098247
  0
LINE
  8
_f-f_
  6
CONTINUOUS
 62
    7
 10
251.82161218015855
 20
14.621238471698234
 11
251.82161218015855
 21
14.055798855698214
  0
LINE
  8
_f-f_
  6
CONTINUOUS
 62
    7
 10
265.43503522015851
 20
13.13197088769823
 11
265.43799874015849
 21
13.697410503698194
  0
LINE
  8
_f-f_
  6
CONTINUOUS
 62
    7
 10
265.43799874015849
 20
13.697410503698194
 11
261.28709506015849
 21
13.697410503698194
  0
LINE
  8
_f-f_
  6
CONTINUOUS
 62
    7
 10
261.28709506015849
 20
13.697410503698194
 11
261.28709506015849
 21
13.13197088769823
  0
LINE
  8
_f-f_
  6
CONTINUOUS
 62
    7
 10
261.62197282015848
 20
14.929049415698273
 11
261.62197282015848
 21
14.363609799698224
  0
LINE
  8
_f-f_
  6
CONTINUOUS
 62
    7
 10
261.62197282015848
 20
14.363609799698224
 11
264.40866946015854
 21
14.363609799698224
  0
LINE
  8
_f-f_
  6
CONTINUOUS
 62
    7
 10
261.11323522015851
 20
14.63892080769827
 11
256.72228642015853
 21
14.63892080769827
  0
LINE
  8
_f-f_
  6
CONTINUOUS
 62
    7
 10
256.72228642015853
 20
14.63892080769827
 11
256.72228642015853
 21
14.073678759698211
  0
LINE
  8
_f-f_
  6
CONTINUOUS
 62
    7
 10
248.28712066015856
 20
15.250196199698237
 11
247.73096674015852
 21
15.185295111698224
  0
LINE
  8
_f-f_
  6
CONTINUOUS
 62
    7
 10
248.17648258015853
 20
10.813381988498236
 11
248.73757570015857
 21
10.894552801298175
  0
LINE
  8
_f-f_
  6
CONTINUOUS
 62
    7
 10
240.27079906015857
 20
13.902288519698203
 11
240.87041794015852
 21
13.944370503698195
  0
ARC
  8
_f-f_
  6
CONTINUOUS
 62
    7
 10
236.74753516495866
 20
13.76305823409821
 40
4.1268670632000006
 50
321.70218699999998
 51
2.5180820000000264
  0
ARC
  8
_f-f_
  6
CONTINUOUS
 62
    7
 10
238.33115299375856
 20
13.078716433298212
 40
2.4997389984000002
 50
293.16671400000001
 51
311.462399
  0
LINE
  8
_f-f_
  6
CONTINUOUS
 62
    7
 10
239.31456994015855
 20
10.780546186898221
 11
238.93326370015848
 21
11.179910142098237
  0
ARC
  8
_f-f_
  6
CONTINUOUS
 62
    7
 10
237.93835982095854
 20
13.317551449298207
 40
2.3578267271999995
 50
294.95826699999998
 51
355.396568
  0
ARC
  8
_f-f_
  6
CONTINUOUS
 62
    7
 10
236.41950066655863
 20
13.426618863698252
 40
3.8805615072000004
 50
355.59126199999997
 51
7.040883000000008
  0
LINE
  8
_f-f_
  6
CONTINUOUS
 62
    7
 10
250.53149314015846
 20
12.585794151698195
 11
250.53346882015853
 21
13.151233767698216
  0
LINE
  8
_f-f_
  6
CONTINUOUS
 62
    7
 10
246.08917666015856
 20
13.151233767698216
 11
246.08917666015856
 21
12.585794151698195
  0
LINE
  8
_f-f_
  6
CONTINUOUS
 62
    7
 10
250.33491298015849
 20
14.089879335698242
 11
250.33787650015853
 21
14.65531895169822
  0
LINE
  8
_f-f_
  6
CONTINUOUS
 62
    7
 10
246.3025501001585
 20
14.65531895169822
 11
246.3025501001585
 21
14.089879335698242
  0
LINE
  8
_f-f_
  6
CONTINUOUS
 62
    7
 10
245.69107714015851
 20
12.768050631698202
 11
245.69305282015858
 21
13.333292679698218
  0
LINE
  8
_f-f_
  6
CONTINUOUS
 62
    7
 10
245.69305282015858
 20
13.333292679698218
 11
242.56061218015859
 21
13.333292679698218
  0
LINE
  8
_f-f_
  6
CONTINUOUS
 62
    7
 10
242.56061218015859
 20
13.333292679698218
 11
242.56061218015859
 21
12.768050631698202
  0
LINE
  8
_f-f_
  6
CONTINUOUS
 62
    7
 10
242.56061218015859
 20
12.768050631698202
 11
245.69107714015851
 21
12.768050631698202
  0
LINE
  8
_f-f_
  6
CONTINUOUS
 62
    7
 10
242.94685762015857
 20
15.086511111698243
 11
238.61320354015854
 21
15.086511111698243
  0
LINE
  8
_f-f_
  6
CONTINUOUS
 62
    7
 10
238.61320354015854
 20
15.086511111698243
 11
238.61320354015854
 21
14.526603399698274
  0
LINE
  8
_f-f_
  6
CONTINUOUS
 62
    7
 10
241.43249890015855
 20
12.940725063698153
 11
241.04921698015858
 21
13.386537255698215
  0
LINE
  8
_f-f_
  6
CONTINUOUS
 62
    7
 10
264.40866946015854
 20
14.363609799698224
 11
264.41163298015852
 21
14.929049415698273
  0
LINE
  8
_f-f_
  6
CONTINUOUS
 62
    7
 10
264.41163298015852
 20
14.929049415698273
 11
261.62197282015848
 21
14.929049415698273
  0
LINE
  8
_f-f_
  6
CONTINUOUS
 62
    7
 10
264.76923106015852
 20
15.129383367698281
 11
264.76923106015852
 21
14.298116007698198
  0
LINE
  8
_f-f_
  6
CONTINUOUS
 62
    7
 10
264.76923106015852
 20
14.298116007698198
 11
265.18906306015845
 21
14.298116007698198
  0
LINE
  8
_f-f_
  6
CONTINUOUS
 62
    7
 10
265.18906306015845
 20
14.298116007698198
 11
265.18906306015845
 21
15.129383367698281
  0
LINE
  8
_f-f_
  6
CONTINUOUS
 62
    7
 10
265.18906306015845
 20
15.129383367698281
 11
264.76923106015852
 21
15.129383367698281
  0
LINE
  8
_f-f_
  6
CONTINUOUS
 62
    7
 10
265.35403234015854
 20
15.129383367698281
 11
265.35403234015854
 21
14.298116007698198
  0
LINE
  8
_f-f_
  6
CONTINUOUS
 62
    7
 10
265.35403234015854
 20
14.298116007698198
 11
265.77386434015853
 21
14.298116007698198
  0
LINE
  8
_f-f_
  6
CONTINUOUS
 62
    7
 10
265.77386434015853
 20
14.298116007698198
 11
265.77386434015853
 21
15.129383367698281
  0
LINE
  8
_f-f_
  6
CONTINUOUS
 62
    7
 10
265.77386434015853
 20
15.129383367698281
 11
265.35403234015854
 21
15.129383367698281
  0
ARC
  8
_f-f_
  6
CONTINUOUS
 62
    7
 10
240.40335977935854
 20
15.112665822098251
 40
1.8430007399999995
 50
290.51408900000007
 51
341.45836900000006
  0
ARC
  8
_f-f_
  6
CONTINUOUS
 62
    7
 10
240.32372670415859
 20
15.330920014898268
 40
2.6348450520000002
 50
294.88580100000001
 51
354.697475
  0
LINE
  8
_f-f_
  6
CONTINUOUS
 62
    7
 10
250.33787650015853
 20
14.65531895169822
 11
248.34864168895854
 21
14.65531895169822
  0
LINE
  8
_f-f_
  6
CONTINUOUS
 62
    7
 10
247.78497359935855
 20
14.65531895169822
 11
246.3025501001585
 21
14.65531895169822
  0
LINE
  8
_f-f_
  6
CONTINUOUS
 62
    7
 10
246.3025501001585
 20
14.089879335698242
 11
247.84259348335851
 21
14.089879335698242
  0
LINE
  8
_f-f_
  6
CONTINUOUS
 62
    7
 10
248.40711852415853
 20
14.089879335698242
 11
250.33491298015849
 21
14.089879335698242
  0
LINE
  8
_f-f_
  6
CONTINUOUS
 62
    7
 10
250.53346882015853
 20
13.151233767698216
 11
248.50419273775856
 21
13.151233767698216
  0
LINE
  8
_f-f_
  6
CONTINUOUS
 62
    7
 10
247.93824603055856
 20
13.151233767698216
 11
246.08917666015856
 21
13.151233767698216
  0
LINE
  8
_f-f_
  6
CONTINUOUS
 62
    7
 10
246.08917666015856
 20
12.585794151698195
 11
247.99586591455852
 21
12.585794151698195
  0
LINE
  8
_f-f_
  6
CONTINUOUS
 62
    7
 10
248.5626695729585
 20
12.585794151698195
 11
250.53149314015846
 21
12.585794151698195
  0
LINE
  8
_f-f_
  6
CONTINUOUS
 62
    7
 10
248.34864168895854
 20
14.65531895169822
 11
248.28712066015856
 21
15.250196199698237
  0
LINE
  8
_f-f_
  6
CONTINUOUS
 62
    7
 10
247.73096674015852
 20
15.185295111698224
 11
247.78497359935855
 21
14.65531895169822
  0
LINE
  8
_f-f_
  6
CONTINUOUS
 62
    7
 10
247.84259348335851
 20
14.089879335698242
 11
247.93824603055856
 21
13.151233767698216
  0
LINE
  8
_f-f_
  6
CONTINUOUS
 62
    7
 10
247.99586591455852
 20
12.585794151698195
 11
248.17648258015853
 21
10.813381988498236
  0
LINE
  8
_f-f_
  6
CONTINUOUS
 62
    7
 10
248.73757570015857
 20
10.894552801298175
 11
248.5626695729585
 21
12.585794151698195
  0
LINE
  8
_f-f_
  6
CONTINUOUS
 62
    7
 10
248.50419273775856
 20
13.151233767698216
 11
248.40711852415853
 21
14.089879335698242
  0
LINE
  8
_f-f_
  6
CONTINUOUS
 62
    7
 10
256.47532642015847
 20
14.621238471698234
 11
253.74102975295853
 21
14.621238471698234
  0
LINE
  8
_f-f_
  6
CONTINUOUS
 62
    7
 10
253.1740194713586
 20
14.621238471698234
 11
251.82161218015855
 21
14.621238471698234
  0
LINE
  8
_f-f_
  6
CONTINUOUS
 62
    7
 10
251.82161218015855
 20
14.055798855698214
 11
253.25871193375849
 21
14.055798855698214
  0
LINE
  8
_f-f_
  6
CONTINUOUS
 62
    7
 10
253.08308386015847
 20
15.228364935698238
 11
253.1740194713586
 21
14.621238471698234
  0
LINE
  8
_f-f_
  6
CONTINUOUS
 62
    7
 10
253.25871193375849
 20
14.055798855698214
 11
253.74691234015856
 21
10.796371383698215
  0
LINE
  8
_f-f_
  6
CONTINUOUS
 62
    7
 10
254.30800546015854
 20
10.877532318098247
 11
253.82666395615848
 21
14.055798855698214
  0
LINE
  8
_f-f_
  6
CONTINUOUS
 62
    7
 10
253.74102975295853
 20
14.621238471698234
 11
253.63923778015851
 21
15.293364807698225
  0
ARC
  8
_f-f_
  6
CONTINUOUS
 62
    7
 10
253.30606651375854
 20
15.707678898098237
 40
2.8757339520000005
 50
295.56537500000002
 51
324.94094800000005
  0
LINE
  8
_f-f_
  6
CONTINUOUS
 62
    7
 10
253.82666395615848
 20
14.055798855698214
 11
255.66727330015857
 21
14.055798855698214
  0
ARC
  8
_f-f_
  6
CONTINUOUS
 62
    7
 10
255.50034562735851
 20
17.562717291698277
 40
6.535748654399999
 50
304.14080200000001
 51
315.32696499999997
  0
ARC
  8
_f-f_
  6
CONTINUOUS
 62
    7
 10
251.77672308415856
 20
5.0645516172982639
 40
10.241466597600002
 50
37.351568999999991
 51
43.801712000000002
  0
ARC
  8
_f-f_
  6
CONTINUOUS
 62
    7
 10
251.93372790415847
 20
4.8052798380982154
 40
10.3140201528
 50
48.700563000000002
 51
55.028115999999997
  0
ARC
  8
_f-f_
  6
CONTINUOUS
 62
    7
 10
257.08223226655855
 20
15.662920690898247
 40
3.5238129696000002
 50
298.08031299999999
 51
333.19209899999998
  0
LINE
  8
_f-f_
  6
CONTINUOUS
 62
    7
 10
256.72228642015853
 20
14.073678759698211
 11
260.22731890495857
 21
14.073678759698211
  0
ARC
  8
_f-f_
  6
CONTINUOUS
 62
    7
 10
261.53521000975854
 20
13.090698932498213
 40
2.2783813415999994
 50
274.09817199999998
 51
1.0379469999999982
  0
ARC
  8
_f-f_
  6
CONTINUOUS
 62
    7
 10
261.63552269215853
 20
12.913413757298173
 40
1.5799941024000002
 50
330.51444500000002
 51
7.9510959999999775
  0
LINE
  8
_f-f_
  6
CONTINUOUS
 62
    7
 10
261.28709506015849
 20
13.13197088769823
 11
263.20032710815855
 21
13.13197088769823
  0
LINE
  8
_f-f_
  6
CONTINUOUS
 62
    7
 10
263.8132176185585
 20
13.13197088769823
 11
265.43503522015851
 21
13.13197088769823
  0
LINE
  8
_f-f_
  6
CONTINUOUS
 62
    7
 10
238.61320354015854
 20
14.526603399698274
 11
242.15069562415852
 21
14.526603399698274
  0
LINE
  8
_f-f_
  6
CONTINUOUS
 62
    7
 10
269.23119999999994
 20
13.941568000000032
 11
270.02147199999996
 21
13.941568000000032
  0
LINE
  8
_f-f_
  6
CONTINUOUS
 62
    7
 10
269.23119999999994
 20
13.546432000000038
 11
270.02147199999996
 21
13.546432000000038
  0
LINE
  8
_f-f_
  6
CONTINUOUS
 62
    7
 10
270.02147199999996
 20
13.941568000000032
 11
270.02147199999996
 21
13.546432000000038
  0
LINE
  8
_f-f_
  6
CONTINUOUS
 62
    7
 10
267.06892800000003
 20
13.853760000000037
 11
266.48719999999992
 21
13.853760000000037
  0
LINE
  8
_f-f_
  6
CONTINUOUS
 62
    7
 10
266.48719999999992
 20
13.853760000000037
 11
266.48719999999992
 21
13.458624000000043
  0
LINE
  8
_f-f_
  6
CONTINUOUS
 62
    7
 10
267.04697599999997
 20
13.458624000000043
 11
266.48719999999992
 21
13.458624000000043
  0
LINE
  8
_f-f_
  6
CONTINUOUS
 62
    7
 10
267.38723200000004
 20
13.853760000000037
 11
267.87017599999996
 21
13.853760000000037
  0
LINE
  8
_f-f_
  6
CONTINUOUS
 62
    7
 10
267.87017599999996
 20
13.853760000000037
 11
267.87017599999996
 21
13.458624000000043
  0
LINE
  8
_f-f_
  6
CONTINUOUS
 62
    7
 10
267.38723200000004
 20
13.458624000000043
 11
267.87017599999996
 21
13.458624000000043
  0
LINE
  8
_f-f_
  6
CONTINUOUS
 62
    7
 10
268.9019199999999
 20
13.019583999999952
 11
267.89212799999996
 21
13.019583999999952
  0
LINE
  8
_f-f_
  6
CONTINUOUS
 62
    7
 10
267.89212799999996
 20
13.019583999999952
 11
267.89212799999996
 21
12.624447999999973
  0
LINE
  8
_f-f_
  6
CONTINUOUS
 62
    7
 10
268.87996799999996
 20
12.624447999999973
 11
267.89212799999996
 21
12.624447999999973
  0
LINE
  8
_f-f_
  6
CONTINUOUS
 62
    7
 10
269.23119999999994
 20
13.019583999999952
 11
270.306848
 21
13.019583999999952
  0
LINE
  8
_f-f_
  6
CONTINUOUS
 62
    7
 10
270.306848
 20
13.019583999999952
 11
270.306848
 21
12.624447999999973
  0
LINE
  8
_f-f_
  6
CONTINUOUS
 62
    7
 10
269.26412799999991
 20
12.624447999999973
 11
270.306848
 21
12.624447999999973
  0
LINE
  8
_f-f_
  6
CONTINUOUS
 62
    7
 10
273.07279999999992
 20
13.853760000000037
 11
270.97638399999994
 21
13.853760000000037
  0
LINE
  8
_f-f_
  6
CONTINUOUS
 62
    7
 10
270.97638399999994
 20
13.853760000000037
 11
270.97638399999994
 21
13.458624000000043
  0
LINE
  8
_f-f_
  6
CONTINUOUS
 62
    7
 10
273.083776
 20
13.458624000000043
 11
270.97638399999994
 21
13.458624000000043
  0
LINE
  8
_f-f_
  6
CONTINUOUS
 62
    7
 10
273.44598400000001
 20
13.853760000000037
 11
274.64236799999992
 21
13.853760000000037
  0
LINE
  8
_f-f_
  6
CONTINUOUS
 62
    7
 10
274.64236799999992
 20
13.853760000000037
 11
274.64236799999992
 21
13.458624000000043
  0
LINE
  8
_f-f_
  6
CONTINUOUS
 62
    7
 10
273.44598400000001
 20
13.458624000000043
 11
274.64236799999992
 21
13.458624000000043
  0
LINE
  8
_f-f_
  6
CONTINUOUS
 62
    7
 10
272.16179199999999
 20
12.536639999999977
 11
272.16179199999999
 21
12.522973737441333
  0
LINE
  8
_f-f_
  6
CONTINUOUS
 62
    7
 10
272.16179199999999
 20
12.522973737441333
 11
272.16179199999999
 21
11.658559999999994
  0
LINE
  8
_f-f_
  6
CONTINUOUS
 62
    7
 10
271.15199999999993
 20
12.84396799999999
 11
271.15199999999993
 21
12.536639999999977
  0
LINE
  8
_f-f_
  6
CONTINUOUS
 62
    7
 10
271.83251199999995
 20
12.536639999999977
 11
271.15199999999993
 21
12.536639999999977
  0
LINE
  8
_f-f_
  6
CONTINUOUS
 62
    7
 10
272.16179199999999
 20
12.522973737441333
 11
272.83132799999998
 21
12.522973737441333
  0
LINE
  8
_f-f_
  6
CONTINUOUS
 62
    7
 10
272.83132799999998
 20
12.84396799999999
 11
272.83132799999998
 21
12.522973737441333
  0
LINE
  8
_f-f_
  6
CONTINUOUS
 62
    7
 10
277.05708800000002
 20
12.141503999999998
 11
278.9339839999999
 21
12.141503999999998
  0
LINE
  8
_f-f_
  6
CONTINUOUS
 62
    7
 10
278.9339839999999
 20
12.536639999999977
 11
278.9339839999999
 21
12.141503999999998
  0
LINE
  8
_f-f_
  6
CONTINUOUS
 62
    7
 10
276.66195199999999
 20
12.141503999999998
 11
275.43263999999999
 21
12.141503999999998
  0
LINE
  8
_f-f_
  6
CONTINUOUS
 62
    7
 10
275.43263999999999
 20
12.536639999999977
 11
275.43263999999999
 21
12.141503999999998
  0
LINE
  8
_f-f_
  6
CONTINUOUS
 62
    7
 10
280.33891199999999
 20
14.600128000000012
 11
280.33891199999999
 21
13.897663999999992
  0
LINE
  8
_f-f_
  6
CONTINUOUS
 62
    7
 10
280.33891199999999
 20
13.897663999999992
 11
279.70230399999997
 21
13.897663999999992
  0
LINE
  8
_f-f_
  6
CONTINUOUS
 62
    7
 10
279.70230399999997
 20
13.897663999999992
 11
279.70230399999997
 21
13.546432000000038
  0
LINE
  8
_f-f_
  6
CONTINUOUS
 62
    7
 10
280.82185599999991
 20
13.546432000000038
 11
279.70230399999997
 21
13.546432000000038
  0
LINE
  8
_f-f_
  6
CONTINUOUS
 62
    7
 10
282.17190399999993
 20
13.502527999999984
 11
281.43651199999999
 21
13.502527999999984
  0
LINE
  8
_f-f_
  6
CONTINUOUS
 62
    7
 10
281.43651199999999
 20
13.502527999999984
 11
281.43651199999999
 21
13.107392000000061
  0
LINE
  8
_f-f_
  6
CONTINUOUS
 62
    7
 10
282.17190399999993
 20
13.107392000000061
 11
281.43651199999999
 21
13.107392000000061
  0
LINE
  8
_f-f_
  6
CONTINUOUS
 62
    7
 10
282.55606399999994
 20
13.107392000000061
 11
283.34633599999995
 21
13.107392000000061
  0
LINE
  8
_f-f_
  6
CONTINUOUS
 62
    7
 10
283.34633599999995
 20
13.502527999999984
 11
283.34633599999995
 21
13.107392000000061
  0
LINE
  8
_f-f_
  6
CONTINUOUS
 62
    7
 10
282.55606399999994
 20
13.502527999999984
 11
283.34633599999995
 21
13.502527999999984
  0
LINE
  8
_f-f_
  6
CONTINUOUS
 62
    7
 10
283.5
 20
11.35123200000001
 11
283.5
 21
11
  0
LINE
  8
_f-f_
  6
CONTINUOUS
 62
    7
 10
282.55606399999994
 20
11.35123200000001
 11
283.5
 21
11.35123200000001
  0
LINE
  8
_f-f_
  6
CONTINUOUS
 62
    7
 10
281.16211199999998
 20
11.35123200000001
 11
281.16211199999998
 21
11
  0
LINE
  8
_f-f_
  6
CONTINUOUS
 62
    7
 10
282.17190399999993
 20
11.35123200000001
 11
281.16211199999998
 21
11.35123200000001
  0
LINE
  8
_f-f_
  6
CONTINUOUS
 62
    7
 10
233.5
 20
17
 11
233.5
 21
27
  0
LINE
  8
_f-f_
  6
CONTINUOUS
 62
    7
 10
183.5
 20
17
 11
183.5
 21
27
  0
LINE
  8
_f-f_
  6
CONTINUOUS
 62
    7
 10
253.5
 20
17
 11
253.5
 21
27
  0
TEXT
  8
_e-e_
 62
    7
 10
165.5
 20
20
 40
4
 41
1
 50
0
  1
図面名称
  0
TEXT
  8
_e-e_
 62
    7
 10
237.5
 20
20
 40
4
 41
1
 50
0
  1
作成日
  0
LINE
  8
_f-f_
  6
CONTINUOUS
 62
    7
 10
163.5
 20
17
 11
163.5
 21
27
  0
LINE
  8
ADD_LINE
  6
DOT
 62
    9
 10
188.5
 20
17
 11
188.5
 21
27
  0
LINE
  8
_f-f_
  6
CONTINUOUS
 62
    7
 10
283.5
 20
27
 11
188.61822686063675
 21
27
  0
LINE
  8
_f-f_
  6
CONTINUOUS
 62
    7
 10
188.61822686063675
 20
27
 11
163.5
 21
27
  0
LINE
  8
ADD_LINE
  6
DOT
 62
    9
 10
186
 20
19.5
 11
191
 21
19.5
  0
LINE
  8
ADD_LINE
  6
DOT
 62
    9
 10
186
 20
24.5
 11
191
 21
24.5
  0
LINE
  8
_f-f_
  6
CONTINUOUS
 62
    7
 10
248.5
 20
197
 11
248.5
 21
187
  0
TEXT
  8
_e-e_
 62
    7
 10
237
 20
190
 40
4
 41
1
 50
0
  1
縮尺
  0
LINE
  8
_f-f_
  6
CONTINUOUS
 62
    7
 10
233.5
 20
197
 11
233.5
 21
187
  0
LINE
  8
_f-f_
  6
CONTINUOUS
 62
    7
 10
233.5
 20
187
 11
283.5
 21
187
  0
LINE
  8
_1-3_断熱材
  6
CONTINUOUS
 62
    7
 10
49.810810116994205
 20
110.15044460897803
 11
86.638650116994214
 21
110.15044460897803
  0
LINE
  8
_1-3_断熱材
  6
CONTINUOUS
 62
    7
 10
49.810810116994205
 20
103.22044460897803
 11
84.70045011699419
 21
103.22044460897803
  0
LINE
  8
_1-3_断熱材
  6
CONTINUOUS
 62
    7
 10
49.810810116994205
 20
103.15044460897803
 11
84.70045011699419
 21
103.15044460897803
  0
LINE
  8
_1-3_断熱材
  6
CONTINUOUS
 62
    7
 10
49.810810116994205
 20
110.05044460897804
 11
86.638650116994214
 21
110.05044460897804
  0
LINE
  8
_1-3_断熱材
  6
CONTINUOUS
 62
    7
 10
56.104809677016576
 20
103.22044460897803
 11
49.810810116994205
 21
109.51440460897803
  0
LINE
  8
_1-3_断熱材
  6
CONTINUOUS
 62
    7
 10
53.983489457027773
 20
103.22044460897803
 11
49.810810116994205
 21
107.39308460897803
  0
LINE
  8
_1-3_断熱材
  6
CONTINUOUS
 62
    7
 10
51.862168797061329
 20
103.22044460897803
 11
49.810810116994205
 21
105.27176460897803
  0
LINE
  8
_1-3_断熱材
  6
CONTINUOUS
 62
    7
 10
49.810810116994205
 20
109.51440460897803
 11
50.346850116994219
 21
110.05044460897804
  0
LINE
  8
_1-3_断熱材
  6
CONTINUOUS
 62
    7
 10
58.226130116994213
 20
103.22044460897803
 11
51.3961301169942
 21
110.05044460897804
  0
LINE
  8
_1-3_断熱材
  6
CONTINUOUS
 62
    7
 10
49.810810116994205
 20
107.39308460897803
 11
52.468170116994216
 21
110.05044460897804
  0
LINE
  8
_1-3_断熱材
  6
CONTINUOUS
 62
    7
 10
49.810810116994205
 20
105.27176460897803
 11
54.589490116994199
 21
110.05044460897804
  0
LINE
  8
_1-3_断熱材
  6
CONTINUOUS
 62
    7
 10
49.880810116994198
 20
103.22044460897803
 11
56.71081011699421
 21
110.05044460897804
  0
LINE
  8
_1-3_断熱材
  6
CONTINUOUS
 62
    7
 10
52.002170116994193
 20
103.22044460897803
 11
58.832170116994206
 21
110.05044460897804
  0
LINE
  8
_1-4_リベットル__フ
  6
CONTINUOUS
 62
    3
 10
60.248210116994201
 20
110.45044460897803
 11
49.810810116994205
 21
110.45044460897803
  0
LINE
  8
_1-4_リベットル__フ
  6
CONTINUOUS
 62
    3
 10
60.372450116994202
 20
110.15044460897803
 11
49.810810116994205
 21
110.15044460897803
  0
LINE
  8
_1-3_断熱材
  6
CONTINUOUS
 62
    7
 10
60.34745011699421
 20
103.22044460897803
 11
53.517450116994198
 21
110.05044460897804
  0
LINE
  8
_1-3_断熱材
  6
CONTINUOUS
 62
    7
 10
62.468770116994207
 20
103.22044460897803
 11
55.638770116994195
 21
110.05044460897804
  0
LINE
  8
_1-3_断熱材
  6
CONTINUOUS
 62
    7
 10
64.590090116994205
 20
103.22044460897803
 11
57.760090116994192
 21
110.05044460897804
  0
LINE
  8
_1-3_断熱材
  6
CONTINUOUS
 62
    7
 10
66.711410116994202
 20
103.22044460897803
 11
59.881410116994189
 21
110.05044460897804
  0
LINE
  8
_1-3_断熱材
  6
CONTINUOUS
 62
    7
 10
54.123490116994191
 20
103.22044460897803
 11
60.953490116994203
 21
110.05044460897804
  0
LINE
  8
_1-3_断熱材
  6
CONTINUOUS
 62
    7
 10
68.832730116994213
 20
103.22044460897803
 11
62.002730116994201
 21
110.05044460897804
  0
LINE
  8
_1-3_断熱材
  6
CONTINUOUS
 62
    7
 10
56.244810116994188
 20
103.22044460897803
 11
63.0748101169942
 21
110.05044460897804
  0
LINE
  8
_1-3_断熱材
  6
CONTINUOUS
 62
    7
 10
70.954050116994196
 20
103.22044460897803
 11
64.124050116994184
 21
110.05044460897804
  0
LINE
  8
_1-3_断熱材
  6
CONTINUOUS
 62
    7
 10
58.366130116994199
 20
103.22044460897803
 11
65.196130116994212
 21
110.05044460897804
  0
LINE
  8
_1-3_断熱材
  6
CONTINUOUS
 62
    7
 10
73.075370116994208
 20
103.22044460897803
 11
66.245370116994195
 21
110.05044460897804
  0
LINE
  8
_1-3_断熱材
  6
CONTINUOUS
 62
    7
 10
60.487450116994196
 20
103.22044460897803
 11
67.317450116994209
 21
110.05044460897804
  0
LINE
  8
_1-3_断熱材
  6
CONTINUOUS
 62
    7
 10
62.608770116994194
 20
103.22044460897803
 11
69.438770116994206
 21
110.05044460897804
  0
LINE
  8
_1-3_断熱材
  6
CONTINUOUS
 62
    7
 10
64.730090116994191
 20
103.22044460897803
 11
71.560090116994203
 21
110.05044460897804
  0
LINE
  8
_1-3_断熱材
  6
CONTINUOUS
 62
    7
 10
211.04369011699424
 20
105.28428460897803
 11
215.05169011699422
 21
109.29228460897802
  0
LINE
  8
_1-3_断熱材
  6
CONTINUOUS
 62
    7
 10
216.05169011699422
 20
106.04964460897803
 11
219.70209011699421
 21
109.70004460897803
  0
LINE
  8
_1-3_断熱材
  6
CONTINUOUS
 62
    7
 10
216.05169011699422
 20
103.92832460897803
 11
220.0596901169942
 21
107.93632460897803
  0
LINE
  8
_1-3_断熱材
  6
CONTINUOUS
 62
    7
 10
97.82417011699421
 20
103.92744460897802
 11
97.701290116994201
 21
104.05032460897803
  0
LINE
  8
_1-3_断熱材
  6
CONTINUOUS
 62
    7
 10
97.7921701169942
 20
106.08076460897803
 11
93.722530116994207
 21
110.15044460897803
  0
LINE
  8
_1-3_断熱材
  6
CONTINUOUS
 62
    7
 10
97.7921701169942
 20
108.20208460897803
 11
95.843850116994204
 21
110.15044460897803
  0
LINE
  8
_1-3_断熱材
  6
CONTINUOUS
 62
    7
 10
215.05169011699422
 20
103.37256460897802
 11
211.04369011699424
 21
107.38056460897803
  0
LINE
  8
_1-3_断熱材
  6
CONTINUOUS
 62
    7
 10
215.05169011699422
 20
105.49388460897802
 11
211.12637011699422
 21
109.41920460897802
  0
LINE
  8
_1-3_断熱材
  6
CONTINUOUS
 62
    7
 10
220.09169011699424
 20
104.69652460897802
 11
220.0754501169942
 21
104.71276460897803
  0
LINE
  8
_1-3_断熱材
  6
CONTINUOUS
 62
    7
 10
219.97949011699421
 20
104.80872460897803
 11
216.05169011699422
 21
108.73652460897803
  0
LINE
  8
_1-3_断熱材
  6
CONTINUOUS
 62
    7
 10
238.28341011699422
 20
109.83932460897803
 11
238.07229011699422
 21
110.05044460897804
  0
LINE
  8
_1-3_断熱材
  6
CONTINUOUS
 62
    7
 10
238.28341011699422
 20
107.71800460897802
 11
235.9509701169942
 21
110.05044460897804
  0
LINE
  8
_1-3_断熱材
  6
CONTINUOUS
 62
    7
 10
238.28341011699422
 20
105.59668460897802
 11
233.82965011699417
 21
110.05044460897804
  0
LINE
  8
_1-3_断熱材
  6
CONTINUOUS
 62
    7
 10
236.55701011699421
 20
103.22044460897803
 11
238.28341011699422
 21
104.94684460897803
  0
LINE
  8
_1-3_断熱材
  6
CONTINUOUS
 62
    7
 10
234.43569011699418
 20
103.22044460897801
 11
238.28341011699422
 21
107.06816460897802
  0
LINE
  8
_1-3_断熱材
  6
CONTINUOUS
 62
    7
 10
232.31437011699421
 20
103.22044460897803
 11
238.28341011699422
 21
109.18948460897803
  0
LINE
  8
_1-3_断熱材
  6
CONTINUOUS
 62
    7
 10
230.19305011699419
 20
103.22044460897803
 11
237.02305011699423
 21
110.05044460897804
  0
LINE
  8
_1-3_断熱材
  6
CONTINUOUS
 62
    7
 10
227.93173011699423
 20
103.22044460897803
 11
221.42673011699418
 21
109.72544460897802
  0
LINE
  8
_1-3_断熱材
  6
CONTINUOUS
 62
    7
 10
228.07173011699422
 20
103.22044460897803
 11
234.9017301169942
 21
110.05044460897804
  0
LINE
  8
_1-3_断熱材
  6
CONTINUOUS
 62
    7
 10
225.81041011699421
 20
103.22044460897803
 11
221.04369011699424
 21
107.98716460897802
  0
LINE
  8
_1-3_断熱材
  6
CONTINUOUS
 62
    7
 10
225.95041011699419
 20
103.22044460897803
 11
232.78041011699423
 21
110.05044460897805
  0
LINE
  8
_1-3_断熱材
  6
CONTINUOUS
 62
    7
 10
223.68909011699424
 20
103.22044460897803
 11
221.04369011699424
 21
105.86584460897802
  0
LINE
  8
_1-3_断熱材
  6
CONTINUOUS
 62
    7
 10
221.56777011699421
 20
103.22044460897803
 11
221.0116901169942
 21
103.77652460897804
  0
LINE
  8
_1-3_断熱材
  6
CONTINUOUS
 62
    7
 10
219.44645011699424
 20
103.22044460897803
 11
216.05169011699422
 21
106.61520460897803
  0
LINE
  8
_1-3_断熱材
  6
CONTINUOUS
 62
    7
 10
219.58645011699423
 20
103.22044460897803
 11
220.02305011699423
 21
103.65704460897803
  0
LINE
  8
_1-3_断熱材
  6
CONTINUOUS
 62
    7
 10
217.32513011699422
 20
103.22044460897803
 11
216.05169011699422
 21
104.49388460897802
  0
LINE
  8
_1-3_断熱材
  6
CONTINUOUS
 62
    7
 10
217.4651301169942
 20
103.22044460897803
 11
220.0596901169942
 21
105.81500460897803
  0
LINE
  8
_1-3_断熱材
  6
CONTINUOUS
 62
    7
 10
213.08249011699422
 20
103.22044460897803
 11
211.04369011699424
 21
105.25924460897802
  0
LINE
  8
_1-3_断熱材
  6
CONTINUOUS
 62
    7
 10
213.22249011699421
 20
103.22044460897803
 11
215.05169011699422
 21
105.04964460897803
  0
LINE
  8
_1-3_断熱材
  6
CONTINUOUS
 62
    7
 10
211.10117011699424
 20
103.22044460897803
 11
215.05169011699422
 21
107.17096460897803
  0
LINE
  8
_1-3_断熱材
  6
CONTINUOUS
 62
    7
 10
208.97985011699421
 20
103.22044460897803
 11
210.09169011699424
 21
104.33228460897803
  0
LINE
  8
_1-3_断熱材
  6
CONTINUOUS
 62
    7
 10
206.85853011699419
 20
103.22044460897803
 11
210.0596901169942
 21
106.42160460897803
  0
LINE
  8
_1-3_断熱材
  6
CONTINUOUS
 62
    7
 10
204.73721011699422
 20
103.22044460897803
 11
210.0596901169942
 21
108.54292460897803
  0
LINE
  8
_1-3_断熱材
  6
CONTINUOUS
 62
    7
 10
160.04949011699421
 20
103.22044460897803
 11
153.8395701169942
 21
109.43036460897802
  0
LINE
  8
_1-3_断熱材
  6
CONTINUOUS
 62
    7
 10
157.92817011699421
 20
103.22044460897803
 11
153.55989011699421
 21
107.58872460897803
  0
LINE
  8
_1-3_断熱材
  6
CONTINUOUS
 62
    7
 10
155.80685011699421
 20
103.22044460897803
 11
152.8742501169942
 21
106.15304460897804
  0
LINE
  8
_1-3_断熱材
  6
CONTINUOUS
 62
    7
 10
153.68553011699419
 20
103.22044460897803
 11
152.12333011699423
 21
104.78264460897803
  0
LINE
  8
_1-3_断熱材
  6
CONTINUOUS
 62
    7
 10
149.58289011699421
 20
103.22044460897803
 11
151.04273011699422
 21
104.68028460897803
  0
LINE
  8
_1-3_断熱材
  6
CONTINUOUS
 62
    7
 10
147.46157011699421
 20
103.22044460897803
 11
152.78817011699419
 21
108.54704460897803
  0
LINE
  8
_1-3_断熱材
  6
CONTINUOUS
 62
    7
 10
104.89516966272014
 20
103.22044460897803
 11
98.801450116994189
 21
109.31412460897803
  0
LINE
  8
_1-3_断熱材
  6
CONTINUOUS
 62
    7
 10
102.77384942863438
 20
103.22044460897803
 11
98.776170116994209
 21
107.21808460897803
  0
LINE
  8
_1-3_断熱材
  6
CONTINUOUS
 62
    7
 10
100.65253011699421
 20
103.22044460897803
 11
98.755690116994202
 21
105.11728460897803
  0
LINE
  8
_1-3_断熱材
  6
CONTINUOUS
 62
    7
 10
96.549890116994192
 20
103.22044460897803
 11
97.726970116994195
 21
104.39752460897803
  0
LINE
  8
_1-3_断熱材
  6
CONTINUOUS
 62
    7
 10
94.288569699233406
 20
103.22044460897803
 11
87.656130116994206
 21
109.85284460897803
  0
LINE
  8
_1-3_断熱材
  6
CONTINUOUS
 62
    7
 10
94.428569301533045
 20
103.22044460897803
 11
97.7921701169942
 21
106.58408460897803
  0
LINE
  8
_1-3_断熱材
  6
CONTINUOUS
 62
    7
 10
92.167249526431405
 20
103.22044460897803
 11
87.495970116994201
 21
107.89168460897803
  0
LINE
  8
_1-3_断熱材
  6
CONTINUOUS
 62
    7
 10
92.307249612940169
 20
103.22044460897803
 11
97.7921701169942
 21
108.70540460897803
  0
LINE
  8
_1-3_断熱材
  6
CONTINUOUS
 62
    7
 10
90.045930116994199
 20
103.22044460897803
 11
86.858170116994202
 21
106.40820460897802
  0
LINE
  8
_1-3_断熱材
  6
CONTINUOUS
 62
    7
 10
90.185929715173359
 20
103.22044460897803
 11
97.084170116994201
 21
110.11872460897803
  0
LINE
  8
_1-3_断熱材
  6
CONTINUOUS
 62
    7
 10
87.924610116994202
 20
103.22044460897803
 11
86.068330116994204
 21
105.07672460897803
  0
LINE
  8
_1-3_断熱材
  6
CONTINUOUS
 62
    7
 10
88.064610116994189
 20
103.22044460897803
 11
94.994610116994195
 21
110.15044460897803
  0
LINE
  8
_1-3_断熱材
  6
CONTINUOUS
 62
    7
 10
85.803290116994205
 20
103.22044460897803
 11
85.706090116994204
 21
103.31764460897803
  0
LINE
  8
_1-3_断熱材
  6
CONTINUOUS
 62
    7
 10
83.821970116994194
 20
103.22044460897803
 11
84.760610116994215
 21
104.15908460897802
  0
LINE
  8
_1-3_断熱材
  6
CONTINUOUS
 62
    7
 10
81.700650116994197
 20
103.22044460897803
 11
86.4776101169942
 21
107.99740460897803
  0
LINE
  8
_1-3_断熱材
  6
CONTINUOUS
 62
    7
 10
75.196690116994205
 20
103.22044460897803
 11
68.366690116994192
 21
110.05044460897804
  0
LINE
  8
_1-3_断熱材
  6
CONTINUOUS
 62
    7
 10
77.318010116994216
 20
103.22044460897803
 11
70.488010116994204
 21
110.05044460897804
  0
LINE
  8
_1-3_断熱材
  6
CONTINUOUS
 62
    7
 10
79.439330116994213
 20
103.22044460897803
 11
72.609330116994187
 21
110.05044460897804
  0
LINE
  8
_1-3_断熱材
  6
CONTINUOUS
 62
    7
 10
66.851410116994188
 20
103.22044460897803
 11
73.681410116994201
 21
110.05044460897804
  0
LINE
  8
_1-3_断熱材
  6
CONTINUOUS
 62
    7
 10
81.560650116994211
 20
103.22044460897803
 11
74.730650116994198
 21
110.05044460897804
  0
LINE
  8
_1-3_断熱材
  6
CONTINUOUS
 62
    7
 10
68.9727301169942
 20
103.22044460897803
 11
75.802730116994212
 21
110.05044460897804
  0
LINE
  8
_1-3_断熱材
  6
CONTINUOUS
 62
    7
 10
83.681970116994208
 20
103.22044460897803
 11
76.851970116994195
 21
110.05044460897804
  0
LINE
  8
_1-3_断熱材
  6
CONTINUOUS
 62
    7
 10
71.094050116994183
 20
103.22044460897803
 11
77.924050116994195
 21
110.05044460897804
  0
LINE
  8
_1-3_断熱材
  6
CONTINUOUS
 62
    7
 10
73.215370116994194
 20
103.22044460897803
 11
80.045370116994206
 21
110.05044460897804
  0
LINE
  8
_1-3_断熱材
  6
CONTINUOUS
 62
    7
 10
84.77877011699421
 20
104.24492460897802
 11
78.973289439661798
 21
110.05044460897804
  0
LINE
  8
_1-3_断熱材
  6
CONTINUOUS
 62
    7
 10
85.325810116994191
 20
105.81924460897802
 11
81.09461011699419
 21
110.05044460897804
  0
LINE
  8
_1-3_断熱材
  6
CONTINUOUS
 62
    7
 10
75.336690116994191
 20
103.22044460897803
 11
82.166690116994218
 21
110.05044460897804
  0
LINE
  8
_1-3_断熱材
  6
CONTINUOUS
 62
    7
 10
86.138010116994209
 20
107.12836460897803
 11
83.215930116994187
 21
110.05044460897804
  0
LINE
  8
_1-3_断熱材
  6
CONTINUOUS
 62
    7
 10
77.458010116994203
 20
103.22044460897803
 11
84.288010116994215
 21
110.05044460897804
  0
LINE
  8
_1-3_断熱材
  6
CONTINUOUS
 62
    7
 10
86.638770116994195
 20
108.74892460897803
 11
85.337250116994198
 21
110.05044460897804
  0
LINE
  8
_1-3_断熱材
  6
CONTINUOUS
 62
    7
 10
79.5793301169942
 20
103.22044460897803
 11
86.409330116994212
 21
110.05044460897804
  0
LINE
  8
_1-3_断熱材
  6
CONTINUOUS
 62
    7
 10
87.674410116994196
 20
109.19424460897802
 11
88.530645933768938
 21
110.05044460897804
  0
LINE
  8
_1-3_断熱材
  6
CONTINUOUS
 62
    7
 10
96.409890116994205
 20
103.22044460897803
 11
89.579890116994193
 21
110.05044460897804
  0
LINE
  8
_1-3_断熱材
  6
CONTINUOUS
 62
    7
 10
86.621290116994189
 20
106.01976460897802
 11
90.651970116994207
 21
110.05044460897804
  0
LINE
  8
_1-3_断熱材
  6
CONTINUOUS
 62
    7
 10
97.679450116994204
 20
104.07220460897803
 11
91.701210116994204
 21
110.05044460897804
  0
LINE
  8
_1-3_断熱材
  6
CONTINUOUS
 62
    7
 10
85.943290116994191
 20
103.22044460897803
 11
92.773290116994204
 21
110.05044460897804
  0
LINE
  8
_1-3_断熱材
  6
CONTINUOUS
 62
    7
 10
107.01649011699421
 20
103.22044460897803
 11
100.18649011699419
 21
110.05044460897804
  0
LINE
  8
_1-3_断熱材
  6
CONTINUOUS
 62
    7
 10
98.776170116994209
 20
107.56808460897803
 11
101.25856856802351
 21
110.05044460897804
  0
LINE
  8
_1-3_断熱材
  6
CONTINUOUS
 62
    7
 10
109.13781011699422
 20
103.22044460897803
 11
102.30781011699419
 21
110.05044460897804
  0
LINE
  8
_1-3_断熱材
  6
CONTINUOUS
 62
    7
 10
98.776170116994209
 20
105.44676460897803
 11
103.37988926659622
 21
110.05044460897804
  0
LINE
  8
_1-3_断熱材
  6
CONTINUOUS
 62
    7
 10
111.25913011699421
 20
103.22044460897803
 11
104.4291301169942
 21
110.05044460897804
  0
LINE
  8
_1-3_断熱材
  6
CONTINUOUS
 62
    7
 10
98.744170116994198
 20
103.29344460897804
 11
105.50120953364873
 21
110.05044460897804
  0
LINE
  8
_1-3_断熱材
  6
CONTINUOUS
 62
    7
 10
113.38045011699421
 20
103.22044460897803
 11
106.55045011699418
 21
110.05044460897804
  0
LINE
  8
_1-3_断熱材
  6
CONTINUOUS
 62
    7
 10
100.7925301169942
 20
103.22044460897803
 11
107.62253011699421
 21
110.05044460897804
  0
LINE
  8
_1-3_断熱材
  6
CONTINUOUS
 62
    7
 10
115.50177011699421
 20
103.22044460897803
 11
108.6717701169942
 21
110.05044460897804
  0
LINE
  8
_1-3_断熱材
  6
CONTINUOUS
 62
    7
 10
102.9138501169942
 20
103.22044460897803
 11
109.7438501169942
 21
110.05044460897804
  0
LINE
  8
_1-3_断熱材
  6
CONTINUOUS
 62
    7
 10
117.6930901169942
 20
103.15044460897803
 11
110.79309011699419
 21
110.05044460897804
  0
LINE
  8
_1-3_断熱材
  6
CONTINUOUS
 62
    7
 10
105.03517011699419
 20
103.22044460897803
 11
111.86517011699422
 21
110.05044460897804
  0
LINE
  8
_1-3_断熱材
  6
CONTINUOUS
 62
    7
 10
119.7444101169942
 20
103.22044460897803
 11
112.91441011699419
 21
110.05044460897804
  0
LINE
  8
_1-3_断熱材
  6
CONTINUOUS
 62
    7
 10
107.15649011699419
 20
103.22044460897803
 11
113.9864901169942
 21
110.05044460897804
  0
LINE
  8
_1-3_断熱材
  6
CONTINUOUS
 62
    7
 10
121.86573011699421
 20
103.22044460897803
 11
115.0357301169942
 21
110.05044460897804
  0
LINE
  8
_1-3_断熱材
  6
CONTINUOUS
 62
    7
 10
109.2778101169942
 20
103.22044460897803
 11
116.10781011699422
 21
110.05044460897804
  0
LINE
  8
_1-3_断熱材
  6
CONTINUOUS
 62
    7
 10
124.0570501169942
 20
103.15044460897803
 11
117.1570501169942
 21
110.05044460897804
  0
LINE
  8
_1-3_断熱材
  6
CONTINUOUS
 62
    7
 10
111.3991301169942
 20
103.22044460897803
 11
118.22913011699421
 21
110.05044460897804
  0
LINE
  8
_1-3_断熱材
  6
CONTINUOUS
 62
    7
 10
126.10837011699421
 20
103.22044460897803
 11
119.2783701169942
 21
110.05044460897804
  0
LINE
  8
_1-3_断熱材
  6
CONTINUOUS
 62
    7
 10
113.5204501169942
 20
103.22044460897803
 11
120.35045011699421
 21
110.05044460897804
  0
LINE
  8
_1-3_断熱材
  6
CONTINUOUS
 62
    7
 10
128.22969011699422
 20
103.22044460897803
 11
121.39969011699421
 21
110.05044460897804
  0
LINE
  8
_1-3_断熱材
  6
CONTINUOUS
 62
    7
 10
115.64177011699419
 20
103.22044460897803
 11
122.47177011699421
 21
110.05044460897804
  0
LINE
  8
_1-3_断熱材
  6
CONTINUOUS
 62
    7
 10
117.6930901169942
 20
103.15044460897803
 11
124.59309011699422
 21
110.05044460897804
  0
LINE
  8
_1-3_断熱材
  6
CONTINUOUS
 62
    7
 10
130.35101011699419
 20
103.22044460897803
 11
123.52101011699419
 21
110.05044460897804
  0
LINE
  8
_1-3_断熱材
  6
CONTINUOUS
 62
    7
 10
132.47233011699421
 20
103.22044460897803
 11
125.6423301169942
 21
110.05044460897804
  0
LINE
  8
_1-3_断熱材
  6
CONTINUOUS
 62
    7
 10
119.88441011699419
 20
103.22044460897803
 11
126.7144101169942
 21
110.05044460897804
  0
LINE
  8
_1-3_断熱材
  6
CONTINUOUS
 62
    7
 10
134.59365011699421
 20
103.22044460897803
 11
127.7636501169942
 21
110.05044460897804
  0
LINE
  8
_1-3_断熱材
  6
CONTINUOUS
 62
    7
 10
122.0057301169942
 20
103.22044460897803
 11
128.83573011699423
 21
110.05044460897804
  0
LINE
  8
_1-3_断熱材
  6
CONTINUOUS
 62
    7
 10
124.0570501169942
 20
103.15044460897803
 11
130.9570501169942
 21
110.05044460897804
  0
LINE
  8
_1-3_断熱材
  6
CONTINUOUS
 62
    7
 10
136.71497011699421
 20
103.22044460897803
 11
129.8849701169942
 21
110.05044460897804
  0
LINE
  8
_1-3_断熱材
  6
CONTINUOUS
 62
    7
 10
126.2483701169942
 20
103.22044460897803
 11
133.07837011699422
 21
110.05044460897804
  0
LINE
  8
_1-3_断熱材
  6
CONTINUOUS
 62
    7
 10
138.83629011699421
 20
103.22044460897803
 11
132.00629011699419
 21
110.05044460897804
  0
LINE
  8
_1-3_断熱材
  6
CONTINUOUS
 62
    7
 10
140.9576101169942
 20
103.22044460897803
 11
134.12761011699422
 21
110.05044460897804
  0
LINE
  8
_1-3_断熱材
  6
CONTINUOUS
 62
    7
 10
128.36969011699421
 20
103.22044460897803
 11
135.19969011699422
 21
110.05044460897804
  0
LINE
  8
_1-3_断熱材
  6
CONTINUOUS
 62
    7
 10
130.49101011699418
 20
103.22044460897803
 11
137.32101011699422
 21
110.05044460897804
  0
LINE
  8
_1-3_断熱材
  6
CONTINUOUS
 62
    7
 10
143.07893011699423
 20
103.22044460897803
 11
136.24893011699419
 21
110.05044460897804
  0
LINE
  8
_1-3_断熱材
  6
CONTINUOUS
 62
    7
 10
145.2002501169942
 20
103.22044460897803
 11
138.37025011699421
 21
110.05044460897804
  0
LINE
  8
_1-3_断熱材
  6
CONTINUOUS
 62
    7
 10
132.6123301169942
 20
103.22044460897803
 11
139.44233011699421
 21
110.05044460897804
  0
LINE
  8
_1-3_断熱材
  6
CONTINUOUS
 62
    7
 10
147.32157011699422
 20
103.22044460897803
 11
140.49157011699418
 21
110.05044460897804
  0
LINE
  8
_1-3_断熱材
  6
CONTINUOUS
 62
    7
 10
134.7336501169942
 20
103.22044460897803
 11
141.56365011699421
 21
110.05044460897804
  0
LINE
  8
_1-3_断熱材
  6
CONTINUOUS
 62
    7
 10
149.44289011699422
 20
103.22044460897803
 11
142.61289011699421
 21
110.05044460897804
  0
LINE
  8
_1-3_断熱材
  6
CONTINUOUS
 62
    7
 10
136.8549701169942
 20
103.22044460897803
 11
143.68497011699424
 21
110.05044460897804
  0
LINE
  8
_1-3_断熱材
  6
CONTINUOUS
 62
    7
 10
151.35673011699421
 20
105.54920460897803
 11
146.8555292476633
 21
110.05044460897804
  0
LINE
  8
_1-3_断熱材
  6
CONTINUOUS
 62
    7
 10
141.09761011699419
 20
103.22044460897803
 11
147.92761011699423
 21
110.05044460897804
  0
LINE
  8
_1-3_断熱材
  6
CONTINUOUS
 62
    7
 10
150.89785011699419
 20
103.88680460897803
 11
144.73421011699421
 21
110.05044460897804
  0
LINE
  8
_1-3_断熱材
  6
CONTINUOUS
 62
    7
 10
138.97629011699419
 20
103.22044460897803
 11
145.80629011699421
 21
110.05044460897804
  0
LINE
  8
_1-3_断熱材
  6
CONTINUOUS
 62
    7
 10
152.15661011699422
 20
106.87068460897802
 11
148.97685011699423
 21
110.05044460897804
  0
LINE
  8
_1-3_断熱材
  6
CONTINUOUS
 62
    7
 10
143.21893011699422
 20
103.22044460897803
 11
150.0489301169942
 21
110.05044460897804
  0
LINE
  8
_1-3_断熱材
  6
CONTINUOUS
 62
    7
 10
145.34025011699418
 20
103.22044460897803
 11
152.17025011699423
 21
110.05044460897804
  0
LINE
  8
_1-3_断熱材
  6
CONTINUOUS
 62
    7
 10
152.75053011699418
 20
108.39808460897802
 11
151.0981701169942
 21
110.05044460897804
  0
LINE
  8
_1-3_断熱材
  6
CONTINUOUS
 62
    7
 10
153.83505011699418
 20
109.59392460897803
 11
154.29157011699419
 21
110.05044460897804
  0
LINE
  8
_1-3_断熱材
  6
CONTINUOUS
 62
    7
 10
162.17081011699423
 20
103.22044460897803
 11
155.34081011699419
 21
110.05044460897804
  0
LINE
  8
_1-3_断熱材
  6
CONTINUOUS
 62
    7
 10
153.32845011699419
 20
106.96600460897803
 11
156.41289011699422
 21
110.05044460897804
  0
LINE
  8
_1-3_断熱材
  6
CONTINUOUS
 62
    7
 10
164.2921301169942
 20
103.22044460897803
 11
157.46213011699422
 21
110.05044460897804
  0
LINE
  8
_1-3_断熱材
  6
CONTINUOUS
 62
    7
 10
151.8796101169942
 20
103.39584460897802
 11
158.53421011699422
 21
110.05044460897804
  0
LINE
  8
_1-3_断熱材
  6
CONTINUOUS
 62
    7
 10
166.4134501169942
 20
103.22044460897803
 11
159.58345011699419
 21
110.05044460897804
  0
LINE
  8
_1-3_断熱材
  6
CONTINUOUS
 62
    7
 10
153.82553011699417
 20
103.22044460897803
 11
160.65553011699421
 21
110.05044460897804
  0
LINE
  8
_1-3_断熱材
  6
CONTINUOUS
 62
    7
 10
155.9468501169942
 20
103.22044460897803
 11
162.77685011699424
 21
110.05044460897804
  0
LINE
  8
_1-3_断熱材
  6
CONTINUOUS
 62
    7
 10
168.5347701169942
 20
103.22044460897803
 11
161.70477011699421
 21
110.05044460897804
  0
LINE
  8
_1-3_断熱材
  6
CONTINUOUS
 62
    7
 10
170.65609011699422
 20
103.22044460897803
 11
163.82609011699418
 21
110.05044460897804
  0
LINE
  8
_1-3_断熱材
  6
CONTINUOUS
 62
    7
 10
158.0681701169942
 20
103.22044460897803
 11
164.89817011699421
 21
110.05044460897804
  0
LINE
  8
_1-3_断熱材
  6
CONTINUOUS
 62
    7
 10
160.18949011699419
 20
103.22044460897803
 11
167.01949011699421
 21
110.05044460897804
  0
LINE
  8
_1-3_断熱材
  6
CONTINUOUS
 62
    7
 10
172.77741011699419
 20
103.22044460897803
 11
165.94741011699421
 21
110.05044460897804
  0
LINE
  8
_1-3_断熱材
  6
CONTINUOUS
 62
    7
 10
162.31081011699422
 20
103.22044460897803
 11
169.1408101169942
 21
110.05044460897804
  0
LINE
  8
_1-3_断熱材
  6
CONTINUOUS
 62
    7
 10
174.89873011699422
 20
103.22044460897803
 11
168.0687301169942
 21
110.05044460897804
  0
LINE
  8
_1-3_断熱材
  6
CONTINUOUS
 62
    7
 10
164.43213011699422
 20
103.22044460897803
 11
171.26213011699423
 21
110.05044460897804
  0
LINE
  8
_1-3_断熱材
  6
CONTINUOUS
 62
    7
 10
177.02005011699418
 20
103.22044460897803
 11
170.1900501169942
 21
110.05044460897804
  0
LINE
  8
_1-3_断熱材
  6
CONTINUOUS
 62
    7
 10
166.55345011699418
 20
103.22044460897803
 11
173.3834501169942
 21
110.05044460897804
  0
LINE
  8
_1-3_断熱材
  6
CONTINUOUS
 62
    7
 10
179.14137011699421
 20
103.22044460897803
 11
172.31137011699423
 21
110.05044460897804
  0
LINE
  8
_1-3_断熱材
  6
CONTINUOUS
 62
    7
 10
168.67477011699418
 20
103.22044460897803
 11
175.50477011699422
 21
110.05044460897804
  0
LINE
  8
_1-3_断熱材
  6
CONTINUOUS
 62
    7
 10
181.26269011699424
 20
103.22044460897803
 11
174.43269011699419
 21
110.05044460897804
  0
LINE
  8
_1-3_断熱材
  6
CONTINUOUS
 62
    7
 10
170.79609011699421
 20
103.22044460897803
 11
177.62609011699419
 21
110.05044460897804
  0
LINE
  8
_1-3_断熱材
  6
CONTINUOUS
 62
    7
 10
183.3840101169942
 20
103.22044460897803
 11
176.55401011699422
 21
110.05044460897804
  0
LINE
  8
_1-3_断熱材
  6
CONTINUOUS
 62
    7
 10
172.91741011699418
 20
103.22044460897803
 11
179.74741011699422
 21
110.05044460897804
  0
LINE
  8
_1-3_断熱材
  6
CONTINUOUS
 62
    7
 10
175.0387301169942
 20
103.22044460897803
 11
181.86873011699419
 21
110.05044460897804
  0
LINE
  8
_1-3_断熱材
  6
CONTINUOUS
 62
    7
 10
185.50533011699423
 20
103.22044460897803
 11
178.67533011699419
 21
110.05044460897804
  0
LINE
  8
_1-3_断熱材
  6
CONTINUOUS
 62
    7
 10
187.6266501169942
 20
103.22044460897803
 11
180.79665011699421
 21
110.05044460897804
  0
LINE
  8
_1-3_断熱材
  6
CONTINUOUS
 62
    7
 10
177.16005011699417
 20
103.22044460897803
 11
183.99005011699421
 21
110.05044460897804
  0
LINE
  8
_1-3_断熱材
  6
CONTINUOUS
 62
    7
 10
189.74797011699422
 20
103.22044460897803
 11
182.91797011699418
 21
110.05044460897804
  0
LINE
  8
_1-3_断熱材
  6
CONTINUOUS
 62
    7
 10
179.2813701169942
 20
103.22044460897803
 11
186.11137011699424
 21
110.05044460897804
  0
LINE
  8
_1-3_断熱材
  6
CONTINUOUS
 62
    7
 10
191.86929011699419
 20
103.22044460897803
 11
185.03929011699421
 21
110.05044460897804
  0
LINE
  8
_1-3_断熱材
  6
CONTINUOUS
 62
    7
 10
181.40269011699422
 20
103.22044460897803
 11
188.23269011699421
 21
110.05044460897804
  0
LINE
  8
_1-3_断熱材
  6
CONTINUOUS
 62
    7
 10
193.99061011699422
 20
103.22044460897803
 11
187.16061011699418
 21
110.05044460897804
  0
LINE
  8
_1-3_断熱材
  6
CONTINUOUS
 62
    7
 10
183.52401011699419
 20
103.22044460897803
 11
190.35401011699423
 21
110.05044460897804
  0
LINE
  8
_1-3_断熱材
  6
CONTINUOUS
 62
    7
 10
196.11193011699424
 20
103.22044460897803
 11
189.2819301169942
 21
110.05044460897804
  0
LINE
  8
_1-3_断熱材
  6
CONTINUOUS
 62
    7
 10
185.64533011699422
 20
103.22044460897803
 11
192.4753301169942
 21
110.05044460897804
  0
LINE
  8
_1-3_断熱材
  6
CONTINUOUS
 62
    7
 10
198.23325011699421
 20
103.22044460897803
 11
191.40325011699417
 21
110.05044460897804
  0
LINE
  8
_1-3_断熱材
  6
CONTINUOUS
 62
    7
 10
200.35457011699418
 20
103.22044460897804
 11
193.5245701169942
 21
110.05044460897804
  0
LINE
  8
_1-3_断熱材
  6
CONTINUOUS
 62
    7
 10
187.76665011699419
 20
103.22044460897803
 11
194.59665011699423
 21
110.05044460897804
  0
LINE
  8
_1-3_断熱材
  6
CONTINUOUS
 62
    7
 10
189.88797011699421
 20
103.22044460897803
 11
196.71797011699419
 21
110.05044460897804
  0
LINE
  8
_1-3_断熱材
  6
CONTINUOUS
 62
    7
 10
202.47589011699421
 20
103.22044460897803
 11
195.64589011699422
 21
110.05044460897804
  0
LINE
  8
_1-3_断熱材
  6
CONTINUOUS
 62
    7
 10
192.00929011699418
 20
103.22044460897803
 11
198.83929011699422
 21
110.05044460897804
  0
LINE
  8
_1-3_断熱材
  6
CONTINUOUS
 62
    7
 10
204.59721011699423
 20
103.22044460897803
 11
197.76721011699419
 21
110.05044460897804
  0
LINE
  8
_1-3_断熱材
  6
CONTINUOUS
 62
    7
 10
194.13061011699421
 20
103.22044460897803
 11
200.96061011699419
 21
110.05044460897804
  0
LINE
  8
_1-3_断熱材
  6
CONTINUOUS
 62
    7
 10
206.7185301169942
 20
103.22044460897803
 11
199.88853011699422
 21
110.05044460897804
  0
LINE
  8
_1-3_断熱材
  6
CONTINUOUS
 62
    7
 10
210.0539301169942
 20
104.12768460897803
 11
204.13117011699421
 21
110.05044460897804
  0
LINE
  8
_1-3_断熱材
  6
CONTINUOUS
 62
    7
 10
198.3732501169942
 20
103.22044460897803
 11
205.20325011699424
 21
110.05044460897804
  0
LINE
  8
_1-3_断熱材
  6
CONTINUOUS
 62
    7
 10
208.83985011699423
 20
103.22044460897803
 11
202.00985011699419
 21
110.05044460897804
  0
LINE
  8
_1-3_断熱材
  6
CONTINUOUS
 62
    7
 10
196.25193011699423
 20
103.22044460897803
 11
203.08193011699422
 21
110.05044460897804
  0
LINE
  8
_1-3_断熱材
  6
CONTINUOUS
 62
    7
 10
210.0596901169942
 20
106.24324460897803
 11
206.25249011699418
 21
110.05044460897804
  0
LINE
  8
_1-3_断熱材
  6
CONTINUOUS
 62
    7
 10
200.49457011699417
 20
103.22044460897803
 11
207.32457011699421
 21
110.05044460897804
  0
LINE
  8
_1-3_断熱材
  6
CONTINUOUS
 62
    7
 10
210.0596901169942
 20
108.36456460897803
 11
208.37381011699421
 21
110.05044460897804
  0
LINE
  8
_1-3_断熱材
  6
CONTINUOUS
 62
    7
 10
215.05169011699422
 20
107.61520460897803
 11
212.6164501169942
 21
110.05044460897804
  0
LINE
  8
_1-3_断熱材
  6
CONTINUOUS
 62
    7
 10
211.04369011699424
 20
107.40560460897802
 11
213.68853011699423
 21
110.05044460897804
  0
LINE
  8
_1-3_断熱材
  6
CONTINUOUS
 62
    7
 10
215.05169011699422
 20
109.73652460897803
 11
214.73777011699423
 21
110.05044460897804
  0
LINE
  8
_1-3_断熱材
  6
CONTINUOUS
 62
    7
 10
220.0596901169942
 20
106.84984460897803
 11
216.8590901169942
 21
110.05044460897804
  0
LINE
  8
_1-3_断熱材
  6
CONTINUOUS
 62
    7
 10
216.05169011699422
 20
108.17096460897803
 11
217.93117011699422
 21
110.05044460897804
  0
LINE
  8
_1-3_断熱材
  6
CONTINUOUS
 62
    7
 10
220.0596901169942
 20
108.97116460897803
 11
218.98041011699422
 21
110.05044460897804
  0
LINE
  8
_1-3_断熱材
  6
CONTINUOUS
 62
    7
 10
221.04369011699424
 20
108.92032460897804
 11
222.17381011699422
 21
110.05044460897804
  0
LINE
  8
_1-3_断熱材
  6
CONTINUOUS
 62
    7
 10
230.0530501169942
 20
103.22044460897803
 11
223.22305011699422
 21
110.05044460897804
  0
LINE
  8
_1-3_断熱材
  6
CONTINUOUS
 62
    7
 10
221.04369011699424
 20
106.79900460897802
 11
224.29513011699424
 21
110.05044460897804
  0
LINE
  8
_1-3_断熱材
  6
CONTINUOUS
 62
    7
 10
232.17437011699423
 20
103.22044460897803
 11
225.34437011699418
 21
110.05044460897804
  0
LINE
  8
_1-3_断熱材
  6
CONTINUOUS
 62
    7
 10
221.04137011699419
 20
104.67536460897803
 11
226.41645011699421
 21
110.05044460897804
  0
LINE
  8
_1-3_断熱材
  6
CONTINUOUS
 62
    7
 10
236.41701011699422
 20
103.22044460897803
 11
229.58701011699424
 21
110.05044460897804
  0
LINE
  8
_1-3_断熱材
  6
CONTINUOUS
 62
    7
 10
234.29569011699419
 20
103.22044460897803
 11
227.46569011699421
 21
110.05044460897804
  0
LINE
  8
_1-3_断熱材
  6
CONTINUOUS
 62
    7
 10
221.7077701169942
 20
103.22044460897803
 11
228.53777011699424
 21
110.05044460897804
  0
LINE
  8
_1-3_断熱材
  6
CONTINUOUS
 62
    7
 10
238.28341011699422
 20
103.47536460897803
 11
231.7083301169942
 21
110.05044460897804
  0
LINE
  8
_1-3_断熱材
  6
CONTINUOUS
 62
    7
 10
223.82909011699422
 20
103.22044460897803
 11
230.65909011699421
 21
110.05044460897804
  0
LINE
  8
_1-8_下地など
  6
CONTINUOUS
 62
    7
 10
102.62417011699419
 20
83.610444608978028
 11
93.944170116994201
 21
83.610444608978028
  0
LINE
  8
_1-8_下地など
  6
CONTINUOUS
 62
    7
 10
102.82417011699421
 20
83.810444608978031
 11
102.82417011699421
 21
87.150444608978034
  0
LINE
  8
_1-8_下地など
  6
CONTINUOUS
 62
    7
 10
103.2841701169942
 20
87.150444608978034
 11
102.82417011699421
 21
87.150444608978034
  0
LINE
  8
_1-8_下地など
  6
CONTINUOUS
 62
    7
 10
93.744170116994198
 20
83.810444608978031
 11
93.744170116994198
 21
102.49044460897802
  0
LINE
  8
_1-8_下地など
  6
CONTINUOUS
 62
    7
 10
103.2841701169942
 20
83.550444608978026
 11
103.2841701169942
 21
87.150444608978034
  0
LINE
  8
_1-8_下地など
  6
CONTINUOUS
 62
    7
 10
102.88417011699421
 20
83.150444608978034
 11
93.684170116994196
 21
83.150444608978034
  0
LINE
  8
_1-8_下地など
  6
CONTINUOUS
 62
    7
 10
102.82417011699421
 20
102.49044460897802
 11
102.82417011699421
 21
99.150444608978034
  0
LINE
  8
_1-8_下地など
  6
CONTINUOUS
 62
    7
 10
93.284170116994204
 20
83.550444608978026
 11
93.284170116994204
 21
102.75044460897803
  0
LINE
  8
_1-8_下地など
  6
CONTINUOUS
 62
    7
 10
103.2841701169942
 20
99.150444608978034
 11
102.82417011699421
 21
99.150444608978034
  0
LINE
  8
_1-8_下地など
  6
CONTINUOUS
 62
    7
 10
103.2841701169942
 20
102.75044460897803
 11
103.2841701169942
 21
99.150444608978034
  0
LINE
  8
_1-8_下地など
  6
CONTINUOUS
 62
    7
 10
224.8916901169942
 20
83.610444608978028
 11
216.21169011699419
 21
83.610444608978028
  0
LINE
  8
_1-8_下地など
  6
CONTINUOUS
 62
    7
 10
225.09169011699424
 20
83.810444608978031
 11
225.09169011699424
 21
87.150444608978034
  0
LINE
  8
_1-8_下地など
  6
CONTINUOUS
 62
    7
 10
225.55169011699422
 20
87.150444608978034
 11
225.09169011699424
 21
87.150444608978034
  0
LINE
  8
_1-8_下地など
  6
CONTINUOUS
 62
    7
 10
216.0116901169942
 20
83.810444608978031
 11
216.0116901169942
 21
102.49044460897802
  0
LINE
  8
_1-8_下地など
  6
CONTINUOUS
 62
    7
 10
225.55169011699422
 20
83.550444608978026
 11
225.55169011699422
 21
87.150444608978034
  0
LINE
  8
_1-8_下地など
  6
CONTINUOUS
 62
    7
 10
225.15169011699419
 20
83.150444608978034
 11
215.9516901169942
 21
83.150444608978034
  0
LINE
  8
_1-8_下地など
  6
CONTINUOUS
 62
    7
 10
225.09169011699424
 20
102.49044460897802
 11
225.09169011699424
 21
99.150444608978034
  0
LINE
  8
_1-8_下地など
  6
CONTINUOUS
 62
    7
 10
215.55169011699422
 20
83.550444608978026
 11
215.55169011699422
 21
102.75044460897803
  0
LINE
  8
_1-8_下地など
  6
CONTINUOUS
 62
    7
 10
225.55169011699422
 20
99.150444608978034
 11
225.09169011699424
 21
99.150444608978034
  0
LINE
  8
_1-8_下地など
  6
CONTINUOUS
 62
    7
 10
225.55169011699422
 20
102.75044460897803
 11
225.55169011699422
 21
99.150444608978034
  0
LINE
  8
_1-8_下地など
  6
CONTINUOUS
 62
    7
 10
206.0116901169942
 20
83.810444608978031
 11
206.0116901169942
 21
87.150444608978034
  0
LINE
  8
_1-8_下地など
  6
CONTINUOUS
 62
    7
 10
206.21169011699419
 20
83.610444608978028
 11
214.8916901169942
 21
83.610444608978028
  0
LINE
  8
_1-8_下地など
  6
CONTINUOUS
 62
    7
 10
205.55169011699422
 20
87.150444608978034
 11
206.0116901169942
 21
87.150444608978034
  0
LINE
  8
_1-8_下地など
  6
CONTINUOUS
 62
    7
 10
205.55169011699422
 20
83.550444608978026
 11
205.55169011699422
 21
87.150444608978034
  0
LINE
  8
_1-8_下地など
  6
CONTINUOUS
 62
    7
 10
215.09169011699424
 20
83.810444608978031
 11
215.09169011699424
 21
102.49044460897802
  0
LINE
  8
_1-8_下地など
  6
CONTINUOUS
 62
    7
 10
205.9516901169942
 20
83.150444608978034
 11
215.15169011699419
 21
83.150444608978034
  0
LINE
  8
_1-8_下地など
  6
CONTINUOUS
 62
    7
 10
215.55169011699422
 20
83.550444608978026
 11
215.55169011699422
 21
102.75044460897803
  0
LINE
  8
_1-8_下地など
  6
CONTINUOUS
 62
    7
 10
206.0116901169942
 20
102.49044460897802
 11
206.0116901169942
 21
99.150444608978034
  0
LINE
  8
_1-8_下地など
  6
CONTINUOUS
 62
    7
 10
205.55169011699422
 20
99.150444608978034
 11
206.0116901169942
 21
99.150444608978034
  0
LINE
  8
_1-8_下地など
  6
CONTINUOUS
 62
    7
 10
205.55169011699422
 20
102.75044460897803
 11
205.55169011699422
 21
99.150444608978034
  0
LINE
  8
_1-8_下地など
  6
CONTINUOUS
 62
    7
 10
102.62417011699317
 20
83.610444608978042
 11
102.62417011699317
 21
83.610444608978042
  0
LINE
  8
_1-8_下地など
  6
CONTINUOUS
 62
    7
 10
102.62417011699317
 20
83.610444608978042
 11
102.65889975252657
 21
83.613483058375436
  0
LINE
  8
_1-8_下地など
  6
CONTINUOUS
 62
    7
 10
102.65889975252657
 20
83.613483058375436
 11
102.69257414565837
 21
83.622506084820529
  0
LINE
  8
_1-8_下地など
  6
CONTINUOUS
 62
    7
 10
102.69257414565837
 20
83.622506084820529
 11
102.72417011699331
 21
83.637239528220661
  0
LINE
  8
_1-8_下地など
  6
CONTINUOUS
 62
    7
 10
102.72417011699331
 20
83.637239528220661
 11
102.75272763893071
 21
83.657235720353611
  0
LINE
  8
_1-8_下地など
  6
CONTINUOUS
 62
    7
 10
102.75272763893071
 20
83.657235720353611
 11
102.77737900561732
 21
83.681887087039982
  0
LINE
  8
_1-8_下地など
  6
CONTINUOUS
 62
    7
 10
102.77737900561732
 20
83.681887087039982
 11
102.79737519775055
 21
83.710444608977184
  0
LINE
  8
_1-8_下地など
  6
CONTINUOUS
 62
    7
 10
102.79737519775055
 20
83.710444608977184
 11
102.81210864115101
 21
83.742040580311979
  0
LINE
  8
_1-8_下地など
  6
CONTINUOUS
 62
    7
 10
102.81210864115101
 20
83.742040580311979
 11
102.82113166759645
 21
83.775714973443669
  0
LINE
  8
_1-8_下地など
  6
CONTINUOUS
 62
    7
 10
102.82113166759645
 20
83.775714973443669
 11
102.82417011699418
 21
83.810444608975985
  0
LINE
  8
_1-8_下地など
  6
CONTINUOUS
 62
    7
 10
93.744170116994212
 20
83.810444608978031
 11
93.744170116994212
 21
83.810444608978031
  0
LINE
  8
_1-8_下地など
  6
CONTINUOUS
 62
    7
 10
93.744170116994212
 20
83.810444608978031
 11
93.747208566391777
 21
83.77571497344465
  0
LINE
  8
_1-8_下地など
  6
CONTINUOUS
 62
    7
 10
93.747208566391777
 20
83.77571497344465
 11
93.75623159283704
 21
83.742040580312903
  0
LINE
  8
_1-8_下地など
  6
CONTINUOUS
 62
    7
 10
93.75623159283704
 20
83.742040580312903
 11
93.770965036237342
 21
83.710444608978037
  0
LINE
  8
_1-8_下地など
  6
CONTINUOUS
 62
    7
 10
93.770965036237342
 20
83.710444608978037
 11
93.790961228370435
 21
83.681887087040735
  0
LINE
  8
_1-8_下地など
  6
CONTINUOUS
 62
    7
 10
93.790961228370435
 20
83.681887087040735
 11
93.815612595056933
 21
83.657235720354251
  0
LINE
  8
_1-8_下地など
  6
CONTINUOUS
 62
    7
 10
93.815612595056933
 20
83.657235720354251
 11
93.844170116994235
 21
83.637239528221158
  0
LINE
  8
_1-8_下地など
  6
CONTINUOUS
 62
    7
 10
93.844170116994235
 20
83.637239528221158
 11
93.875766088329101
 21
83.62250608482087
  0
LINE
  8
_1-8_下地など
  6
CONTINUOUS
 62
    7
 10
93.875766088329101
 20
83.62250608482087
 11
93.909440481460848
 21
83.613483058375607
  0
LINE
  8
_1-8_下地など
  6
CONTINUOUS
 62
    7
 10
93.909440481460848
 20
83.613483058375607
 11
93.944170116993178
 21
83.610444608978042
  0
LINE
  8
_1-8_下地など
  6
CONTINUOUS
 62
    7
 10
93.944170116993178
 20
102.69044460897801
 11
93.944170116993178
 21
102.69044460897801
  0
LINE
  8
_1-8_下地など
  6
CONTINUOUS
 62
    7
 10
93.944170116993178
 20
102.69044460897801
 11
93.909440481459811
 21
102.68740615958026
  0
LINE
  8
_1-8_下地など
  6
CONTINUOUS
 62
    7
 10
93.909440481459811
 20
102.68740615958026
 11
93.875766088328106
 21
102.67838313313483
  0
LINE
  8
_1-8_下地など
  6
CONTINUOUS
 62
    7
 10
93.875766088328106
 20
102.67838313313483
 11
93.844170116993325
 21
102.66364968973437
  0
LINE
  8
_1-8_下地など
  6
CONTINUOUS
 62
    7
 10
93.844170116993325
 20
102.66364968973437
 11
93.815612595056123
 21
102.64365349760112
  0
LINE
  8
_1-8_下地など
  6
CONTINUOUS
 62
    7
 10
93.815612595056123
 20
102.64365349760112
 11
93.790961228369767
 21
102.61900213091451
  0
LINE
  8
_1-8_下地など
  6
CONTINUOUS
 62
    7
 10
93.790961228369767
 20
102.61900213091451
 11
93.770965036236817
 21
102.59044460897711
  0
LINE
  8
_1-8_下地など
  6
CONTINUOUS
 62
    7
 10
93.770965036236817
 20
102.59044460897711
 11
93.756231592836684
 21
102.55884863764216
  0
LINE
  8
_1-8_下地など
  6
CONTINUOUS
 62
    7
 10
93.756231592836684
 20
102.55884863764216
 11
93.747208566391592
 21
102.52517424451037
  0
LINE
  8
_1-8_下地など
  6
CONTINUOUS
 62
    7
 10
93.747208566391592
 20
102.52517424451037
 11
93.744170116994212
 21
102.49044460897802
  0
LINE
  8
_1-8_下地など
  6
CONTINUOUS
 62
    7
 10
102.88417011699217
 20
83.150444608978034
 11
102.88417011699217
 21
83.150444608978034
  0
LINE
  8
_1-8_下地など
  6
CONTINUOUS
 62
    7
 10
102.88417011699217
 20
83.150444608978034
 11
102.95362938805897
 21
83.156521507772794
  0
LINE
  8
_1-8_下地など
  6
CONTINUOUS
 62
    7
 10
102.95362938805897
 20
83.156521507772794
 11
103.02097817432256
 21
83.174567560662965
  0
LINE
  8
_1-8_下地など
  6
CONTINUOUS
 62
    7
 10
103.02097817432256
 20
83.174567560662965
 11
103.08417011699244
 21
83.204034447463243
  0
LINE
  8
_1-8_下地など
  6
CONTINUOUS
 62
    7
 10
103.08417011699244
 20
83.204034447463243
 11
103.14128516086727
 21
83.24402683172913
  0
LINE
  8
_1-8_下地など
  6
CONTINUOUS
 62
    7
 10
103.14128516086727
 20
83.24402683172913
 11
103.19058789424049
 21
83.293329565101857
  0
LINE
  8
_1-8_下地など
  6
CONTINUOUS
 62
    7
 10
103.19058789424049
 20
83.293329565101857
 11
103.23058027850696
 21
83.350444608976261
  0
LINE
  8
_1-8_下地など
  6
CONTINUOUS
 62
    7
 10
103.23058027850696
 20
83.350444608976261
 11
103.26004716530788
 21
83.413636551645851
  0
LINE
  8
_1-8_下地など
  6
CONTINUOUS
 62
    7
 10
103.26004716530788
 20
83.413636551645851
 11
103.27809321819873
 21
83.480985337909246
  0
LINE
  8
_1-8_下地など
  6
CONTINUOUS
 62
    7
 10
103.27809321819873
 20
83.480985337909246
 11
103.2841701169942
 21
83.550444608973947
  0
LINE
  8
_1-8_下地など
  6
CONTINUOUS
 62
    7
 10
102.82417011699418
 20
102.49044460898007
 11
102.82417011699418
 21
102.49044460898007
  0
LINE
  8
_1-8_下地など
  6
CONTINUOUS
 62
    7
 10
102.82417011699418
 20
102.49044460898007
 11
102.82113166759626
 21
102.52517424451342
  0
LINE
  8
_1-8_下地など
  6
CONTINUOUS
 62
    7
 10
102.82113166759626
 20
102.52517424451342
 11
102.81210864115064
 21
102.55884863764507
  0
LINE
  8
_1-8_下地など
  6
CONTINUOUS
 62
    7
 10
102.81210864115064
 20
102.55884863764507
 11
102.79737519775003
 21
102.59044460897978
  0
LINE
  8
_1-8_下地など
  6
CONTINUOUS
 62
    7
 10
102.79737519775003
 20
102.59044460897978
 11
102.77737900561664
 21
102.61900213091688
  0
LINE
  8
_1-8_下地など
  6
CONTINUOUS
 62
    7
 10
102.77737900561664
 20
102.61900213091688
 11
102.7527276389299
 21
102.64365349760313
  0
LINE
  8
_1-8_下地など
  6
CONTINUOUS
 62
    7
 10
102.7527276389299
 20
102.64365349760313
 11
102.72417011699238
 21
102.66364968973592
  0
LINE
  8
_1-8_下地など
  6
CONTINUOUS
 62
    7
 10
102.72417011699238
 20
102.66364968973592
 11
102.69257414565737
 21
102.67838313313588
  0
LINE
  8
_1-8_下地など
  6
CONTINUOUS
 62
    7
 10
102.69257414565737
 20
102.67838313313588
 11
102.65889975252553
 21
102.6874061595808
  0
LINE
  8
_1-8_下地など
  6
CONTINUOUS
 62
    7
 10
102.65889975252553
 20
102.6874061595808
 11
102.62417011699317
 21
102.69044460897801
  0
LINE
  8
_1-8_下地など
  6
CONTINUOUS
 62
    7
 10
93.284170116994204
 20
83.550444608978026
 11
93.284170116994204
 21
83.550444608978026
  0
LINE
  8
_1-8_下地など
  6
CONTINUOUS
 62
    7
 10
93.284170116994204
 20
83.550444608978026
 11
93.290247015789319
 21
83.48098533791125
  0
LINE
  8
_1-8_下地など
  6
CONTINUOUS
 62
    7
 10
93.290247015789319
 20
83.48098533791125
 11
93.308293068679845
 21
83.413636551647755
  0
LINE
  8
_1-8_下地など
  6
CONTINUOUS
 62
    7
 10
93.308293068679845
 20
83.413636551647755
 11
93.337759955480422
 21
83.350444608978023
  0
LINE
  8
_1-8_下地など
  6
CONTINUOUS
 62
    7
 10
93.337759955480422
 20
83.350444608978023
 11
93.377752339746607
 21
83.293329565103406
  0
LINE
  8
_1-8_下地など
  6
CONTINUOUS
 62
    7
 10
93.377752339746607
 20
83.293329565103406
 11
93.42705507311959
 21
83.244026831730437
  0
LINE
  8
_1-8_下地など
  6
CONTINUOUS
 62
    7
 10
93.42705507311959
 20
83.244026831730437
 11
93.484170116994207
 21
83.204034447464252
  0
LINE
  8
_1-8_下地など
  6
CONTINUOUS
 62
    7
 10
93.484170116994207
 20
83.204034447464252
 11
93.547362059663939
 21
83.174567560663661
  0
LINE
  8
_1-8_下地など
  6
CONTINUOUS
 62
    7
 10
93.547362059663939
 20
83.174567560663661
 11
93.614710845927434
 21
83.156521507773149
  0
LINE
  8
_1-8_下地など
  6
CONTINUOUS
 62
    7
 10
93.614710845927434
 20
83.156521507773149
 11
93.684170116992149
 21
83.150444608978034
  0
LINE
  8
_1-8_下地など
  6
CONTINUOUS
 62
    7
 10
93.684170116992149
 20
103.15044460897803
 11
93.684170116992149
 21
103.15044460897803
  0
LINE
  8
_1-8_下地など
  6
CONTINUOUS
 62
    7
 10
93.684170116992149
 20
103.15044460897803
 11
93.614710845925416
 21
103.14436771018255
  0
LINE
  8
_1-8_下地など
  6
CONTINUOUS
 62
    7
 10
93.614710845925416
 20
103.14436771018255
 11
93.547362059662007
 21
103.1263216572917
  0
LINE
  8
_1-8_下地など
  6
CONTINUOUS
 62
    7
 10
93.547362059662007
 20
103.1263216572917
 11
93.484170116992431
 21
103.09685477049078
  0
LINE
  8
_1-8_下地など
  6
CONTINUOUS
 62
    7
 10
93.484170116992431
 20
103.09685477049078
 11
93.427055073118012
 21
103.05686238622431
  0
LINE
  8
_1-8_下地など
  6
CONTINUOUS
 62
    7
 10
93.427055073118012
 20
103.05686238622431
 11
93.3777523397453
 21
103.00755965285107
  0
LINE
  8
_1-8_下地など
  6
CONTINUOUS
 62
    7
 10
93.3777523397453
 20
103.00755965285107
 11
93.337759955479399
 21
102.95044460897626
  0
LINE
  8
_1-8_下地など
  6
CONTINUOUS
 62
    7
 10
93.337759955479399
 20
102.95044460897626
 11
93.308293068679134
 21
102.88725266630638
  0
LINE
  8
_1-8_下地など
  6
CONTINUOUS
 62
    7
 10
93.308293068679134
 20
102.88725266630638
 11
93.290247015788964
 21
102.81990388004279
  0
LINE
  8
_1-8_下地など
  6
CONTINUOUS
 62
    7
 10
93.290247015788964
 20
102.81990388004279
 11
93.284170116994204
 21
102.75044460897803
  0
LINE
  8
_1-8_下地など
  6
CONTINUOUS
 62
    7
 10
103.2841701169942
 20
102.75044460898211
 11
103.2841701169942
 21
102.75044460898211
  0
LINE
  8
_1-8_下地など
  6
CONTINUOUS
 62
    7
 10
103.2841701169942
 20
102.75044460898211
 11
103.27809321819838
 21
102.81990388004883
  0
LINE
  8
_1-8_下地など
  6
CONTINUOUS
 62
    7
 10
103.27809321819838
 20
102.81990388004883
 11
103.26004716530717
 21
102.88725266631214
  0
LINE
  8
_1-8_下地など
  6
CONTINUOUS
 62
    7
 10
103.26004716530717
 20
102.88725266631214
 11
103.23058027850594
 21
102.95044460898157
  0
LINE
  8
_1-8_下地など
  6
CONTINUOUS
 62
    7
 10
103.23058027850594
 20
102.95044460898157
 11
103.19058789423917
 21
103.00755965285578
  0
LINE
  8
_1-8_下地など
  6
CONTINUOUS
 62
    7
 10
103.19058789423917
 20
103.00755965285578
 11
103.14128516086569
 21
103.05686238622825
  0
LINE
  8
_1-8_下地など
  6
CONTINUOUS
 62
    7
 10
103.14128516086569
 20
103.05686238622825
 11
103.08417011699068
 21
103.09685477049385
  0
LINE
  8
_1-8_下地など
  6
CONTINUOUS
 62
    7
 10
103.08417011699068
 20
103.09685477049385
 11
103.02097817432065
 21
103.12632165729379
  0
LINE
  8
_1-8_下地など
  6
CONTINUOUS
 62
    7
 10
103.02097817432065
 20
103.12632165729379
 11
102.95362938805697
 21
103.14436771018362
  0
LINE
  8
_1-8_下地など
  6
CONTINUOUS
 62
    7
 10
102.95362938805697
 20
103.14436771018362
 11
102.88417011699217
 21
103.15044460897803
  0
LINE
  8
_1-8_下地など
  6
CONTINUOUS
 62
    7
 10
224.89169011699317
 20
83.610444608978042
 11
224.89169011699317
 21
83.610444608978042
  0
LINE
  8
_1-8_下地など
  6
CONTINUOUS
 62
    7
 10
224.89169011699317
 20
83.610444608978042
 11
224.92641975252658
 21
83.613483058375436
  0
LINE
  8
_1-8_下地など
  6
CONTINUOUS
 62
    7
 10
224.92641975252658
 20
83.613483058375436
 11
224.96009414565836
 21
83.622506084820529
  0
LINE
  8
_1-8_下地など
  6
CONTINUOUS
 62
    7
 10
224.96009414565836
 20
83.622506084820529
 11
224.99169011699331
 21
83.637239528220661
  0
LINE
  8
_1-8_下地など
  6
CONTINUOUS
 62
    7
 10
224.99169011699331
 20
83.637239528220661
 11
225.02024763893073
 21
83.657235720353611
  0
LINE
  8
_1-8_下地など
  6
CONTINUOUS
 62
    7
 10
225.02024763893073
 20
83.657235720353611
 11
225.04489900561734
 21
83.681887087039982
  0
LINE
  8
_1-8_下地など
  6
CONTINUOUS
 62
    7
 10
225.04489900561734
 20
83.681887087039982
 11
225.06489519775056
 21
83.710444608977184
  0
LINE
  8
_1-8_下地など
  6
CONTINUOUS
 62
    7
 10
225.06489519775056
 20
83.710444608977184
 11
225.079628641151
 21
83.742040580311979
  0
LINE
  8
_1-8_下地など
  6
CONTINUOUS
 62
    7
 10
225.079628641151
 20
83.742040580311979
 11
225.08865166759645
 21
83.775714973443669
  0
LINE
  8
_1-8_下地など
  6
CONTINUOUS
 62
    7
 10
225.08865166759645
 20
83.775714973443669
 11
225.09169011699419
 21
83.810444608975985
  0
LINE
  8
_1-8_下地など
  6
CONTINUOUS
 62
    7
 10
216.0116901169942
 20
83.810444608978031
 11
216.0116901169942
 21
83.810444608978031
  0
LINE
  8
_1-8_下地など
  6
CONTINUOUS
 62
    7
 10
216.0116901169942
 20
83.810444608978031
 11
216.01472856639177
 21
83.77571497344465
  0
LINE
  8
_1-8_下地など
  6
CONTINUOUS
 62
    7
 10
216.01472856639177
 20
83.77571497344465
 11
216.02375159283704
 21
83.742040580312903
  0
LINE
  8
_1-8_下地など
  6
CONTINUOUS
 62
    7
 10
216.02375159283704
 20
83.742040580312903
 11
216.03848503623735
 21
83.710444608978037
  0
LINE
  8
_1-8_下地など
  6
CONTINUOUS
 62
    7
 10
216.03848503623735
 20
83.710444608978037
 11
216.05848122837043
 21
83.681887087040735
  0
LINE
  8
_1-8_下地など
  6
CONTINUOUS
 62
    7
 10
216.05848122837043
 20
83.681887087040735
 11
216.08313259505692
 21
83.657235720354251
  0
LINE
  8
_1-8_下地など
  6
CONTINUOUS
 62
    7
 10
216.08313259505692
 20
83.657235720354251
 11
216.11169011699423
 21
83.637239528221158
  0
LINE
  8
_1-8_下地など
  6
CONTINUOUS
 62
    7
 10
216.11169011699423
 20
83.637239528221158
 11
216.14328608832909
 21
83.62250608482087
  0
LINE
  8
_1-8_下地など
  6
CONTINUOUS
 62
    7
 10
216.14328608832909
 20
83.62250608482087
 11
216.17696048146084
 21
83.613483058375607
  0
LINE
  8
_1-8_下地など
  6
CONTINUOUS
 62
    7
 10
216.17696048146084
 20
83.613483058375607
 11
216.21169011699317
 21
83.610444608978042
  0
LINE
  8
_1-8_下地など
  6
CONTINUOUS
 62
    7
 10
216.21169011699317
 20
102.69044460897801
 11
216.21169011699317
 21
102.69044460897801
  0
LINE
  8
_1-8_下地など
  6
CONTINUOUS
 62
    7
 10
216.21169011699317
 20
102.69044460897801
 11
216.17696048145982
 21
102.68740615958026
  0
LINE
  8
_1-8_下地など
  6
CONTINUOUS
 62
    7
 10
216.17696048145982
 20
102.68740615958026
 11
216.1432860883281
 21
102.67838313313483
  0
LINE
  8
_1-8_下地など
  6
CONTINUOUS
 62
    7
 10
216.1432860883281
 20
102.67838313313483
 11
216.11169011699332
 21
102.66364968973437
  0
LINE
  8
_1-8_下地など
  6
CONTINUOUS
 62
    7
 10
216.11169011699332
 20
102.66364968973437
 11
216.0831325950561
 21
102.64365349760112
  0
LINE
  8
_1-8_下地など
  6
CONTINUOUS
 62
    7
 10
216.0831325950561
 20
102.64365349760112
 11
216.05848122836974
 21
102.61900213091451
  0
LINE
  8
_1-8_下地など
  6
CONTINUOUS
 62
    7
 10
216.05848122836974
 20
102.61900213091451
 11
216.03848503623681
 21
102.59044460897711
  0
LINE
  8
_1-8_下地など
  6
CONTINUOUS
 62
    7
 10
216.03848503623681
 20
102.59044460897711
 11
216.02375159283667
 21
102.55884863764216
  0
LINE
  8
_1-8_下地など
  6
CONTINUOUS
 62
    7
 10
216.02375159283667
 20
102.55884863764216
 11
216.0147285663916
 21
102.52517424451037
  0
LINE
  8
_1-8_下地など
  6
CONTINUOUS
 62
    7
 10
216.0147285663916
 20
102.52517424451037
 11
216.0116901169942
 21
102.49044460897802
  0
LINE
  8
_1-8_下地など
  6
CONTINUOUS
 62
    7
 10
225.15169011699214
 20
83.150444608978034
 11
225.15169011699214
 21
83.150444608978034
  0
LINE
  8
_1-8_下地など
  6
CONTINUOUS
 62
    7
 10
225.15169011699214
 20
83.150444608978034
 11
225.22114938805896
 21
83.156521507772794
  0
LINE
  8
_1-8_下地など
  6
CONTINUOUS
 62
    7
 10
225.22114938805896
 20
83.156521507772794
 11
225.28849817432254
 21
83.174567560662965
  0
LINE
  8
_1-8_下地など
  6
CONTINUOUS
 62
    7
 10
225.28849817432254
 20
83.174567560662965
 11
225.35169011699242
 21
83.204034447463243
  0
LINE
  8
_1-8_下地など
  6
CONTINUOUS
 62
    7
 10
225.35169011699242
 20
83.204034447463243
 11
225.40880516086725
 21
83.24402683172913
  0
LINE
  8
_1-8_下地など
  6
CONTINUOUS
 62
    7
 10
225.40880516086725
 20
83.24402683172913
 11
225.45810789424047
 21
83.293329565101857
  0
LINE
  8
_1-8_下地など
  6
CONTINUOUS
 62
    7
 10
225.45810789424047
 20
83.293329565101857
 11
225.49810027850694
 21
83.350444608976261
  0
LINE
  8
_1-8_下地など
  6
CONTINUOUS
 62
    7
 10
225.49810027850694
 20
83.350444608976261
 11
225.52756716530786
 21
83.413636551645851
  0
LINE
  8
_1-8_下地など
  6
CONTINUOUS
 62
    7
 10
225.52756716530786
 20
83.413636551645851
 11
225.54561321819872
 21
83.480985337909246
  0
LINE
  8
_1-8_下地など
  6
CONTINUOUS
 62
    7
 10
225.54561321819872
 20
83.480985337909246
 11
225.55169011699419
 21
83.550444608973947
  0
LINE
  8
_1-8_下地など
  6
CONTINUOUS
 62
    7
 10
225.09169011699419
 20
102.49044460898007
 11
225.09169011699419
 21
102.49044460898007
  0
LINE
  8
_1-8_下地など
  6
CONTINUOUS
 62
    7
 10
225.09169011699419
 20
102.49044460898007
 11
225.08865166759625
 21
102.52517424451342
  0
LINE
  8
_1-8_下地など
  6
CONTINUOUS
 62
    7
 10
225.08865166759625
 20
102.52517424451342
 11
225.07962864115066
 21
102.55884863764507
  0
LINE
  8
_1-8_下地など
  6
CONTINUOUS
 62
    7
 10
225.07962864115066
 20
102.55884863764507
 11
225.06489519775005
 21
102.59044460897978
  0
LINE
  8
_1-8_下地など
  6
CONTINUOUS
 62
    7
 10
225.06489519775005
 20
102.59044460897978
 11
225.04489900561666
 21
102.61900213091688
  0
LINE
  8
_1-8_下地など
  6
CONTINUOUS
 62
    7
 10
225.04489900561666
 20
102.61900213091688
 11
225.0202476389299
 21
102.64365349760313
  0
LINE
  8
_1-8_下地など
  6
CONTINUOUS
 62
    7
 10
225.0202476389299
 20
102.64365349760313
 11
224.9916901169924
 21
102.66364968973592
  0
LINE
  8
_1-8_下地など
  6
CONTINUOUS
 62
    7
 10
224.9916901169924
 20
102.66364968973592
 11
224.96009414565737
 21
102.67838313313588
  0
LINE
  8
_1-8_下地など
  6
CONTINUOUS
 62
    7
 10
224.96009414565737
 20
102.67838313313588
 11
224.92641975252553
 21
102.6874061595808
  0
LINE
  8
_1-8_下地など
  6
CONTINUOUS
 62
    7
 10
224.92641975252553
 20
102.6874061595808
 11
224.89169011699317
 21
102.69044460897801
  0
LINE
  8
_1-8_下地など
  6
CONTINUOUS
 62
    7
 10
215.55169011699419
 20
83.550444608978026
 11
215.55169011699419
 21
83.550444608978026
  0
LINE
  8
_1-8_下地など
  6
CONTINUOUS
 62
    7
 10
215.55169011699419
 20
83.550444608978026
 11
215.55776701578932
 21
83.48098533791125
  0
LINE
  8
_1-8_下地など
  6
CONTINUOUS
 62
    7
 10
215.55776701578932
 20
83.48098533791125
 11
215.57581306867985
 21
83.413636551647755
  0
LINE
  8
_1-8_下地など
  6
CONTINUOUS
 62
    7
 10
215.57581306867985
 20
83.413636551647755
 11
215.60527995548043
 21
83.350444608978023
  0
LINE
  8
_1-8_下地など
  6
CONTINUOUS
 62
    7
 10
215.60527995548043
 20
83.350444608978023
 11
215.64527233974661
 21
83.293329565103406
  0
LINE
  8
_1-8_下地など
  6
CONTINUOUS
 62
    7
 10
215.64527233974661
 20
83.293329565103406
 11
215.69457507311958
 21
83.244026831730437
  0
LINE
  8
_1-8_下地など
  6
CONTINUOUS
 62
    7
 10
215.69457507311958
 20
83.244026831730437
 11
215.75169011699421
 21
83.204034447464252
  0
LINE
  8
_1-8_下地など
  6
CONTINUOUS
 62
    7
 10
215.75169011699421
 20
83.204034447464252
 11
215.81488205966394
 21
83.174567560663661
  0
LINE
  8
_1-8_下地など
  6
CONTINUOUS
 62
    7
 10
215.81488205966394
 20
83.174567560663661
 11
215.88223084592744
 21
83.156521507773149
  0
LINE
  8
_1-8_下地など
  6
CONTINUOUS
 62
    7
 10
215.88223084592744
 20
83.156521507773149
 11
215.95169011699215
 21
83.150444608978034
  0
LINE
  8
_1-8_下地など
  6
CONTINUOUS
 62
    7
 10
215.95169011699215
 20
103.15044460897803
 11
215.95169011699215
 21
103.15044460897803
  0
LINE
  8
_1-8_下地など
  6
CONTINUOUS
 62
    7
 10
215.95169011699215
 20
103.15044460897803
 11
215.88223084592542
 21
103.14436771018255
  0
LINE
  8
_1-8_下地など
  6
CONTINUOUS
 62
    7
 10
215.88223084592542
 20
103.14436771018255
 11
215.81488205966201
 21
103.1263216572917
  0
LINE
  8
_1-8_下地など
  6
CONTINUOUS
 62
    7
 10
215.81488205966201
 20
103.1263216572917
 11
215.75169011699242
 21
103.09685477049078
  0
LINE
  8
_1-8_下地など
  6
CONTINUOUS
 62
    7
 10
215.75169011699242
 20
103.09685477049078
 11
215.69457507311802
 21
103.05686238622431
  0
LINE
  8
_1-8_下地など
  6
CONTINUOUS
 62
    7
 10
215.69457507311802
 20
103.05686238622431
 11
215.6452723397453
 21
103.00755965285107
  0
LINE
  8
_1-8_下地など
  6
CONTINUOUS
 62
    7
 10
215.6452723397453
 20
103.00755965285107
 11
215.6052799554794
 21
102.95044460897626
  0
LINE
  8
_1-8_下地など
  6
CONTINUOUS
 62
    7
 10
215.6052799554794
 20
102.95044460897626
 11
215.57581306867914
 21
102.88725266630638
  0
LINE
  8
_1-8_下地など
  6
CONTINUOUS
 62
    7
 10
215.57581306867914
 20
102.88725266630638
 11
215.55776701578895
 21
102.81990388004279
  0
LINE
  8
_1-8_下地など
  6
CONTINUOUS
 62
    7
 10
215.55776701578895
 20
102.81990388004279
 11
215.55169011699419
 21
102.75044460897803
  0
LINE
  8
_1-8_下地など
  6
CONTINUOUS
 62
    7
 10
225.55169011699419
 20
102.75044460898211
 11
225.55169011699419
 21
102.75044460898211
  0
LINE
  8
_1-8_下地など
  6
CONTINUOUS
 62
    7
 10
225.55169011699419
 20
102.75044460898211
 11
225.54561321819835
 21
102.81990388004883
  0
LINE
  8
_1-8_下地など
  6
CONTINUOUS
 62
    7
 10
225.54561321819835
 20
102.81990388004883
 11
225.52756716530715
 21
102.88725266631214
  0
LINE
  8
_1-8_下地など
  6
CONTINUOUS
 62
    7
 10
225.52756716530715
 20
102.88725266631214
 11
225.49810027850592
 21
102.95044460898157
  0
LINE
  8
_1-8_下地など
  6
CONTINUOUS
 62
    7
 10
225.49810027850592
 20
102.95044460898157
 11
225.45810789423916
 21
103.00755965285578
  0
LINE
  8
_1-8_下地など
  6
CONTINUOUS
 62
    7
 10
225.45810789423916
 20
103.00755965285578
 11
225.40880516086568
 21
103.05686238622825
  0
LINE
  8
_1-8_下地など
  6
CONTINUOUS
 62
    7
 10
225.40880516086568
 20
103.05686238622825
 11
225.35169011699065
 21
103.09685477049385
  0
LINE
  8
_1-8_下地など
  6
CONTINUOUS
 62
    7
 10
225.35169011699065
 20
103.09685477049385
 11
225.28849817432061
 21
103.12632165729379
  0
LINE
  8
_1-8_下地など
  6
CONTINUOUS
 62
    7
 10
225.28849817432061
 20
103.12632165729379
 11
225.22114938805694
 21
103.14436771018362
  0
LINE
  8
_1-8_下地など
  6
CONTINUOUS
 62
    7
 10
225.22114938805694
 20
103.14436771018362
 11
225.15169011699214
 21
103.15044460897803
  0
LINE
  8
_1-8_下地など
  6
CONTINUOUS
 62
    7
 10
206.0116901169942
 20
83.810444608980077
 11
206.0116901169942
 21
83.810444608980077
  0
LINE
  8
_1-8_下地など
  6
CONTINUOUS
 62
    7
 10
206.0116901169942
 20
83.810444608980077
 11
206.01472856639143
 21
83.775714973446654
  0
LINE
  8
_1-8_下地など
  6
CONTINUOUS
 62
    7
 10
206.01472856639143
 20
83.775714973446654
 11
206.02375159283633
 21
83.742040580314821
  0
LINE
  8
_1-8_下地など
  6
CONTINUOUS
 62
    7
 10
206.02375159283633
 20
83.742040580314821
 11
206.03848503623632
 21
83.710444608979813
  0
LINE
  8
_1-8_下地など
  6
CONTINUOUS
 62
    7
 10
206.03848503623632
 20
83.710444608979813
 11
206.05848122836912
 21
83.681887087042298
  0
LINE
  8
_1-8_下地など
  6
CONTINUOUS
 62
    7
 10
206.05848122836912
 20
83.681887087042298
 11
206.08313259505536
 21
83.657235720355558
  0
LINE
  8
_1-8_下地など
  6
CONTINUOUS
 62
    7
 10
206.08313259505536
 20
83.657235720355558
 11
206.11169011699246
 21
83.637239528222182
  0
LINE
  8
_1-8_下地など
  6
CONTINUOUS
 62
    7
 10
206.11169011699246
 20
83.637239528222182
 11
206.14328608832719
 21
83.622506084821566
  0
LINE
  8
_1-8_下地など
  6
CONTINUOUS
 62
    7
 10
206.14328608832719
 20
83.622506084821566
 11
206.17696048145882
 21
83.613483058375962
  0
LINE
  8
_1-8_下地など
  6
CONTINUOUS
 62
    7
 10
206.17696048145882
 20
83.613483058375962
 11
206.21169011699112
 21
83.610444608978042
  0
LINE
  8
_1-8_下地など
  6
CONTINUOUS
 62
    7
 10
214.89169011699113
 20
83.610444608978042
 11
214.89169011699113
 21
83.610444608978042
  0
LINE
  8
_1-8_下地など
  6
CONTINUOUS
 62
    7
 10
214.89169011699113
 20
83.610444608978042
 11
214.92641975252457
 21
83.613483058375081
  0
LINE
  8
_1-8_下地など
  6
CONTINUOUS
 62
    7
 10
214.92641975252457
 20
83.613483058375081
 11
214.96009414565646
 21
83.622506084819832
  0
LINE
  8
_1-8_下地など
  6
CONTINUOUS
 62
    7
 10
214.96009414565646
 20
83.622506084819832
 11
214.99169011699155
 21
83.637239528219638
  0
LINE
  8
_1-8_下地など
  6
CONTINUOUS
 62
    7
 10
214.99169011699155
 20
83.637239528219638
 11
215.02024763892916
 21
83.657235720352304
  0
LINE
  8
_1-8_下地など
  6
CONTINUOUS
 62
    7
 10
215.02024763892916
 20
83.657235720352304
 11
215.044899005616
 21
83.681887087038419
  0
LINE
  8
_1-8_下地など
  6
CONTINUOUS
 62
    7
 10
215.044899005616
 20
83.681887087038419
 11
215.06489519774954
 21
83.710444608975408
  0
LINE
  8
_1-8_下地など
  6
CONTINUOUS
 62
    7
 10
215.06489519774954
 20
83.710444608975408
 11
215.07962864115032
 21
83.742040580310061
  0
LINE
  8
_1-8_下地など
  6
CONTINUOUS
 62
    7
 10
215.07962864115032
 20
83.742040580310061
 11
215.08865166759608
 21
83.775714973441666
  0
LINE
  8
_1-8_下地など
  6
CONTINUOUS
 62
    7
 10
215.08865166759608
 20
83.775714973441666
 11
215.09169011699419
 21
83.810444608973953
  0
LINE
  8
_1-8_下地など
  6
CONTINUOUS
 62
    7
 10
205.55169011699419
 20
83.550444608982104
 11
205.55169011699419
 21
83.550444608982104
  0
LINE
  8
_1-8_下地など
  6
CONTINUOUS
 62
    7
 10
205.55169011699419
 20
83.550444608982104
 11
205.55776701578861
 21
83.480985337915271
  0
LINE
  8
_1-8_下地など
  6
CONTINUOUS
 62
    7
 10
205.55776701578861
 20
83.480985337915271
 11
205.57581306867846
 21
83.413636551651592
  0
LINE
  8
_1-8_下地など
  6
CONTINUOUS
 62
    7
 10
205.57581306867846
 20
83.413636551651592
 11
205.60527995547838
 21
83.350444608981562
  0
LINE
  8
_1-8_下地など
  6
CONTINUOUS
 62
    7
 10
205.60527995547838
 20
83.350444608981562
 11
205.645272339744
 21
83.293329565106546
  0
LINE
  8
_1-8_下地など
  6
CONTINUOUS
 62
    7
 10
205.645272339744
 20
83.293329565106546
 11
205.69457507311645
 21
83.244026831733066
  0
LINE
  8
_1-8_下地など
  6
CONTINUOUS
 62
    7
 10
205.69457507311645
 20
83.244026831733066
 11
205.75169011699066
 21
83.204034447466299
  0
LINE
  8
_1-8_下地など
  6
CONTINUOUS
 62
    7
 10
205.75169011699066
 20
83.204034447466299
 11
205.81488205966011
 21
83.174567560665068
  0
LINE
  8
_1-8_下地など
  6
CONTINUOUS
 62
    7
 10
205.81488205966011
 20
83.174567560665068
 11
205.8822308459234
 21
83.15652150777386
  0
LINE
  8
_1-8_下地など
  6
CONTINUOUS
 62
    7
 10
205.8822308459234
 20
83.15652150777386
 11
205.95169011698809
 21
83.150444608978034
  0
LINE
  8
_1-8_下地など
  6
CONTINUOUS
 62
    7
 10
215.09169011699419
 20
102.49044460897395
 11
215.09169011699419
 21
102.49044460897395
  0
LINE
  8
_1-8_下地など
  6
CONTINUOUS
 62
    7
 10
215.09169011699419
 20
102.49044460897395
 11
215.08865166759733
 21
102.52517424450738
  0
LINE
  8
_1-8_下地など
  6
CONTINUOUS
 62
    7
 10
215.08865166759733
 20
102.52517424450738
 11
215.07962864115274
 21
102.55884863763931
  0
LINE
  8
_1-8_下地など
  6
CONTINUOUS
 62
    7
 10
215.07962864115274
 20
102.55884863763931
 11
215.06489519775309
 21
102.59044460897448
  0
LINE
  8
_1-8_下地など
  6
CONTINUOUS
 62
    7
 10
215.06489519775309
 20
102.59044460897448
 11
215.04489900562058
 21
102.61900213091219
  0
LINE
  8
_1-8_下地など
  6
CONTINUOUS
 62
    7
 10
215.04489900562058
 20
102.61900213091219
 11
215.02024763893459
 21
102.64365349759919
  0
LINE
  8
_1-8_下地など
  6
CONTINUOUS
 62
    7
 10
215.02024763893459
 20
102.64365349759919
 11
214.99169011699769
 21
102.66364968973285
  0
LINE
  8
_1-8_下地など
  6
CONTINUOUS
 62
    7
 10
214.99169011699769
 20
102.66364968973285
 11
214.96009414566313
 21
102.67838313313379
  0
LINE
  8
_1-8_下地など
  6
CONTINUOUS
 62
    7
 10
214.96009414566313
 20
102.67838313313379
 11
214.92641975253156
 21
102.68740615957974
  0
LINE
  8
_1-8_下地など
  6
CONTINUOUS
 62
    7
 10
214.92641975253156
 20
102.68740615957974
 11
214.89169011699931
 21
102.69044460897801
  0
LINE
  8
_1-8_下地など
  6
CONTINUOUS
 62
    7
 10
215.15169011698808
 20
83.150444608978034
 11
215.15169011698808
 21
83.150444608978034
  0
LINE
  8
_1-8_下地など
  6
CONTINUOUS
 62
    7
 10
215.15169011698808
 20
83.150444608978034
 11
215.22114938805493
 21
83.156521507772084
  0
LINE
  8
_1-8_下地など
  6
CONTINUOUS
 62
    7
 10
215.22114938805493
 20
83.156521507772084
 11
215.2884981743187
 21
83.174567560661572
  0
LINE
  8
_1-8_下地など
  6
CONTINUOUS
 62
    7
 10
215.2884981743187
 20
83.174567560661572
 11
215.35169011698889
 21
83.204034447461197
  0
LINE
  8
_1-8_下地など
  6
CONTINUOUS
 62
    7
 10
215.35169011698889
 20
83.204034447461197
 11
215.40880516086412
 21
83.244026831726501
  0
LINE
  8
_1-8_下地など
  6
CONTINUOUS
 62
    7
 10
215.40880516086412
 20
83.244026831726501
 11
215.45810789423786
 21
83.29332956509873
  0
LINE
  8
_1-8_下地など
  6
CONTINUOUS
 62
    7
 10
215.45810789423786
 20
83.29332956509873
 11
215.49810027850489
 21
83.350444608972737
  0
LINE
  8
_1-8_下地など
  6
CONTINUOUS
 62
    7
 10
215.49810027850489
 20
83.350444608972737
 11
215.52756716530646
 21
83.413636551642014
  0
LINE
  8
_1-8_下地など
  6
CONTINUOUS
 62
    7
 10
215.52756716530646
 20
83.413636551642014
 11
215.54561321819801
 21
83.480985337905238
  0
LINE
  8
_1-8_下地など
  6
CONTINUOUS
 62
    7
 10
215.54561321819801
 20
83.480985337905238
 11
215.55169011699419
 21
83.550444608969855
  0
LINE
  8
_1-8_下地など
  6
CONTINUOUS
 62
    7
 10
206.21169011699931
 20
102.69044460897801
 11
206.21169011699931
 21
102.69044460897801
  0
LINE
  8
_1-8_下地など
  6
CONTINUOUS
 62
    7
 10
206.21169011699931
 20
102.69044460897801
 11
206.17696048146584
 21
102.68740615958133
  0
LINE
  8
_1-8_下地など
  6
CONTINUOUS
 62
    7
 10
206.17696048146584
 20
102.68740615958133
 11
206.14328608833387
 21
102.67838313313692
  0
LINE
  8
_1-8_下地など
  6
CONTINUOUS
 62
    7
 10
206.14328608833387
 20
102.67838313313692
 11
206.11169011699863
 21
102.66364968973743
  0
LINE
  8
_1-8_下地など
  6
CONTINUOUS
 62
    7
 10
206.11169011699863
 20
102.66364968973743
 11
206.08313259506082
 21
102.64365349760506
  0
LINE
  8
_1-8_下地など
  6
CONTINUOUS
 62
    7
 10
206.08313259506082
 20
102.64365349760506
 11
206.05848122837369
 21
102.6190021309192
  0
LINE
  8
_1-8_下地など
  6
CONTINUOUS
 62
    7
 10
206.05848122837369
 20
102.6190021309192
 11
206.03848503623988
 21
102.59044460898241
  0
LINE
  8
_1-8_下地など
  6
CONTINUOUS
 62
    7
 10
206.03848503623988
 20
102.59044460898241
 11
206.02375159283878
 21
102.55884863764791
  0
LINE
  8
_1-8_下地など
  6
CONTINUOUS
 62
    7
 10
206.02375159283878
 20
102.55884863764791
 11
206.01472856639265
 21
102.52517424451639
  0
LINE
  8
_1-8_下地など
  6
CONTINUOUS
 62
    7
 10
206.01472856639265
 20
102.52517424451639
 11
206.0116901169942
 21
102.49044460898415
  0
LINE
  8
_1-8_下地など
  6
CONTINUOUS
 62
    7
 10
215.55169011699419
 20
102.75044460896986
 11
215.55169011699419
 21
102.75044460896986
  0
LINE
  8
_1-8_下地など
  6
CONTINUOUS
 62
    7
 10
215.55169011699419
 20
102.75044460896986
 11
215.54561321820049
 21
102.81990388003676
  0
LINE
  8
_1-8_下地など
  6
CONTINUOUS
 62
    7
 10
215.54561321820049
 20
102.81990388003676
 11
215.52756716531135
 21
102.88725266630063
  0
LINE
  8
_1-8_下地など
  6
CONTINUOUS
 62
    7
 10
215.52756716531135
 20
102.88725266630063
 11
215.49810027851206
 21
102.95044460897095
  0
LINE
  8
_1-8_下地など
  6
CONTINUOUS
 62
    7
 10
215.49810027851206
 20
102.95044460897095
 11
215.45810789424704
 21
103.00755965284638
  0
LINE
  8
_1-8_下地など
  6
CONTINUOUS
 62
    7
 10
215.45810789424704
 20
103.00755965284638
 11
215.40880516087506
 21
103.05686238622037
  0
LINE
  8
_1-8_下地など
  6
CONTINUOUS
 62
    7
 10
215.40880516087506
 20
103.05686238622037
 11
215.35169011700125
 21
103.09685477048772
  0
LINE
  8
_1-8_下地など
  6
CONTINUOUS
 62
    7
 10
215.35169011700125
 20
103.09685477048772
 11
215.28849817433212
 21
103.12632165728959
  0
LINE
  8
_1-8_下地など
  6
CONTINUOUS
 62
    7
 10
215.28849817433212
 20
103.12632165728959
 11
215.22114938806899
 21
103.1443677101815
  0
LINE
  8
_1-8_下地など
  6
CONTINUOUS
 62
    7
 10
215.22114938806899
 20
103.1443677101815
 11
215.15169011700439
 21
103.15044460897803
  0
LINE
  8
_1-8_下地など
  6
CONTINUOUS
 62
    7
 10
205.9516901170044
 20
103.15044460897803
 11
205.9516901170044
 21
103.15044460897803
  0
LINE
  8
_1-8_下地など
  6
CONTINUOUS
 62
    7
 10
205.9516901170044
 20
103.15044460897803
 11
205.88223084593747
 21
103.14436771018468
  0
LINE
  8
_1-8_下地など
  6
CONTINUOUS
 62
    7
 10
205.88223084593747
 20
103.14436771018468
 11
205.81488205967352
 21
103.12632165729588
  0
LINE
  8
_1-8_下地など
  6
CONTINUOUS
 62
    7
 10
205.81488205967352
 20
103.12632165729588
 11
205.75169011700305
 21
103.0968547704969
  0
LINE
  8
_1-8_下地など
  6
CONTINUOUS
 62
    7
 10
205.75169011700305
 20
103.0968547704969
 11
205.6945750731274
 21
103.05686238623218
  0
LINE
  8
_1-8_下地など
  6
CONTINUOUS
 62
    7
 10
205.6945750731274
 20
103.05686238623218
 11
205.64527233975318
 21
103.00755965286046
  0
LINE
  8
_1-8_下地など
  6
CONTINUOUS
 62
    7
 10
205.64527233975318
 20
103.00755965286046
 11
205.60527995548554
 21
102.95044460898687
  0
LINE
  8
_1-8_下地など
  6
CONTINUOUS
 62
    7
 10
205.60527995548554
 20
102.95044460898687
 11
205.57581306868332
 21
102.88725266631788
  0
LINE
  8
_1-8_下地など
  6
CONTINUOUS
 62
    7
 10
205.57581306868332
 20
102.88725266631788
 11
205.55776701579109
 21
102.81990388005485
  0
LINE
  8
_1-8_下地など
  6
CONTINUOUS
 62
    7
 10
205.55776701579109
 20
102.81990388005485
 11
205.55169011699419
 21
102.75044460899028
  0
LINE
  8
_1-6_アンカ__類
  6
CONTINUOUS
 62
    7
 10
209.35169011699423
 20
110.15044460897803
 11
211.75169011699421
 21
110.15044460897803
  0
LINE
  8
_1-6_アンカ__類
  6
CONTINUOUS
 62
    7
 10
209.35169011699423
 20
110.05044460897803
 11
211.75169011699421
 21
110.05044460897803
  0
LINE
  8
_1-6_アンカ__類
  6
CONTINUOUS
 62
    7
 10
211.75169011699421
 20
110.05044460897803
 11
211.75169011699421
 21
110.15044460897803
  0
LINE
  8
_1-6_アンカ__類
  6
CONTINUOUS
 62
    7
 10
209.35169011699423
 20
110.15044460897803
 11
209.35169011699423
 21
110.05044460897803
  0
LINE
  8
_1-6_アンカ__類
  6
CONTINUOUS
 62
    7
 10
210.09169011699424
 20
104.70340460897802
 11
210.09169011699424
 21
104.51148460897802
  0
LINE
  8
_1-6_アンカ__類
  6
CONTINUOUS
 62
    7
 10
211.01513011699421
 20
104.88636460897803
 11
211.0116901169942
 21
104.78844460897803
  0
LINE
  8
_1-6_アンカ__類
  6
CONTINUOUS
 62
    7
 10
210.0596901169942
 20
109.17676460897803
 11
210.0596901169942
 21
105.15044460897803
  0
LINE
  8
_1-6_アンカ__類
  6
CONTINUOUS
 62
    7
 10
211.04369011699424
 20
109.17676460897803
 11
211.04369011699424
 21
105.15044460897803
  0
LINE
  8
_1-6_アンカ__類
  6
CONTINUOUS
 62
    7
 10
209.35169011699423
 20
110.05044460897803
 11
209.94253011699419
 21
109.45960460897803
  0
LINE
  8
_1-6_アンカ__類
  6
CONTINUOUS
 62
    7
 10
211.75169011699421
 20
110.05044460897803
 11
211.1608501169942
 21
109.45960460897803
  0
LINE
  8
_1-6_アンカ__類
  6
CONTINUOUS
 62
    7
 10
211.04369011699424
 20
109.34244460897803
 11
210.0596901169942
 21
109.34244460897803
  0
LINE
  8
_1-6_アンカ__類
  6
CONTINUOUS
 62
    7
 10
210.15169011699419
 20
98.837244608978025
 11
210.15169011699419
 21
99.950444608978032
  0
LINE
  8
_1-6_アンカ__類
  6
CONTINUOUS
 62
    7
 10
210.9516901169942
 20
98.591924608978033
 11
210.9516901169942
 21
100.15044460897803
  0
LINE
  8
_1-6_アンカ__類
  6
CONTINUOUS
 62
    7
 10
210.05169011699422
 20
98.545284608978022
 11
210.05169011699422
 21
99.950444608978032
  0
LINE
  8
_1-6_アンカ__類
  6
CONTINUOUS
 62
    7
 10
210.54977011699418
 20
100.15044460897803
 11
210.96385011699419
 21
100.15044460897803
  0
LINE
  8
_1-6_アンカ__類
  6
CONTINUOUS
 62
    7
 10
210.88169011699421
 20
98.800164608978037
 11
210.88169011699421
 21
100.15044460897803
  0
LINE
  8
_1-6_アンカ__類
  6
CONTINUOUS
 62
    7
 10
210.58273011699418
 20
98.28232460897803
 11
210.55169011699422
 21
98.150444608978034
  0
LINE
  8
_1-6_アンカ__類
  6
CONTINUOUS
 62
    7
 10
211.05169011699422
 20
99.950444608978032
 11
211.05169011699422
 21
98.545284608978022
  0
LINE
  8
_1-6_アンカ__類
  6
CONTINUOUS
 62
    7
 10
210.63169011699421
 20
98.779724608978029
 11
210.63169011699421
 21
100.51576460897803
  0
LINE
  8
_1-6_アンカ__類
  6
CONTINUOUS
 62
    7
 10
210.9516901169942
 20
98.591924608978033
 11
211.05169011699422
 21
98.545284608978022
  0
LINE
  8
_1-6_アンカ__類
  6
CONTINUOUS
 62
    7
 10
210.5116901169942
 20
98.159324608978025
 11
210.55169011699422
 21
98.150444608978034
  0
LINE
  8
_1-6_アンカ__類
  6
CONTINUOUS
 62
    7
 10
210.55169011699422
 20
98.150444608978034
 11
210.59169011699424
 21
98.159324608978025
  0
LINE
  8
_1-6_アンカ__類
  6
CONTINUOUS
 62
    7
 10
210.58273011699418
 20
98.28232460897803
 11
210.59169011699424
 21
98.159324608978025
  0
LINE
  8
_1-6_アンカ__類
  6
CONTINUOUS
 62
    7
 10
210.49513011699423
 20
98.405564608978025
 11
210.55169011699422
 21
98.150444608978034
  0
LINE
  8
_1-6_アンカ__類
  6
CONTINUOUS
 62
    7
 10
210.12669011699421
 20
98.717364608978031
 11
210.05169011699422
 21
98.545284608978022
  0
LINE
  8
_1-6_アンカ__類
  6
CONTINUOUS
 62
    7
 10
210.2541701169942
 20
98.688684608978036
 11
210.3950901169942
 21
98.570444608978022
  0
LINE
  8
_1-6_アンカ__類
  6
CONTINUOUS
 62
    7
 10
210.05169011699422
 20
98.545284608978022
 11
210.5116901169942
 21
98.159324608978025
  0
LINE
  8
_1-6_アンカ__類
  6
CONTINUOUS
 62
    7
 10
210.9516901169942
 20
98.591924608978033
 11
210.58273011699418
 21
98.28232460897803
  0
LINE
  8
_1-6_アンカ__類
  6
CONTINUOUS
 62
    7
 10
211.05169011699422
 20
98.545284608978022
 11
210.59169011699424
 21
98.159324608978025
  0
LINE
  8
_1-6_アンカ__類
  6
CONTINUOUS
 62
    7
 10
210.53269011699422
 20
98.608204608978028
 11
210.63169011699421
 21
98.779724608978029
  0
LINE
  8
_1-6_アンカ__類
  6
CONTINUOUS
 62
    7
 10
210.88169011699421
 20
98.800164608978037
 11
210.58273011699418
 21
98.28232460897803
  0
LINE
  8
_1-6_アンカ__類
  6
CONTINUOUS
 62
    7
 10
211.04369011699424
 20
105.15044460897803
 11
210.0596901169942
 21
105.15044460897803
  0
LINE
  8
_1-6_アンカ__類
  6
CONTINUOUS
 62
    7
 10
211.10165011699422
 20
104.93632460897803
 11
209.96169011699419
 21
104.77844460897802
  0
LINE
  8
_1-6_アンカ__類
  6
CONTINUOUS
 62
    7
 10
211.08041011699419
 20
105.01484460897802
 11
209.96169011699419
 21
104.79844460897803
  0
LINE
  8
_1-6_アンカ__類
  6
CONTINUOUS
 62
    7
 10
211.10165011699422
 20
104.93632460897803
 11
211.08041011699419
 21
105.01484460897802
  0
LINE
  8
_1-6_アンカ__類
  6
CONTINUOUS
 62
    7
 10
211.08041011699419
 20
105.01484460897802
 11
211.0208101169942
 21
105.04924460897803
  0
LINE
  8
_1-6_アンカ__類
  6
CONTINUOUS
 62
    7
 10
211.10165011699422
 20
104.93632460897803
 11
211.01513011699421
 21
104.88636460897803
  0
LINE
  8
_1-6_アンカ__類
  6
CONTINUOUS
 62
    7
 10
209.96169011699419
 20
104.77844460897802
 11
209.96169011699419
 21
104.79844460897803
  0
LINE
  8
_1-6_アンカ__類
  6
CONTINUOUS
 62
    7
 10
209.96169011699419
 20
104.79844460897803
 11
210.08881011699424
 21
104.87180460897802
  0
LINE
  8
_1-6_アンカ__類
  6
CONTINUOUS
 62
    7
 10
209.96169011699419
 20
104.77844460897802
 11
210.09169011699424
 21
104.70340460897802
  0
LINE
  8
_1-6_アンカ__類
  6
CONTINUOUS
 62
    7
 10
211.01513011699421
 20
104.88636460897803
 11
210.09169011699424
 21
104.70340460897802
  0
LINE
  8
_1-6_アンカ__類
  6
CONTINUOUS
 62
    7
 10
210.08881011699424
 20
104.87180460897802
 11
211.0208101169942
 21
105.04924460897803
  0
LINE
  8
_1-6_アンカ__類
  6
CONTINUOUS
 62
    7
 10
211.1416901169942
 20
104.59744460897802
 11
209.96169011699419
 21
104.41644460897803
  0
LINE
  8
_1-6_アンカ__類
  6
CONTINUOUS
 62
    7
 10
211.1416901169942
 20
104.61744460897802
 11
209.96169011699419
 21
104.43644460897804
  0
LINE
  8
_1-6_アンカ__類
  6
CONTINUOUS
 62
    7
 10
211.1416901169942
 20
104.59744460897802
 11
211.1416901169942
 21
104.61744460897802
  0
LINE
  8
_1-6_アンカ__類
  6
CONTINUOUS
 62
    7
 10
211.1416901169942
 20
104.61744460897802
 11
211.0116901169942
 21
104.69248460897802
  0
LINE
  8
_1-6_アンカ__類
  6
CONTINUOUS
 62
    7
 10
211.1416901169942
 20
104.59744460897802
 11
211.0116901169942
 21
104.52240460897802
  0
LINE
  8
_1-6_アンカ__類
  6
CONTINUOUS
 62
    7
 10
209.96169011699419
 20
104.41644460897803
 11
209.96169011699419
 21
104.43644460897804
  0
LINE
  8
_1-6_アンカ__類
  6
CONTINUOUS
 62
    7
 10
209.96169011699419
 20
104.43644460897804
 11
210.09169011699424
 21
104.51148460897802
  0
LINE
  8
_1-6_アンカ__類
  6
CONTINUOUS
 62
    7
 10
209.96169011699419
 20
104.41644460897803
 11
210.09169011699424
 21
104.34140460897802
  0
LINE
  8
_1-6_アンカ__類
  6
CONTINUOUS
 62
    7
 10
211.0116901169942
 20
104.52240460897802
 11
210.09169011699424
 21
104.34140460897802
  0
LINE
  8
_1-6_アンカ__類
  6
CONTINUOUS
 62
    7
 10
210.09169011699424
 20
104.51148460897802
 11
211.0116901169942
 21
104.69248460897802
  0
LINE
  8
_1-6_アンカ__類
  6
CONTINUOUS
 62
    7
 10
210.08185011699419
 20
105.07108460897803
 11
210.08881011699424
 21
104.87180460897802
  0
LINE
  8
_1-6_アンカ__類
  6
CONTINUOUS
 62
    7
 10
211.02433011699424
 20
105.15044460897803
 11
211.0208101169942
 21
105.04924460897803
  0
LINE
  8
_1-6_アンカ__類
  6
CONTINUOUS
 62
    7
 10
210.3206101169942
 20
105.15044460897803
 11
210.04413011699421
 21
105.09284460897803
  0
LINE
  8
_1-6_アンカ__類
  6
CONTINUOUS
 62
    7
 10
210.04413011699421
 20
105.09284460897803
 11
210.0596901169942
 21
105.15044460897803
  0
LINE
  8
_1-6_アンカ__類
  6
CONTINUOUS
 62
    7
 10
210.04413011699421
 20
105.09284460897803
 11
210.08185011699419
 21
105.07108460897803
  0
LINE
  8
_1-6_アンカ__類
  6
CONTINUOUS
 62
    7
 10
210.48833011699418
 20
105.15044460897803
 11
210.08185011699419
 21
105.07108460897803
  0
LINE
  8
_1-6_アンカ__類
  6
CONTINUOUS
 62
    7
 10
210.09169011699424
 20
103.97940460897803
 11
210.09169011699424
 21
103.78748460897803
  0
LINE
  8
_1-6_アンカ__類
  6
CONTINUOUS
 62
    7
 10
211.0116901169942
 20
104.16040460897803
 11
211.0116901169942
 21
103.96848460897803
  0
LINE
  8
_1-6_アンカ__類
  6
CONTINUOUS
 62
    7
 10
211.1416901169942
 20
104.23544460897803
 11
209.96169011699419
 21
104.05444460897803
  0
LINE
  8
_1-6_アンカ__類
  6
CONTINUOUS
 62
    7
 10
211.1416901169942
 20
104.25544460897802
 11
209.96169011699419
 21
104.07444460897803
  0
LINE
  8
_1-6_アンカ__類
  6
CONTINUOUS
 62
    7
 10
211.1416901169942
 20
104.23544460897803
 11
211.1416901169942
 21
104.25544460897802
  0
LINE
  8
_1-6_アンカ__類
  6
CONTINUOUS
 62
    7
 10
211.1416901169942
 20
104.25544460897802
 11
211.0116901169942
 21
104.33048460897803
  0
LINE
  8
_1-6_アンカ__類
  6
CONTINUOUS
 62
    7
 10
211.1416901169942
 20
104.23544460897803
 11
211.0116901169942
 21
104.16040460897803
  0
LINE
  8
_1-6_アンカ__類
  6
CONTINUOUS
 62
    7
 10
209.96169011699419
 20
104.05444460897803
 11
209.96169011699419
 21
104.07444460897803
  0
LINE
  8
_1-6_アンカ__類
  6
CONTINUOUS
 62
    7
 10
209.96169011699419
 20
104.07444460897803
 11
210.09169011699424
 21
104.14948460897803
  0
LINE
  8
_1-6_アンカ__類
  6
CONTINUOUS
 62
    7
 10
209.96169011699419
 20
104.05444460897803
 11
210.09169011699424
 21
103.97940460897803
  0
LINE
  8
_1-6_アンカ__類
  6
CONTINUOUS
 62
    7
 10
211.0116901169942
 20
104.16040460897803
 11
210.09169011699424
 21
103.97940460897803
  0
LINE
  8
_1-6_アンカ__類
  6
CONTINUOUS
 62
    7
 10
210.09169011699424
 20
104.14948460897803
 11
211.0116901169942
 21
104.33048460897803
  0
LINE
  8
_1-6_アンカ__類
  6
CONTINUOUS
 62
    7
 10
211.1416901169942
 20
103.87344460897803
 11
209.96169011699419
 21
103.69244460897804
  0
LINE
  8
_1-6_アンカ__類
  6
CONTINUOUS
 62
    7
 10
211.1416901169942
 20
103.89344460897803
 11
209.96169011699419
 21
103.71244460897803
  0
LINE
  8
_1-6_アンカ__類
  6
CONTINUOUS
 62
    7
 10
211.1416901169942
 20
103.87344460897803
 11
211.1416901169942
 21
103.89344460897803
  0
LINE
  8
_1-6_アンカ__類
  6
CONTINUOUS
 62
    7
 10
211.1416901169942
 20
103.89344460897803
 11
211.0116901169942
 21
103.96848460897803
  0
LINE
  8
_1-6_アンカ__類
  6
CONTINUOUS
 62
    7
 10
211.1416901169942
 20
103.87344460897803
 11
211.0116901169942
 21
103.79840460897803
  0
LINE
  8
_1-6_アンカ__類
  6
CONTINUOUS
 62
    7
 10
209.96169011699419
 20
103.69244460897804
 11
209.96169011699419
 21
103.71244460897803
  0
LINE
  8
_1-6_アンカ__類
  6
CONTINUOUS
 62
    7
 10
209.96169011699419
 20
103.71244460897803
 11
210.09169011699424
 21
103.78748460897803
  0
LINE
  8
_1-6_アンカ__類
  6
CONTINUOUS
 62
    7
 10
209.96169011699419
 20
103.69244460897804
 11
210.09169011699424
 21
103.61740460897803
  0
LINE
  8
_1-6_アンカ__類
  6
CONTINUOUS
 62
    7
 10
211.0116901169942
 20
103.79840460897803
 11
210.09169011699424
 21
103.61740460897803
  0
LINE
  8
_1-6_アンカ__類
  6
CONTINUOUS
 62
    7
 10
210.09169011699424
 20
103.78748460897803
 11
211.0116901169942
 21
103.96848460897803
  0
LINE
  8
_1-6_アンカ__類
  6
CONTINUOUS
 62
    7
 10
210.09169011699424
 20
104.34140460897802
 11
210.09169011699424
 21
104.14948460897803
  0
LINE
  8
_1-6_アンカ__類
  6
CONTINUOUS
 62
    7
 10
211.0116901169942
 20
104.52240460897802
 11
211.0116901169942
 21
104.33048460897803
  0
LINE
  8
_1-6_アンカ__類
  6
CONTINUOUS
 62
    7
 10
210.09169011699424
 20
103.25540460897803
 11
210.09169011699424
 21
103.06348460897803
  0
LINE
  8
_1-6_アンカ__類
  6
CONTINUOUS
 62
    7
 10
211.0116901169942
 20
103.43640460897802
 11
211.0116901169942
 21
103.24448460897803
  0
LINE
  8
_1-6_アンカ__類
  6
CONTINUOUS
 62
    7
 10
211.1416901169942
 20
103.51144460897802
 11
209.96169011699419
 21
103.33044460897803
  0
LINE
  8
_1-6_アンカ__類
  6
CONTINUOUS
 62
    7
 10
211.1416901169942
 20
103.53144460897803
 11
209.96169011699419
 21
103.35044460897802
  0
LINE
  8
_1-6_アンカ__類
  6
CONTINUOUS
 62
    7
 10
211.1416901169942
 20
103.51144460897802
 11
211.1416901169942
 21
103.53144460897803
  0
LINE
  8
_1-6_アンカ__類
  6
CONTINUOUS
 62
    7
 10
211.1416901169942
 20
103.53144460897803
 11
211.0116901169942
 21
103.60648460897804
  0
LINE
  8
_1-6_アンカ__類
  6
CONTINUOUS
 62
    7
 10
211.1416901169942
 20
103.51144460897802
 11
211.0116901169942
 21
103.43640460897802
  0
LINE
  8
_1-6_アンカ__類
  6
CONTINUOUS
 62
    7
 10
209.96169011699419
 20
103.33044460897803
 11
209.96169011699419
 21
103.35044460897802
  0
LINE
  8
_1-6_アンカ__類
  6
CONTINUOUS
 62
    7
 10
209.96169011699419
 20
103.35044460897802
 11
210.09169011699424
 21
103.42548460897802
  0
LINE
  8
_1-6_アンカ__類
  6
CONTINUOUS
 62
    7
 10
209.96169011699419
 20
103.33044460897803
 11
210.09169011699424
 21
103.25540460897803
  0
LINE
  8
_1-6_アンカ__類
  6
CONTINUOUS
 62
    7
 10
211.0116901169942
 20
103.43640460897802
 11
210.09169011699424
 21
103.25540460897803
  0
LINE
  8
_1-6_アンカ__類
  6
CONTINUOUS
 62
    7
 10
210.09169011699424
 20
103.42548460897802
 11
211.0116901169942
 21
103.60648460897804
  0
LINE
  8
_1-6_アンカ__類
  6
CONTINUOUS
 62
    7
 10
211.1416901169942
 20
103.14944460897803
 11
209.96169011699419
 21
102.96844460897803
  0
LINE
  8
_1-6_アンカ__類
  6
CONTINUOUS
 62
    7
 10
211.1416901169942
 20
103.16944460897803
 11
209.96169011699419
 21
102.98844460897803
  0
LINE
  8
_1-6_アンカ__類
  6
CONTINUOUS
 62
    7
 10
211.1416901169942
 20
103.14944460897803
 11
211.1416901169942
 21
103.16944460897803
  0
LINE
  8
_1-6_アンカ__類
  6
CONTINUOUS
 62
    7
 10
211.1416901169942
 20
103.16944460897803
 11
211.0116901169942
 21
103.24448460897803
  0
LINE
  8
_1-6_アンカ__類
  6
CONTINUOUS
 62
    7
 10
211.1416901169942
 20
103.14944460897803
 11
211.0116901169942
 21
103.07440460897803
  0
LINE
  8
_1-6_アンカ__類
  6
CONTINUOUS
 62
    7
 10
209.96169011699419
 20
102.96844460897803
 11
209.96169011699419
 21
102.98844460897803
  0
LINE
  8
_1-6_アンカ__類
  6
CONTINUOUS
 62
    7
 10
209.96169011699419
 20
102.98844460897803
 11
210.09169011699424
 21
103.06348460897803
  0
LINE
  8
_1-6_アンカ__類
  6
CONTINUOUS
 62
    7
 10
209.96169011699419
 20
102.96844460897803
 11
210.09169011699424
 21
102.89340460897803
  0
LINE
  8
_1-6_アンカ__類
  6
CONTINUOUS
 62
    7
 10
211.0116901169942
 20
103.07440460897803
 11
210.09169011699424
 21
102.89340460897803
  0
LINE
  8
_1-6_アンカ__類
  6
CONTINUOUS
 62
    7
 10
210.09169011699424
 20
103.06348460897803
 11
211.0116901169942
 21
103.24448460897803
  0
LINE
  8
_1-6_アンカ__類
  6
CONTINUOUS
 62
    7
 10
210.09169011699424
 20
103.61740460897803
 11
210.09169011699424
 21
103.42548460897802
  0
LINE
  8
_1-6_アンカ__類
  6
CONTINUOUS
 62
    7
 10
211.0116901169942
 20
103.79840460897803
 11
211.0116901169942
 21
103.60648460897804
  0
LINE
  8
_1-6_アンカ__類
  6
CONTINUOUS
 62
    7
 10
210.09169011699424
 20
102.53140460897802
 11
210.09169011699424
 21
102.33948460897803
  0
LINE
  8
_1-6_アンカ__類
  6
CONTINUOUS
 62
    7
 10
211.0116901169942
 20
102.71240460897803
 11
211.0116901169942
 21
102.52048460897802
  0
LINE
  8
_1-6_アンカ__類
  6
CONTINUOUS
 62
    7
 10
211.1416901169942
 20
102.78744460897803
 11
209.96169011699419
 21
102.60644460897802
  0
LINE
  8
_1-6_アンカ__類
  6
CONTINUOUS
 62
    7
 10
211.1416901169942
 20
102.80744460897803
 11
209.96169011699419
 21
102.62644460897803
  0
LINE
  8
_1-6_アンカ__類
  6
CONTINUOUS
 62
    7
 10
211.1416901169942
 20
102.78744460897803
 11
211.1416901169942
 21
102.80744460897803
  0
LINE
  8
_1-6_アンカ__類
  6
CONTINUOUS
 62
    7
 10
211.1416901169942
 20
102.80744460897803
 11
211.0116901169942
 21
102.88248460897803
  0
LINE
  8
_1-6_アンカ__類
  6
CONTINUOUS
 62
    7
 10
211.1416901169942
 20
102.78744460897803
 11
211.0116901169942
 21
102.71240460897803
  0
LINE
  8
_1-6_アンカ__類
  6
CONTINUOUS
 62
    7
 10
209.96169011699419
 20
102.60644460897802
 11
209.96169011699419
 21
102.62644460897803
  0
LINE
  8
_1-6_アンカ__類
  6
CONTINUOUS
 62
    7
 10
209.96169011699419
 20
102.62644460897803
 11
210.09169011699424
 21
102.70148460897803
  0
LINE
  8
_1-6_アンカ__類
  6
CONTINUOUS
 62
    7
 10
209.96169011699419
 20
102.60644460897802
 11
210.09169011699424
 21
102.53140460897802
  0
LINE
  8
_1-6_アンカ__類
  6
CONTINUOUS
 62
    7
 10
211.0116901169942
 20
102.71240460897803
 11
210.09169011699424
 21
102.53140460897802
  0
LINE
  8
_1-6_アンカ__類
  6
CONTINUOUS
 62
    7
 10
210.09169011699424
 20
102.70148460897803
 11
211.0116901169942
 21
102.88248460897803
  0
LINE
  8
_1-6_アンカ__類
  6
CONTINUOUS
 62
    7
 10
211.1416901169942
 20
102.42544460897803
 11
209.96169011699419
 21
102.24444460897803
  0
LINE
  8
_1-6_アンカ__類
  6
CONTINUOUS
 62
    7
 10
211.1416901169942
 20
102.44544460897802
 11
209.96169011699419
 21
102.26444460897802
  0
LINE
  8
_1-6_アンカ__類
  6
CONTINUOUS
 62
    7
 10
211.1416901169942
 20
102.42544460897803
 11
211.1416901169942
 21
102.44544460897802
  0
LINE
  8
_1-6_アンカ__類
  6
CONTINUOUS
 62
    7
 10
211.1416901169942
 20
102.44544460897802
 11
211.0116901169942
 21
102.52048460897802
  0
LINE
  8
_1-6_アンカ__類
  6
CONTINUOUS
 62
    7
 10
211.1416901169942
 20
102.42544460897803
 11
211.0116901169942
 21
102.35040460897802
  0
LINE
  8
_1-6_アンカ__類
  6
CONTINUOUS
 62
    7
 10
209.96169011699419
 20
102.24444460897803
 11
209.96169011699419
 21
102.26444460897802
  0
LINE
  8
_1-6_アンカ__類
  6
CONTINUOUS
 62
    7
 10
209.96169011699419
 20
102.26444460897802
 11
210.09169011699424
 21
102.33948460897803
  0
LINE
  8
_1-6_アンカ__類
  6
CONTINUOUS
 62
    7
 10
209.96169011699419
 20
102.24444460897803
 11
210.09169011699424
 21
102.16940460897803
  0
LINE
  8
_1-6_アンカ__類
  6
CONTINUOUS
 62
    7
 10
211.0116901169942
 20
102.35040460897802
 11
210.09169011699424
 21
102.16940460897803
  0
LINE
  8
_1-6_アンカ__類
  6
CONTINUOUS
 62
    7
 10
210.09169011699424
 20
102.33948460897803
 11
211.0116901169942
 21
102.52048460897802
  0
LINE
  8
_1-6_アンカ__類
  6
CONTINUOUS
 62
    7
 10
210.09169011699424
 20
102.89340460897803
 11
210.09169011699424
 21
102.70148460897803
  0
LINE
  8
_1-6_アンカ__類
  6
CONTINUOUS
 62
    7
 10
211.0116901169942
 20
103.07440460897803
 11
211.0116901169942
 21
102.88248460897803
  0
LINE
  8
_1-6_アンカ__類
  6
CONTINUOUS
 62
    7
 10
210.09169011699424
 20
101.80740460897803
 11
210.09169011699424
 21
101.61548460897802
  0
LINE
  8
_1-6_アンカ__類
  6
CONTINUOUS
 62
    7
 10
211.0116901169942
 20
101.98840460897803
 11
211.0116901169942
 21
101.79648460897803
  0
LINE
  8
_1-6_アンカ__類
  6
CONTINUOUS
 62
    7
 10
211.1416901169942
 20
102.06344460897803
 11
209.96169011699419
 21
101.88244460897803
  0
LINE
  8
_1-6_アンカ__類
  6
CONTINUOUS
 62
    7
 10
211.1416901169942
 20
102.08344460897803
 11
209.96169011699419
 21
101.90244460897803
  0
LINE
  8
_1-6_アンカ__類
  6
CONTINUOUS
 62
    7
 10
211.1416901169942
 20
102.06344460897803
 11
211.1416901169942
 21
102.08344460897803
  0
LINE
  8
_1-6_アンカ__類
  6
CONTINUOUS
 62
    7
 10
211.1416901169942
 20
102.08344460897803
 11
211.0116901169942
 21
102.15848460897803
  0
LINE
  8
_1-6_アンカ__類
  6
CONTINUOUS
 62
    7
 10
211.1416901169942
 20
102.06344460897803
 11
211.0116901169942
 21
101.98840460897803
  0
LINE
  8
_1-6_アンカ__類
  6
CONTINUOUS
 62
    7
 10
209.96169011699419
 20
101.88244460897803
 11
209.96169011699419
 21
101.90244460897803
  0
LINE
  8
_1-6_アンカ__類
  6
CONTINUOUS
 62
    7
 10
209.96169011699419
 20
101.90244460897803
 11
210.09169011699424
 21
101.97748460897803
  0
LINE
  8
_1-6_アンカ__類
  6
CONTINUOUS
 62
    7
 10
209.96169011699419
 20
101.88244460897803
 11
210.09169011699424
 21
101.80740460897803
  0
LINE
  8
_1-6_アンカ__類
  6
CONTINUOUS
 62
    7
 10
211.0116901169942
 20
101.98840460897803
 11
210.09169011699424
 21
101.80740460897803
  0
LINE
  8
_1-6_アンカ__類
  6
CONTINUOUS
 62
    7
 10
210.09169011699424
 20
101.97748460897803
 11
211.0116901169942
 21
102.15848460897803
  0
LINE
  8
_1-6_アンカ__類
  6
CONTINUOUS
 62
    7
 10
211.1416901169942
 20
101.70144460897802
 11
210.80281011699418
 21
101.64944460897803
  0
LINE
  8
_1-6_アンカ__類
  6
CONTINUOUS
 62
    7
 10
210.6445701169942
 20
101.62520460897802
 11
209.96169011699419
 21
101.52044460897802
  0
LINE
  8
_1-6_アンカ__類
  6
CONTINUOUS
 62
    7
 10
211.1416901169942
 20
101.72144460897803
 11
210.80049011699418
 21
101.66912460897802
  0
LINE
  8
_1-6_アンカ__類
  6
CONTINUOUS
 62
    7
 10
210.64225011699421
 20
101.64484460897803
 11
209.96169011699419
 21
101.54044460897802
  0
LINE
  8
_1-6_アンカ__類
  6
CONTINUOUS
 62
    7
 10
211.1416901169942
 20
101.70144460897802
 11
211.1416901169942
 21
101.72144460897803
  0
LINE
  8
_1-6_アンカ__類
  6
CONTINUOUS
 62
    7
 10
211.1416901169942
 20
101.72144460897803
 11
211.0116901169942
 21
101.79648460897803
  0
LINE
  8
_1-6_アンカ__類
  6
CONTINUOUS
 62
    7
 10
211.1416901169942
 20
101.70144460897802
 11
211.0116901169942
 21
101.62640460897802
  0
LINE
  8
_1-6_アンカ__類
  6
CONTINUOUS
 62
    7
 10
209.96169011699419
 20
101.52044460897802
 11
209.96169011699419
 21
101.54044460897802
  0
LINE
  8
_1-6_アンカ__類
  6
CONTINUOUS
 62
    7
 10
209.96169011699419
 20
101.54044460897802
 11
210.09169011699424
 21
101.61548460897802
  0
LINE
  8
_1-6_アンカ__類
  6
CONTINUOUS
 62
    7
 10
209.96169011699419
 20
101.52044460897802
 11
210.09169011699424
 21
101.44540460897802
  0
LINE
  8
_1-6_アンカ__類
  6
CONTINUOUS
 62
    7
 10
211.0116901169942
 20
101.62640460897802
 11
210.09169011699424
 21
101.44540460897802
  0
LINE
  8
_1-6_アンカ__類
  6
CONTINUOUS
 62
    7
 10
210.09169011699424
 20
101.61548460897802
 11
211.0116901169942
 21
101.79648460897803
  0
LINE
  8
_1-6_アンカ__類
  6
CONTINUOUS
 62
    7
 10
210.09169011699424
 20
102.16940460897803
 11
210.09169011699424
 21
101.97748460897803
  0
LINE
  8
_1-6_アンカ__類
  6
CONTINUOUS
 62
    7
 10
211.0116901169942
 20
102.35040460897802
 11
211.0116901169942
 21
102.15848460897803
  0
LINE
  8
_1-6_アンカ__類
  6
CONTINUOUS
 62
    7
 10
210.09169011699424
 20
101.08340460897803
 11
210.09169011699424
 21
100.95044460897803
  0
LINE
  8
_1-6_アンカ__類
  6
CONTINUOUS
 62
    7
 10
211.0116901169942
 20
101.26440460897803
 11
211.0116901169942
 21
101.07248460897803
  0
LINE
  8
_1-6_アンカ__類
  6
CONTINUOUS
 62
    7
 10
211.1416901169942
 20
101.33944460897803
 11
210.8449701169942
 21
101.29392460897803
  0
LINE
  8
_1-6_アンカ__類
  6
CONTINUOUS
 62
    7
 10
210.68673011699417
 20
101.26964460897803
 11
209.96169011699419
 21
101.15844460897803
  0
LINE
  8
_1-6_アンカ__類
  6
CONTINUOUS
 62
    7
 10
211.1416901169942
 20
101.35944460897802
 11
210.84265011699421
 21
101.31356460897803
  0
LINE
  8
_1-6_アンカ__類
  6
CONTINUOUS
 62
    7
 10
210.68441011699423
 20
101.28928460897802
 11
209.96169011699419
 21
101.17844460897803
  0
LINE
  8
_1-6_アンカ__類
  6
CONTINUOUS
 62
    7
 10
211.1416901169942
 20
101.33944460897803
 11
211.1416901169942
 21
101.35944460897802
  0
LINE
  8
_1-6_アンカ__類
  6
CONTINUOUS
 62
    7
 10
211.1416901169942
 20
101.35944460897802
 11
211.0116901169942
 21
101.43448460897802
  0
LINE
  8
_1-6_アンカ__類
  6
CONTINUOUS
 62
    7
 10
211.1416901169942
 20
101.33944460897803
 11
211.0116901169942
 21
101.26440460897803
  0
LINE
  8
_1-6_アンカ__類
  6
CONTINUOUS
 62
    7
 10
209.96169011699419
 20
101.15844460897803
 11
209.96169011699419
 21
101.17844460897803
  0
LINE
  8
_1-6_アンカ__類
  6
CONTINUOUS
 62
    7
 10
209.96169011699419
 20
101.17844460897803
 11
210.09169011699424
 21
101.25348460897803
  0
LINE
  8
_1-6_アンカ__類
  6
CONTINUOUS
 62
    7
 10
209.96169011699419
 20
101.15844460897803
 11
210.09169011699424
 21
101.08340460897803
  0
LINE
  8
_1-6_アンカ__類
  6
CONTINUOUS
 62
    7
 10
211.0116901169942
 20
101.26440460897803
 11
210.09169011699424
 21
101.08340460897803
  0
LINE
  8
_1-6_アンカ__類
  6
CONTINUOUS
 62
    7
 10
210.09169011699424
 20
101.25348460897803
 11
211.0116901169942
 21
101.43448460897802
  0
LINE
  8
_1-6_アンカ__類
  6
CONTINUOUS
 62
    7
 10
211.1416901169942
 20
100.97744460897803
 11
210.86549011699418
 21
100.93252460897803
  0
LINE
  8
_1-6_アンカ__類
  6
CONTINUOUS
 62
    7
 10
210.71985011699422
 20
100.90888460897803
 11
209.97633011699423
 21
100.78800460897803
  0
LINE
  8
_1-6_アンカ__類
  6
CONTINUOUS
 62
    7
 10
211.1416901169942
 20
100.99744460897803
 11
210.81693011699423
 21
100.94896460897803
  0
LINE
  8
_1-6_アンカ__類
  6
CONTINUOUS
 62
    7
 10
210.80453011699421
 20
100.94712460897803
 11
209.9731701169942
 21
100.82304460897802
  0
LINE
  8
_1-6_アンカ__類
  6
CONTINUOUS
 62
    7
 10
211.1416901169942
 20
100.97744460897803
 11
211.1416901169942
 21
100.99744460897803
  0
LINE
  8
_1-6_アンカ__類
  6
CONTINUOUS
 62
    7
 10
211.1416901169942
 20
100.99744460897803
 11
211.0116901169942
 21
101.07248460897803
  0
LINE
  8
_1-6_アンカ__類
  6
CONTINUOUS
 62
    7
 10
211.1416901169942
 20
100.97744460897803
 11
211.01253011699424
 21
100.90288460897803
  0
LINE
  8
_1-6_アンカ__類
  6
CONTINUOUS
 62
    7
 10
209.97633011699423
 20
100.78800460897803
 11
209.9731701169942
 21
100.82304460897802
  0
LINE
  8
_1-6_アンカ__類
  6
CONTINUOUS
 62
    7
 10
209.9731701169942
 20
100.82304460897802
 11
210.0906501169942
 21
100.89088460897803
  0
LINE
  8
_1-6_アンカ__類
  6
CONTINUOUS
 62
    7
 10
209.97633011699423
 20
100.78800460897803
 11
210.08773011699424
 21
100.72368460897803
  0
LINE
  8
_1-6_アンカ__類
  6
CONTINUOUS
 62
    7
 10
211.01253011699424
 20
100.90288460897803
 11
210.90929011699421
 21
100.88288460897803
  0
LINE
  8
_1-6_アンカ__類
  6
CONTINUOUS
 62
    7
 10
210.70517011699422
 20
100.84332460897804
 11
210.08773011699424
 21
100.72368460897803
  0
LINE
  8
_1-6_アンカ__類
  6
CONTINUOUS
 62
    7
 10
210.0906501169942
 20
100.89088460897803
 11
211.0116901169942
 21
101.07248460897803
  0
LINE
  8
_1-6_アンカ__類
  6
CONTINUOUS
 62
    7
 10
210.09169011699424
 20
101.44540460897802
 11
210.09169011699424
 21
101.25348460897803
  0
LINE
  8
_1-6_アンカ__類
  6
CONTINUOUS
 62
    7
 10
211.0116901169942
 20
101.62640460897802
 11
211.0116901169942
 21
101.43448460897802
  0
LINE
  8
_1-6_アンカ__類
  6
CONTINUOUS
 62
    7
 10
210.08149011699419
 20
100.36528460897803
 11
210.07789011699418
 21
100.15952460897803
  0
LINE
  8
_1-6_アンカ__類
  6
CONTINUOUS
 62
    7
 10
211.01877011699418
 20
100.54448460897802
 11
211.02233011699423
 21
100.34236460897803
  0
LINE
  8
_1-6_アンカ__類
  6
CONTINUOUS
 62
    7
 10
211.10989011699422
 20
100.59708460897804
 11
210.89329011699419
 21
100.55944460897803
  0
LINE
  8
_1-6_アンカ__類
  6
CONTINUOUS
 62
    7
 10
210.58865011699419
 20
100.50656460897802
 11
210.01069011699423
 21
100.40616460897803
  0
LINE
  8
_1-6_アンカ__類
  6
CONTINUOUS
 62
    7
 10
211.11477011699418
 20
100.65100460897803
 11
210.88905011699421
 21
100.61604460897803
  0
LINE
  8
_1-6_アンカ__類
  6
CONTINUOUS
 62
    7
 10
210.60329011699423
 20
100.57176460897803
 11
210.00413011699419
 21
100.47896460897803
  0
LINE
  8
_1-6_アンカ__類
  6
CONTINUOUS
 62
    7
 10
211.10989011699422
 20
100.59708460897804
 11
211.11477011699418
 21
100.65100460897803
  0
LINE
  8
_1-6_アンカ__類
  6
CONTINUOUS
 62
    7
 10
211.11477011699418
 20
100.65100460897803
 11
211.01593011699418
 21
100.70804460897803
  0
LINE
  8
_1-6_アンカ__類
  6
CONTINUOUS
 62
    7
 10
211.10989011699422
 20
100.59708460897804
 11
211.01877011699418
 21
100.54448460897802
  0
LINE
  8
_1-6_アンカ__類
  6
CONTINUOUS
 62
    7
 10
210.01069011699423
 20
100.40616460897803
 11
210.00413011699419
 21
100.47896460897803
  0
LINE
  8
_1-6_アンカ__類
  6
CONTINUOUS
 62
    7
 10
210.00413011699419
 20
100.47896460897803
 11
210.08429011699423
 21
100.52520460897803
  0
LINE
  8
_1-6_アンカ__類
  6
CONTINUOUS
 62
    7
 10
210.01069011699423
 20
100.40616460897803
 11
210.08149011699419
 21
100.36528460897803
  0
LINE
  8
_1-6_アンカ__類
  6
CONTINUOUS
 62
    7
 10
211.01877011699418
 20
100.54448460897802
 11
210.93569011699418
 21
100.52860460897803
  0
LINE
  8
_1-6_アンカ__類
  6
CONTINUOUS
 62
    7
 10
210.6210901169942
 20
100.46844460897803
 11
210.08149011699419
 21
100.36528460897803
  0
LINE
  8
_1-6_アンカ__類
  6
CONTINUOUS
 62
    7
 10
210.08429011699423
 20
100.52520460897803
 11
210.65913011699422
 21
100.63804460897802
  0
LINE
  8
_1-6_アンカ__類
  6
CONTINUOUS
 62
    7
 10
210.92369011699418
 20
100.68996460897803
 11
211.01593011699418
 21
100.70804460897803
  0
LINE
  8
_1-6_アンカ__類
  6
CONTINUOUS
 62
    7
 10
211.07553011699423
 20
100.21524460897803
 11
210.92105011699419
 21
100.18660460897803
  0
LINE
  8
_1-6_アンカ__類
  6
CONTINUOUS
 62
    7
 10
210.49937011699421
 20
100.10848460897803
 11
210.04505011699422
 21
100.02432460897802
  0
LINE
  8
_1-6_アンカ__類
  6
CONTINUOUS
 62
    7
 10
211.08377011699423
 20
100.30688460897802
 11
210.91417011699423
 21
100.27904460897803
  0
LINE
  8
_1-6_アンカ__類
  6
CONTINUOUS
 62
    7
 10
210.52325011699423
 20
100.21492460897804
 11
210.03509011699418
 21
100.13484460897803
  0
LINE
  8
_1-6_アンカ__類
  6
CONTINUOUS
 62
    7
 10
211.07553011699423
 20
100.21524460897803
 11
211.08377011699423
 21
100.30688460897802
  0
LINE
  8
_1-6_アンカ__類
  6
CONTINUOUS
 62
    7
 10
211.08377011699423
 20
100.30688460897802
 11
211.02233011699423
 21
100.34236460897803
  0
LINE
  8
_1-6_アンカ__類
  6
CONTINUOUS
 62
    7
 10
211.07553011699423
 20
100.21524460897803
 11
211.02505011699424
 21
100.18608460897804
  0
LINE
  8
_1-6_アンカ__類
  6
CONTINUOUS
 62
    7
 10
210.04505011699422
 20
100.02432460897802
 11
210.03509011699418
 21
100.13484460897803
  0
LINE
  8
_1-6_アンカ__類
  6
CONTINUOUS
 62
    7
 10
210.03509011699418
 20
100.13484460897803
 11
210.07789011699418
 21
100.15952460897803
  0
LINE
  8
_1-6_アンカ__類
  6
CONTINUOUS
 62
    7
 10
210.04505011699422
 20
100.02432460897802
 11
210.0752501169942
 21
100.00688460897803
  0
LINE
  8
_1-6_アンカ__類
  6
CONTINUOUS
 62
    7
 10
211.02505011699424
 20
100.18608460897804
 11
210.9620901169942
 21
100.17420460897803
  0
LINE
  8
_1-6_アンカ__類
  6
CONTINUOUS
 62
    7
 10
210.53713011699421
 20
100.09404460897802
 11
210.0752501169942
 21
100.00688460897803
  0
LINE
  8
_1-6_アンカ__類
  6
CONTINUOUS
 62
    7
 10
210.07789011699418
 20
100.15952460897803
 11
210.57333011699421
 21
100.25544460897802
  0
LINE
  8
_1-6_アンカ__類
  6
CONTINUOUS
 62
    7
 10
210.9506101169942
 20
100.32848460897803
 11
211.02233011699423
 21
100.34236460897803
  0
LINE
  8
_1-6_アンカ__類
  6
CONTINUOUS
 62
    7
 10
210.08773011699424
 20
100.72368460897803
 11
210.08429011699423
 21
100.52520460897803
  0
LINE
  8
_1-6_アンカ__類
  6
CONTINUOUS
 62
    7
 10
211.01253011699424
 20
100.90288460897803
 11
211.01593011699418
 21
100.70804460897803
  0
LINE
  8
_1-6_アンカ__類
  6
CONTINUOUS
 62
    7
 10
211.05281011699418
 20
99.962764608978034
 11
210.98217011699421
 21
99.950444608978032
  0
LINE
  8
_1-6_アンカ__類
  6
CONTINUOUS
 62
    7
 10
211.05169011699422
 20
99.950444608978032
 11
211.05281011699418
 21
99.962764608978034
  0
LINE
  8
_1-6_アンカ__類
  6
CONTINUOUS
 62
    7
 10
211.05281011699418
 20
99.962764608978034
 11
211.0286901169942
 21
99.976684608978033
  0
LINE
  8
_1-6_アンカ__類
  6
CONTINUOUS
 62
    7
 10
210.97753011699422
 20
99.966924608978033
 11
211.0286901169942
 21
99.976684608978033
  0
LINE
  8
_1-6_アンカ__類
  6
CONTINUOUS
 62
    7
 10
210.0752501169942
 20
100.00688460897803
 11
210.07425011699422
 21
99.950444608978032
  0
LINE
  8
_1-6_アンカ__類
  6
CONTINUOUS
 62
    7
 10
211.02505011699424
 20
100.18608460897804
 11
211.0286901169942
 21
99.976684608978033
  0
LINE
  8
_1-6_アンカ__類
  6
CONTINUOUS
 62
    7
 10
210.09169011699424
 20
100.95044460897803
 11
210.0906501169942
 21
100.89088460897803
  0
LINE
  8
_1-6_アンカ__類
  6
CONTINUOUS
 62
    7
 10
210.05169011699422
 20
99.950444608978032
 11
210.50493011699422
 21
99.950444608978032
  0
LINE
  8
_1-6_アンカ__類
  6
CONTINUOUS
 62
    7
 10
210.95117011699421
 20
99.950444608978032
 11
211.05169011699422
 21
99.950444608978032
  0
LINE
  8
_1-6_アンカ__類
  6
CONTINUOUS
 62
    7
 10
210.97753011699422
 20
99.966924608978033
 11
210.9620901169942
 21
100.17420460897803
  0
LINE
  8
_1-6_アンカ__類
  6
CONTINUOUS
 62
    7
 10
210.9506101169942
 20
100.32848460897803
 11
210.93569011699418
 21
100.52860460897803
  0
LINE
  8
_1-6_アンカ__類
  6
CONTINUOUS
 62
    7
 10
210.92369011699418
 20
100.68996460897803
 11
210.90929011699421
 21
100.88288460897803
  0
LINE
  8
_1-6_アンカ__類
  6
CONTINUOUS
 62
    7
 10
210.92105011699419
 20
100.18660460897803
 11
210.91417011699423
 21
100.27904460897803
  0
LINE
  8
_1-6_アンカ__類
  6
CONTINUOUS
 62
    7
 10
210.89329011699419
 20
100.55944460897803
 11
210.88905011699421
 21
100.61604460897803
  0
LINE
  8
_1-6_アンカ__類
  6
CONTINUOUS
 62
    7
 10
210.86549011699418
 20
100.93252460897803
 11
210.86425011699419
 21
100.94924460897803
  0
LINE
  8
_1-6_アンカ__類
  6
CONTINUOUS
 62
    7
 10
210.50493011699422
 20
99.950444608978032
 11
210.72057011699422
 21
100.91196460897802
  0
LINE
  8
_1-6_アンカ__類
  6
CONTINUOUS
 62
    7
 10
210.49937011699421
 20
100.10848460897803
 11
210.52325011699423
 21
100.21492460897804
  0
LINE
  8
_1-6_アンカ__類
  6
CONTINUOUS
 62
    7
 10
210.58865011699419
 20
100.50656460897802
 11
210.60329011699423
 21
100.57176460897803
  0
LINE
  8
_1-6_アンカ__類
  6
CONTINUOUS
 62
    7
 10
210.97753011699422
 20
99.966924608978033
 11
210.95117011699421
 21
99.950444608978032
  0
LINE
  8
_1-6_アンカ__類
  6
CONTINUOUS
 62
    7
 10
210.9506101169942
 20
100.32848460897803
 11
210.91417011699423
 21
100.27904460897803
  0
LINE
  8
_1-6_アンカ__類
  6
CONTINUOUS
 62
    7
 10
210.92105011699419
 20
100.18660460897803
 11
210.9620901169942
 21
100.17420460897803
  0
LINE
  8
_1-6_アンカ__類
  6
CONTINUOUS
 62
    7
 10
210.92369011699418
 20
100.68996460897803
 11
210.88905011699421
 21
100.61604460897803
  0
LINE
  8
_1-6_アンカ__類
  6
CONTINUOUS
 62
    7
 10
210.89329011699419
 20
100.55944460897803
 11
210.93569011699418
 21
100.52860460897803
  0
LINE
  8
_1-6_アンカ__類
  6
CONTINUOUS
 62
    7
 10
210.90929011699421
 20
100.88288460897803
 11
210.86549011699418
 21
100.93252460897803
  0
LINE
  8
_1-6_アンカ__類
  6
CONTINUOUS
 62
    7
 10
210.65913011699422
 20
100.63804460897802
 11
210.60329011699423
 21
100.57176460897803
  0
LINE
  8
_1-6_アンカ__類
  6
CONTINUOUS
 62
    7
 10
210.58865011699419
 20
100.50656460897802
 11
210.6210901169942
 21
100.46844460897803
  0
LINE
  8
_1-6_アンカ__類
  6
CONTINUOUS
 62
    7
 10
210.52325011699423
 20
100.21492460897804
 11
210.57333011699421
 21
100.25544460897802
  0
LINE
  8
_1-6_アンカ__類
  6
CONTINUOUS
 62
    7
 10
210.49937011699421
 20
100.10848460897803
 11
210.53713011699421
 21
100.09404460897802
  0
LINE
  8
_1-6_アンカ__類
  6
CONTINUOUS
 62
    7
 10
211.0116901169942
 20
104.78844460897803
 11
211.0116901169942
 21
104.69248460897802
  0
LINE
  8
_1-6_アンカ__類
  6
CONTINUOUS
 62
    7
 10
210.77345011699418
 20
101.21752460897802
 11
210.75377011699419
 21
101.38376460897803
  0
LINE
  8
_1-6_アンカ__類
  6
CONTINUOUS
 62
    7
 10
210.73153011699424
 20
101.57128460897803
 11
210.71181011699423
 21
101.73748460897804
  0
LINE
  8
_1-6_アンカ__類
  6
CONTINUOUS
 62
    7
 10
210.68957011699422
 20
101.92500460897803
 11
210.68657011699423
 21
101.95044460897803
  0
LINE
  8
_1-6_アンカ__類
  6
CONTINUOUS
 62
    7
 10
210.8449701169942
 20
101.29392460897803
 11
210.84265011699421
 21
101.31356460897803
  0
LINE
  8
_1-6_アンカ__類
  6
CONTINUOUS
 62
    7
 10
210.80281011699418
 20
101.64944460897803
 11
210.80049011699418
 21
101.66912460897802
  0
LINE
  8
_1-6_アンカ__類
  6
CONTINUOUS
 62
    7
 10
210.68673011699417
 20
101.26964460897803
 11
210.68441011699423
 21
101.28928460897802
  0
LINE
  8
_1-6_アンカ__類
  6
CONTINUOUS
 62
    7
 10
210.6445701169942
 20
101.62520460897802
 11
210.64225011699421
 21
101.64484460897803
  0
LINE
  8
_1-6_アンカ__類
  6
CONTINUOUS
 62
    7
 10
210.84265011699421
 20
101.31356460897803
 11
210.75377011699419
 21
101.38376460897803
  0
LINE
  8
_1-6_アンカ__類
  6
CONTINUOUS
 62
    7
 10
210.75377011699419
 20
101.38376460897803
 11
210.68441011699423
 21
101.28928460897802
  0
LINE
  8
_1-6_アンカ__類
  6
CONTINUOUS
 62
    7
 10
210.68673011699417
 20
101.26964460897803
 11
210.77345011699418
 21
101.21752460897802
  0
LINE
  8
_1-6_アンカ__類
  6
CONTINUOUS
 62
    7
 10
210.77345011699418
 20
101.21752460897802
 11
210.8449701169942
 21
101.29392460897803
  0
LINE
  8
_1-6_アンカ__類
  6
CONTINUOUS
 62
    7
 10
210.80049011699418
 20
101.66912460897802
 11
210.71181011699423
 21
101.73748460897804
  0
LINE
  8
_1-6_アンカ__類
  6
CONTINUOUS
 62
    7
 10
210.71181011699423
 20
101.73748460897804
 11
210.64225011699421
 21
101.64484460897803
  0
LINE
  8
_1-6_アンカ__類
  6
CONTINUOUS
 62
    7
 10
210.6445701169942
 20
101.62520460897802
 11
210.73153011699424
 21
101.57128460897803
  0
LINE
  8
_1-6_アンカ__類
  6
CONTINUOUS
 62
    7
 10
210.73153011699424
 20
101.57128460897803
 11
210.80281011699418
 21
101.64944460897803
  0
LINE
  8
_1-6_アンカ__類
  6
CONTINUOUS
 62
    7
 10
210.71217011699423
 20
101.95044460897803
 11
210.68957011699422
 21
101.92500460897803
  0
LINE
  8
_1-6_アンカ__類
  6
CONTINUOUS
 62
    7
 10
210.68957011699422
 20
101.92500460897803
 11
210.6497701169942
 21
101.95044460897803
  0
LINE
  8
_1-6_アンカ__類
  6
CONTINUOUS
 62
    7
 10
210.71217011699423
 20
101.95044460897803
 11
210.6497701169942
 21
101.95044460897803
  0
LINE
  8
_1-6_アンカ__類
  6
CONTINUOUS
 62
    7
 10
210.19169011699421
 20
110.15044460897803
 11
210.21089011699422
 21
109.60120460897802
  0
LINE
  8
_1-6_アンカ__類
  6
CONTINUOUS
 62
    7
 10
210.55169011699422
 20
109.40444460897803
 11
210.21089011699422
 21
109.60120460897802
  0
LINE
  8
_1-6_アンカ__類
  6
CONTINUOUS
 62
    7
 10
210.55169011699422
 20
109.40444460897803
 11
210.89253011699418
 21
109.60120460897802
  0
LINE
  8
_1-6_アンカ__類
  6
CONTINUOUS
 62
    7
 10
210.91169011699418
 20
110.15044460897803
 11
210.89253011699418
 21
109.60120460897802
  0
LINE
  8
_1-6_アンカ__類
  6
CONTINUOUS
 62
    7
 10
219.35169011699423
 20
110.15044460897803
 11
221.75169011699421
 21
110.15044460897803
  0
LINE
  8
_1-6_アンカ__類
  6
CONTINUOUS
 62
    7
 10
219.35169011699423
 20
110.05044460897803
 11
221.75169011699421
 21
110.05044460897803
  0
LINE
  8
_1-6_アンカ__類
  6
CONTINUOUS
 62
    7
 10
221.75169011699421
 20
110.05044460897803
 11
221.75169011699421
 21
110.15044460897803
  0
LINE
  8
_1-6_アンカ__類
  6
CONTINUOUS
 62
    7
 10
219.35169011699423
 20
110.15044460897803
 11
219.35169011699423
 21
110.05044460897803
  0
LINE
  8
_1-6_アンカ__類
  6
CONTINUOUS
 62
    7
 10
220.09169011699424
 20
104.70340460897802
 11
220.09169011699424
 21
104.51148460897802
  0
LINE
  8
_1-6_アンカ__類
  6
CONTINUOUS
 62
    7
 10
221.01513011699421
 20
104.88636460897803
 11
221.0116901169942
 21
104.78844460897803
  0
LINE
  8
_1-6_アンカ__類
  6
CONTINUOUS
 62
    7
 10
220.0596901169942
 20
109.17676460897803
 11
220.0596901169942
 21
105.15044460897803
  0
LINE
  8
_1-6_アンカ__類
  6
CONTINUOUS
 62
    7
 10
221.04369011699424
 20
109.17676460897803
 11
221.04369011699424
 21
105.15044460897803
  0
LINE
  8
_1-6_アンカ__類
  6
CONTINUOUS
 62
    7
 10
219.35169011699423
 20
110.05044460897803
 11
219.94253011699419
 21
109.45960460897803
  0
LINE
  8
_1-6_アンカ__類
  6
CONTINUOUS
 62
    7
 10
221.75169011699421
 20
110.05044460897803
 11
221.1608501169942
 21
109.45960460897803
  0
LINE
  8
_1-6_アンカ__類
  6
CONTINUOUS
 62
    7
 10
221.04369011699424
 20
109.34244460897803
 11
220.0596901169942
 21
109.34244460897803
  0
LINE
  8
_1-6_アンカ__類
  6
CONTINUOUS
 62
    7
 10
220.15169011699419
 20
98.837244608978025
 11
220.15169011699419
 21
99.950444608978032
  0
LINE
  8
_1-6_アンカ__類
  6
CONTINUOUS
 62
    7
 10
220.9516901169942
 20
98.591924608978033
 11
220.9516901169942
 21
100.15044460897803
  0
LINE
  8
_1-6_アンカ__類
  6
CONTINUOUS
 62
    7
 10
220.05169011699422
 20
98.545284608978022
 11
220.05169011699422
 21
99.950444608978032
  0
LINE
  8
_1-6_アンカ__類
  6
CONTINUOUS
 62
    7
 10
220.54977011699418
 20
100.15044460897803
 11
220.96385011699419
 21
100.15044460897803
  0
LINE
  8
_1-6_アンカ__類
  6
CONTINUOUS
 62
    7
 10
220.88169011699421
 20
98.800164608978037
 11
220.88169011699421
 21
100.15044460897803
  0
LINE
  8
_1-6_アンカ__類
  6
CONTINUOUS
 62
    7
 10
220.58273011699418
 20
98.28232460897803
 11
220.55169011699422
 21
98.150444608978034
  0
LINE
  8
_1-6_アンカ__類
  6
CONTINUOUS
 62
    7
 10
221.05169011699422
 20
99.950444608978032
 11
221.05169011699422
 21
98.545284608978022
  0
LINE
  8
_1-6_アンカ__類
  6
CONTINUOUS
 62
    7
 10
220.63169011699421
 20
98.779724608978029
 11
220.63169011699421
 21
100.51576460897803
  0
LINE
  8
_1-6_アンカ__類
  6
CONTINUOUS
 62
    7
 10
220.9516901169942
 20
98.591924608978033
 11
221.05169011699422
 21
98.545284608978022
  0
LINE
  8
_1-6_アンカ__類
  6
CONTINUOUS
 62
    7
 10
220.5116901169942
 20
98.159324608978025
 11
220.55169011699422
 21
98.150444608978034
  0
LINE
  8
_1-6_アンカ__類
  6
CONTINUOUS
 62
    7
 10
220.55169011699422
 20
98.150444608978034
 11
220.59169011699424
 21
98.159324608978025
  0
LINE
  8
_1-6_アンカ__類
  6
CONTINUOUS
 62
    7
 10
220.58273011699418
 20
98.28232460897803
 11
220.59169011699424
 21
98.159324608978025
  0
LINE
  8
_1-6_アンカ__類
  6
CONTINUOUS
 62
    7
 10
220.49513011699423
 20
98.405564608978025
 11
220.55169011699422
 21
98.150444608978034
  0
LINE
  8
_1-6_アンカ__類
  6
CONTINUOUS
 62
    7
 10
220.12669011699421
 20
98.717364608978031
 11
220.05169011699422
 21
98.545284608978022
  0
LINE
  8
_1-6_アンカ__類
  6
CONTINUOUS
 62
    7
 10
220.2541701169942
 20
98.688684608978036
 11
220.3950901169942
 21
98.570444608978022
  0
LINE
  8
_1-6_アンカ__類
  6
CONTINUOUS
 62
    7
 10
220.05169011699422
 20
98.545284608978022
 11
220.5116901169942
 21
98.159324608978025
  0
LINE
  8
_1-6_アンカ__類
  6
CONTINUOUS
 62
    7
 10
220.9516901169942
 20
98.591924608978033
 11
220.58273011699418
 21
98.28232460897803
  0
LINE
  8
_1-6_アンカ__類
  6
CONTINUOUS
 62
    7
 10
221.05169011699422
 20
98.545284608978022
 11
220.59169011699424
 21
98.159324608978025
  0
LINE
  8
_1-6_アンカ__類
  6
CONTINUOUS
 62
    7
 10
220.53269011699422
 20
98.608204608978028
 11
220.63169011699421
 21
98.779724608978029
  0
LINE
  8
_1-6_アンカ__類
  6
CONTINUOUS
 62
    7
 10
220.88169011699421
 20
98.800164608978037
 11
220.58273011699418
 21
98.28232460897803
  0
LINE
  8
_1-6_アンカ__類
  6
CONTINUOUS
 62
    7
 10
221.04369011699424
 20
105.15044460897803
 11
220.0596901169942
 21
105.15044460897803
  0
LINE
  8
_1-6_アンカ__類
  6
CONTINUOUS
 62
    7
 10
221.10165011699422
 20
104.93632460897803
 11
219.96169011699419
 21
104.77844460897802
  0
LINE
  8
_1-6_アンカ__類
  6
CONTINUOUS
 62
    7
 10
221.08041011699419
 20
105.01484460897802
 11
219.96169011699419
 21
104.79844460897803
  0
LINE
  8
_1-6_アンカ__類
  6
CONTINUOUS
 62
    7
 10
221.10165011699422
 20
104.93632460897803
 11
221.08041011699419
 21
105.01484460897802
  0
LINE
  8
_1-6_アンカ__類
  6
CONTINUOUS
 62
    7
 10
221.08041011699419
 20
105.01484460897802
 11
221.0208101169942
 21
105.04924460897803
  0
LINE
  8
_1-6_アンカ__類
  6
CONTINUOUS
 62
    7
 10
221.10165011699422
 20
104.93632460897803
 11
221.01513011699421
 21
104.88636460897803
  0
LINE
  8
_1-6_アンカ__類
  6
CONTINUOUS
 62
    7
 10
219.96169011699419
 20
104.77844460897802
 11
219.96169011699419
 21
104.79844460897803
  0
LINE
  8
_1-6_アンカ__類
  6
CONTINUOUS
 62
    7
 10
219.96169011699419
 20
104.79844460897803
 11
220.08881011699424
 21
104.87180460897802
  0
LINE
  8
_1-6_アンカ__類
  6
CONTINUOUS
 62
    7
 10
219.96169011699419
 20
104.77844460897802
 11
220.09169011699424
 21
104.70340460897802
  0
LINE
  8
_1-6_アンカ__類
  6
CONTINUOUS
 62
    7
 10
221.01513011699421
 20
104.88636460897803
 11
220.09169011699424
 21
104.70340460897802
  0
LINE
  8
_1-6_アンカ__類
  6
CONTINUOUS
 62
    7
 10
220.08881011699424
 20
104.87180460897802
 11
221.0208101169942
 21
105.04924460897803
  0
LINE
  8
_1-6_アンカ__類
  6
CONTINUOUS
 62
    7
 10
221.1416901169942
 20
104.59744460897802
 11
219.96169011699419
 21
104.41644460897803
  0
LINE
  8
_1-6_アンカ__類
  6
CONTINUOUS
 62
    7
 10
221.1416901169942
 20
104.61744460897802
 11
219.96169011699419
 21
104.43644460897804
  0
LINE
  8
_1-6_アンカ__類
  6
CONTINUOUS
 62
    7
 10
221.1416901169942
 20
104.59744460897802
 11
221.1416901169942
 21
104.61744460897802
  0
LINE
  8
_1-6_アンカ__類
  6
CONTINUOUS
 62
    7
 10
221.1416901169942
 20
104.61744460897802
 11
221.0116901169942
 21
104.69248460897802
  0
LINE
  8
_1-6_アンカ__類
  6
CONTINUOUS
 62
    7
 10
221.1416901169942
 20
104.59744460897802
 11
221.0116901169942
 21
104.52240460897802
  0
LINE
  8
_1-6_アンカ__類
  6
CONTINUOUS
 62
    7
 10
219.96169011699419
 20
104.41644460897803
 11
219.96169011699419
 21
104.43644460897804
  0
LINE
  8
_1-6_アンカ__類
  6
CONTINUOUS
 62
    7
 10
219.96169011699419
 20
104.43644460897804
 11
220.09169011699424
 21
104.51148460897802
  0
LINE
  8
_1-6_アンカ__類
  6
CONTINUOUS
 62
    7
 10
219.96169011699419
 20
104.41644460897803
 11
220.09169011699424
 21
104.34140460897802
  0
LINE
  8
_1-6_アンカ__類
  6
CONTINUOUS
 62
    7
 10
221.0116901169942
 20
104.52240460897802
 11
220.09169011699424
 21
104.34140460897802
  0
LINE
  8
_1-6_アンカ__類
  6
CONTINUOUS
 62
    7
 10
220.09169011699424
 20
104.51148460897802
 11
221.0116901169942
 21
104.69248460897802
  0
LINE
  8
_1-6_アンカ__類
  6
CONTINUOUS
 62
    7
 10
220.08185011699419
 20
105.07108460897803
 11
220.08881011699424
 21
104.87180460897802
  0
LINE
  8
_1-6_アンカ__類
  6
CONTINUOUS
 62
    7
 10
221.02433011699424
 20
105.15044460897803
 11
221.0208101169942
 21
105.04924460897803
  0
LINE
  8
_1-6_アンカ__類
  6
CONTINUOUS
 62
    7
 10
220.3206101169942
 20
105.15044460897803
 11
220.04413011699421
 21
105.09284460897803
  0
LINE
  8
_1-6_アンカ__類
  6
CONTINUOUS
 62
    7
 10
220.04413011699421
 20
105.09284460897803
 11
220.0596901169942
 21
105.15044460897803
  0
LINE
  8
_1-6_アンカ__類
  6
CONTINUOUS
 62
    7
 10
220.04413011699421
 20
105.09284460897803
 11
220.08185011699419
 21
105.07108460897803
  0
LINE
  8
_1-6_アンカ__類
  6
CONTINUOUS
 62
    7
 10
220.48833011699418
 20
105.15044460897803
 11
220.08185011699419
 21
105.07108460897803
  0
LINE
  8
_1-6_アンカ__類
  6
CONTINUOUS
 62
    7
 10
220.09169011699424
 20
103.97940460897803
 11
220.09169011699424
 21
103.78748460897803
  0
LINE
  8
_1-6_アンカ__類
  6
CONTINUOUS
 62
    7
 10
221.0116901169942
 20
104.16040460897803
 11
221.0116901169942
 21
103.96848460897803
  0
LINE
  8
_1-6_アンカ__類
  6
CONTINUOUS
 62
    7
 10
221.1416901169942
 20
104.23544460897803
 11
219.96169011699419
 21
104.05444460897803
  0
LINE
  8
_1-6_アンカ__類
  6
CONTINUOUS
 62
    7
 10
221.1416901169942
 20
104.25544460897802
 11
219.96169011699419
 21
104.07444460897803
  0
LINE
  8
_1-6_アンカ__類
  6
CONTINUOUS
 62
    7
 10
221.1416901169942
 20
104.23544460897803
 11
221.1416901169942
 21
104.25544460897802
  0
LINE
  8
_1-6_アンカ__類
  6
CONTINUOUS
 62
    7
 10
221.1416901169942
 20
104.25544460897802
 11
221.0116901169942
 21
104.33048460897803
  0
LINE
  8
_1-6_アンカ__類
  6
CONTINUOUS
 62
    7
 10
221.1416901169942
 20
104.23544460897803
 11
221.0116901169942
 21
104.16040460897803
  0
LINE
  8
_1-6_アンカ__類
  6
CONTINUOUS
 62
    7
 10
219.96169011699419
 20
104.05444460897803
 11
219.96169011699419
 21
104.07444460897803
  0
LINE
  8
_1-6_アンカ__類
  6
CONTINUOUS
 62
    7
 10
219.96169011699419
 20
104.07444460897803
 11
220.09169011699424
 21
104.14948460897803
  0
LINE
  8
_1-6_アンカ__類
  6
CONTINUOUS
 62
    7
 10
219.96169011699419
 20
104.05444460897803
 11
220.09169011699424
 21
103.97940460897803
  0
LINE
  8
_1-6_アンカ__類
  6
CONTINUOUS
 62
    7
 10
221.0116901169942
 20
104.16040460897803
 11
220.09169011699424
 21
103.97940460897803
  0
LINE
  8
_1-6_アンカ__類
  6
CONTINUOUS
 62
    7
 10
220.09169011699424
 20
104.14948460897803
 11
221.0116901169942
 21
104.33048460897803
  0
LINE
  8
_1-6_アンカ__類
  6
CONTINUOUS
 62
    7
 10
221.1416901169942
 20
103.87344460897803
 11
219.96169011699419
 21
103.69244460897804
  0
LINE
  8
_1-6_アンカ__類
  6
CONTINUOUS
 62
    7
 10
221.1416901169942
 20
103.89344460897803
 11
219.96169011699419
 21
103.71244460897803
  0
LINE
  8
_1-6_アンカ__類
  6
CONTINUOUS
 62
    7
 10
221.1416901169942
 20
103.87344460897803
 11
221.1416901169942
 21
103.89344460897803
  0
LINE
  8
_1-6_アンカ__類
  6
CONTINUOUS
 62
    7
 10
221.1416901169942
 20
103.89344460897803
 11
221.0116901169942
 21
103.96848460897803
  0
LINE
  8
_1-6_アンカ__類
  6
CONTINUOUS
 62
    7
 10
221.1416901169942
 20
103.87344460897803
 11
221.0116901169942
 21
103.79840460897803
  0
LINE
  8
_1-6_アンカ__類
  6
CONTINUOUS
 62
    7
 10
219.96169011699419
 20
103.69244460897804
 11
219.96169011699419
 21
103.71244460897803
  0
LINE
  8
_1-6_アンカ__類
  6
CONTINUOUS
 62
    7
 10
219.96169011699419
 20
103.71244460897803
 11
220.09169011699424
 21
103.78748460897803
  0
LINE
  8
_1-6_アンカ__類
  6
CONTINUOUS
 62
    7
 10
219.96169011699419
 20
103.69244460897804
 11
220.09169011699424
 21
103.61740460897803
  0
LINE
  8
_1-6_アンカ__類
  6
CONTINUOUS
 62
    7
 10
221.0116901169942
 20
103.79840460897803
 11
220.09169011699424
 21
103.61740460897803
  0
LINE
  8
_1-6_アンカ__類
  6
CONTINUOUS
 62
    7
 10
220.09169011699424
 20
103.78748460897803
 11
221.0116901169942
 21
103.96848460897803
  0
LINE
  8
_1-6_アンカ__類
  6
CONTINUOUS
 62
    7
 10
220.09169011699424
 20
104.34140460897802
 11
220.09169011699424
 21
104.14948460897803
  0
LINE
  8
_1-6_アンカ__類
  6
CONTINUOUS
 62
    7
 10
221.0116901169942
 20
104.52240460897802
 11
221.0116901169942
 21
104.33048460897803
  0
LINE
  8
_1-6_アンカ__類
  6
CONTINUOUS
 62
    7
 10
220.09169011699424
 20
103.25540460897803
 11
220.09169011699424
 21
103.06348460897803
  0
LINE
  8
_1-6_アンカ__類
  6
CONTINUOUS
 62
    7
 10
221.0116901169942
 20
103.43640460897802
 11
221.0116901169942
 21
103.24448460897803
  0
LINE
  8
_1-6_アンカ__類
  6
CONTINUOUS
 62
    7
 10
221.1416901169942
 20
103.51144460897802
 11
219.96169011699419
 21
103.33044460897803
  0
LINE
  8
_1-6_アンカ__類
  6
CONTINUOUS
 62
    7
 10
221.1416901169942
 20
103.53144460897803
 11
219.96169011699419
 21
103.35044460897802
  0
LINE
  8
_1-6_アンカ__類
  6
CONTINUOUS
 62
    7
 10
221.1416901169942
 20
103.51144460897802
 11
221.1416901169942
 21
103.53144460897803
  0
LINE
  8
_1-6_アンカ__類
  6
CONTINUOUS
 62
    7
 10
221.1416901169942
 20
103.53144460897803
 11
221.0116901169942
 21
103.60648460897804
  0
LINE
  8
_1-6_アンカ__類
  6
CONTINUOUS
 62
    7
 10
221.1416901169942
 20
103.51144460897802
 11
221.0116901169942
 21
103.43640460897802
  0
LINE
  8
_1-6_アンカ__類
  6
CONTINUOUS
 62
    7
 10
219.96169011699419
 20
103.33044460897803
 11
219.96169011699419
 21
103.35044460897802
  0
LINE
  8
_1-6_アンカ__類
  6
CONTINUOUS
 62
    7
 10
219.96169011699419
 20
103.35044460897802
 11
220.09169011699424
 21
103.42548460897802
  0
LINE
  8
_1-6_アンカ__類
  6
CONTINUOUS
 62
    7
 10
219.96169011699419
 20
103.33044460897803
 11
220.09169011699424
 21
103.25540460897803
  0
LINE
  8
_1-6_アンカ__類
  6
CONTINUOUS
 62
    7
 10
221.0116901169942
 20
103.43640460897802
 11
220.09169011699424
 21
103.25540460897803
  0
LINE
  8
_1-6_アンカ__類
  6
CONTINUOUS
 62
    7
 10
220.09169011699424
 20
103.42548460897802
 11
221.0116901169942
 21
103.60648460897804
  0
LINE
  8
_1-6_アンカ__類
  6
CONTINUOUS
 62
    7
 10
221.1416901169942
 20
103.14944460897803
 11
219.96169011699419
 21
102.96844460897803
  0
LINE
  8
_1-6_アンカ__類
  6
CONTINUOUS
 62
    7
 10
221.1416901169942
 20
103.16944460897803
 11
219.96169011699419
 21
102.98844460897803
  0
LINE
  8
_1-6_アンカ__類
  6
CONTINUOUS
 62
    7
 10
221.1416901169942
 20
103.14944460897803
 11
221.1416901169942
 21
103.16944460897803
  0
LINE
  8
_1-6_アンカ__類
  6
CONTINUOUS
 62
    7
 10
221.1416901169942
 20
103.16944460897803
 11
221.0116901169942
 21
103.24448460897803
  0
LINE
  8
_1-6_アンカ__類
  6
CONTINUOUS
 62
    7
 10
221.1416901169942
 20
103.14944460897803
 11
221.0116901169942
 21
103.07440460897803
  0
LINE
  8
_1-6_アンカ__類
  6
CONTINUOUS
 62
    7
 10
219.96169011699419
 20
102.96844460897803
 11
219.96169011699419
 21
102.98844460897803
  0
LINE
  8
_1-6_アンカ__類
  6
CONTINUOUS
 62
    7
 10
219.96169011699419
 20
102.98844460897803
 11
220.09169011699424
 21
103.06348460897803
  0
LINE
  8
_1-6_アンカ__類
  6
CONTINUOUS
 62
    7
 10
219.96169011699419
 20
102.96844460897803
 11
220.09169011699424
 21
102.89340460897803
  0
LINE
  8
_1-6_アンカ__類
  6
CONTINUOUS
 62
    7
 10
221.0116901169942
 20
103.07440460897803
 11
220.09169011699424
 21
102.89340460897803
  0
LINE
  8
_1-6_アンカ__類
  6
CONTINUOUS
 62
    7
 10
220.09169011699424
 20
103.06348460897803
 11
221.0116901169942
 21
103.24448460897803
  0
LINE
  8
_1-6_アンカ__類
  6
CONTINUOUS
 62
    7
 10
220.09169011699424
 20
103.61740460897803
 11
220.09169011699424
 21
103.42548460897802
  0
LINE
  8
_1-6_アンカ__類
  6
CONTINUOUS
 62
    7
 10
221.0116901169942
 20
103.79840460897803
 11
221.0116901169942
 21
103.60648460897804
  0
LINE
  8
_1-6_アンカ__類
  6
CONTINUOUS
 62
    7
 10
220.09169011699424
 20
102.53140460897802
 11
220.09169011699424
 21
102.33948460897803
  0
LINE
  8
_1-6_アンカ__類
  6
CONTINUOUS
 62
    7
 10
221.0116901169942
 20
102.71240460897803
 11
221.0116901169942
 21
102.52048460897802
  0
LINE
  8
_1-6_アンカ__類
  6
CONTINUOUS
 62
    7
 10
221.1416901169942
 20
102.78744460897803
 11
219.96169011699419
 21
102.60644460897802
  0
LINE
  8
_1-6_アンカ__類
  6
CONTINUOUS
 62
    7
 10
221.1416901169942
 20
102.80744460897803
 11
219.96169011699419
 21
102.62644460897803
  0
LINE
  8
_1-6_アンカ__類
  6
CONTINUOUS
 62
    7
 10
221.1416901169942
 20
102.78744460897803
 11
221.1416901169942
 21
102.80744460897803
  0
LINE
  8
_1-6_アンカ__類
  6
CONTINUOUS
 62
    7
 10
221.1416901169942
 20
102.80744460897803
 11
221.0116901169942
 21
102.88248460897803
  0
LINE
  8
_1-6_アンカ__類
  6
CONTINUOUS
 62
    7
 10
221.1416901169942
 20
102.78744460897803
 11
221.0116901169942
 21
102.71240460897803
  0
LINE
  8
_1-6_アンカ__類
  6
CONTINUOUS
 62
    7
 10
219.96169011699419
 20
102.60644460897802
 11
219.96169011699419
 21
102.62644460897803
  0
LINE
  8
_1-6_アンカ__類
  6
CONTINUOUS
 62
    7
 10
219.96169011699419
 20
102.62644460897803
 11
220.09169011699424
 21
102.70148460897803
  0
LINE
  8
_1-6_アンカ__類
  6
CONTINUOUS
 62
    7
 10
219.96169011699419
 20
102.60644460897802
 11
220.09169011699424
 21
102.53140460897802
  0
LINE
  8
_1-6_アンカ__類
  6
CONTINUOUS
 62
    7
 10
221.0116901169942
 20
102.71240460897803
 11
220.09169011699424
 21
102.53140460897802
  0
LINE
  8
_1-6_アンカ__類
  6
CONTINUOUS
 62
    7
 10
220.09169011699424
 20
102.70148460897803
 11
221.0116901169942
 21
102.88248460897803
  0
LINE
  8
_1-6_アンカ__類
  6
CONTINUOUS
 62
    7
 10
221.1416901169942
 20
102.42544460897803
 11
219.96169011699419
 21
102.24444460897803
  0
LINE
  8
_1-6_アンカ__類
  6
CONTINUOUS
 62
    7
 10
221.1416901169942
 20
102.44544460897802
 11
219.96169011699419
 21
102.26444460897802
  0
LINE
  8
_1-6_アンカ__類
  6
CONTINUOUS
 62
    7
 10
221.1416901169942
 20
102.42544460897803
 11
221.1416901169942
 21
102.44544460897802
  0
LINE
  8
_1-6_アンカ__類
  6
CONTINUOUS
 62
    7
 10
221.1416901169942
 20
102.44544460897802
 11
221.0116901169942
 21
102.52048460897802
  0
LINE
  8
_1-6_アンカ__類
  6
CONTINUOUS
 62
    7
 10
221.1416901169942
 20
102.42544460897803
 11
221.0116901169942
 21
102.35040460897802
  0
LINE
  8
_1-6_アンカ__類
  6
CONTINUOUS
 62
    7
 10
219.96169011699419
 20
102.24444460897803
 11
219.96169011699419
 21
102.26444460897802
  0
LINE
  8
_1-6_アンカ__類
  6
CONTINUOUS
 62
    7
 10
219.96169011699419
 20
102.26444460897802
 11
220.09169011699424
 21
102.33948460897803
  0
LINE
  8
_1-6_アンカ__類
  6
CONTINUOUS
 62
    7
 10
219.96169011699419
 20
102.24444460897803
 11
220.09169011699424
 21
102.16940460897803
  0
LINE
  8
_1-6_アンカ__類
  6
CONTINUOUS
 62
    7
 10
221.0116901169942
 20
102.35040460897802
 11
220.09169011699424
 21
102.16940460897803
  0
LINE
  8
_1-6_アンカ__類
  6
CONTINUOUS
 62
    7
 10
220.09169011699424
 20
102.33948460897803
 11
221.0116901169942
 21
102.52048460897802
  0
LINE
  8
_1-6_アンカ__類
  6
CONTINUOUS
 62
    7
 10
220.09169011699424
 20
102.89340460897803
 11
220.09169011699424
 21
102.70148460897803
  0
LINE
  8
_1-6_アンカ__類
  6
CONTINUOUS
 62
    7
 10
221.0116901169942
 20
103.07440460897803
 11
221.0116901169942
 21
102.88248460897803
  0
LINE
  8
_1-6_アンカ__類
  6
CONTINUOUS
 62
    7
 10
220.09169011699424
 20
101.80740460897803
 11
220.09169011699424
 21
101.61548460897802
  0
LINE
  8
_1-6_アンカ__類
  6
CONTINUOUS
 62
    7
 10
221.0116901169942
 20
101.98840460897803
 11
221.0116901169942
 21
101.79648460897803
  0
LINE
  8
_1-6_アンカ__類
  6
CONTINUOUS
 62
    7
 10
221.1416901169942
 20
102.06344460897803
 11
219.96169011699419
 21
101.88244460897803
  0
LINE
  8
_1-6_アンカ__類
  6
CONTINUOUS
 62
    7
 10
221.1416901169942
 20
102.08344460897803
 11
219.96169011699419
 21
101.90244460897803
  0
LINE
  8
_1-6_アンカ__類
  6
CONTINUOUS
 62
    7
 10
221.1416901169942
 20
102.06344460897803
 11
221.1416901169942
 21
102.08344460897803
  0
LINE
  8
_1-6_アンカ__類
  6
CONTINUOUS
 62
    7
 10
221.1416901169942
 20
102.08344460897803
 11
221.0116901169942
 21
102.15848460897803
  0
LINE
  8
_1-6_アンカ__類
  6
CONTINUOUS
 62
    7
 10
221.1416901169942
 20
102.06344460897803
 11
221.0116901169942
 21
101.98840460897803
  0
LINE
  8
_1-6_アンカ__類
  6
CONTINUOUS
 62
    7
 10
219.96169011699419
 20
101.88244460897803
 11
219.96169011699419
 21
101.90244460897803
  0
LINE
  8
_1-6_アンカ__類
  6
CONTINUOUS
 62
    7
 10
219.96169011699419
 20
101.90244460897803
 11
220.09169011699424
 21
101.97748460897803
  0
LINE
  8
_1-6_アンカ__類
  6
CONTINUOUS
 62
    7
 10
219.96169011699419
 20
101.88244460897803
 11
220.09169011699424
 21
101.80740460897803
  0
LINE
  8
_1-6_アンカ__類
  6
CONTINUOUS
 62
    7
 10
221.0116901169942
 20
101.98840460897803
 11
220.09169011699424
 21
101.80740460897803
  0
LINE
  8
_1-6_アンカ__類
  6
CONTINUOUS
 62
    7
 10
220.09169011699424
 20
101.97748460897803
 11
221.0116901169942
 21
102.15848460897803
  0
LINE
  8
_1-6_アンカ__類
  6
CONTINUOUS
 62
    7
 10
221.1416901169942
 20
101.70144460897802
 11
220.80281011699418
 21
101.64944460897803
  0
LINE
  8
_1-6_アンカ__類
  6
CONTINUOUS
 62
    7
 10
220.6445701169942
 20
101.62520460897802
 11
219.96169011699419
 21
101.52044460897802
  0
LINE
  8
_1-6_アンカ__類
  6
CONTINUOUS
 62
    7
 10
221.1416901169942
 20
101.72144460897803
 11
220.80049011699418
 21
101.66912460897802
  0
LINE
  8
_1-6_アンカ__類
  6
CONTINUOUS
 62
    7
 10
220.64225011699421
 20
101.64484460897803
 11
219.96169011699419
 21
101.54044460897802
  0
LINE
  8
_1-6_アンカ__類
  6
CONTINUOUS
 62
    7
 10
221.1416901169942
 20
101.70144460897802
 11
221.1416901169942
 21
101.72144460897803
  0
LINE
  8
_1-6_アンカ__類
  6
CONTINUOUS
 62
    7
 10
221.1416901169942
 20
101.72144460897803
 11
221.0116901169942
 21
101.79648460897803
  0
LINE
  8
_1-6_アンカ__類
  6
CONTINUOUS
 62
    7
 10
221.1416901169942
 20
101.70144460897802
 11
221.0116901169942
 21
101.62640460897802
  0
LINE
  8
_1-6_アンカ__類
  6
CONTINUOUS
 62
    7
 10
219.96169011699419
 20
101.52044460897802
 11
219.96169011699419
 21
101.54044460897802
  0
LINE
  8
_1-6_アンカ__類
  6
CONTINUOUS
 62
    7
 10
219.96169011699419
 20
101.54044460897802
 11
220.09169011699424
 21
101.61548460897802
  0
LINE
  8
_1-6_アンカ__類
  6
CONTINUOUS
 62
    7
 10
219.96169011699419
 20
101.52044460897802
 11
220.09169011699424
 21
101.44540460897802
  0
LINE
  8
_1-6_アンカ__類
  6
CONTINUOUS
 62
    7
 10
221.0116901169942
 20
101.62640460897802
 11
220.09169011699424
 21
101.44540460897802
  0
LINE
  8
_1-6_アンカ__類
  6
CONTINUOUS
 62
    7
 10
220.09169011699424
 20
101.61548460897802
 11
221.0116901169942
 21
101.79648460897803
  0
LINE
  8
_1-6_アンカ__類
  6
CONTINUOUS
 62
    7
 10
220.09169011699424
 20
102.16940460897803
 11
220.09169011699424
 21
101.97748460897803
  0
LINE
  8
_1-6_アンカ__類
  6
CONTINUOUS
 62
    7
 10
221.0116901169942
 20
102.35040460897802
 11
221.0116901169942
 21
102.15848460897803
  0
LINE
  8
_1-6_アンカ__類
  6
CONTINUOUS
 62
    7
 10
220.09169011699424
 20
101.08340460897803
 11
220.09169011699424
 21
100.95044460897803
  0
LINE
  8
_1-6_アンカ__類
  6
CONTINUOUS
 62
    7
 10
221.0116901169942
 20
101.26440460897803
 11
221.0116901169942
 21
101.07248460897803
  0
LINE
  8
_1-6_アンカ__類
  6
CONTINUOUS
 62
    7
 10
221.1416901169942
 20
101.33944460897803
 11
220.8449701169942
 21
101.29392460897803
  0
LINE
  8
_1-6_アンカ__類
  6
CONTINUOUS
 62
    7
 10
220.68673011699417
 20
101.26964460897803
 11
219.96169011699419
 21
101.15844460897803
  0
LINE
  8
_1-6_アンカ__類
  6
CONTINUOUS
 62
    7
 10
221.1416901169942
 20
101.35944460897802
 11
220.84265011699421
 21
101.31356460897803
  0
LINE
  8
_1-6_アンカ__類
  6
CONTINUOUS
 62
    7
 10
220.68441011699423
 20
101.28928460897802
 11
219.96169011699419
 21
101.17844460897803
  0
LINE
  8
_1-6_アンカ__類
  6
CONTINUOUS
 62
    7
 10
221.1416901169942
 20
101.33944460897803
 11
221.1416901169942
 21
101.35944460897802
  0
LINE
  8
_1-6_アンカ__類
  6
CONTINUOUS
 62
    7
 10
221.1416901169942
 20
101.35944460897802
 11
221.0116901169942
 21
101.43448460897802
  0
LINE
  8
_1-6_アンカ__類
  6
CONTINUOUS
 62
    7
 10
221.1416901169942
 20
101.33944460897803
 11
221.0116901169942
 21
101.26440460897803
  0
LINE
  8
_1-6_アンカ__類
  6
CONTINUOUS
 62
    7
 10
219.96169011699419
 20
101.15844460897803
 11
219.96169011699419
 21
101.17844460897803
  0
LINE
  8
_1-6_アンカ__類
  6
CONTINUOUS
 62
    7
 10
219.96169011699419
 20
101.17844460897803
 11
220.09169011699424
 21
101.25348460897803
  0
LINE
  8
_1-6_アンカ__類
  6
CONTINUOUS
 62
    7
 10
219.96169011699419
 20
101.15844460897803
 11
220.09169011699424
 21
101.08340460897803
  0
LINE
  8
_1-6_アンカ__類
  6
CONTINUOUS
 62
    7
 10
221.0116901169942
 20
101.26440460897803
 11
220.09169011699424
 21
101.08340460897803
  0
LINE
  8
_1-6_アンカ__類
  6
CONTINUOUS
 62
    7
 10
220.09169011699424
 20
101.25348460897803
 11
221.0116901169942
 21
101.43448460897802
  0
LINE
  8
_1-6_アンカ__類
  6
CONTINUOUS
 62
    7
 10
221.1416901169942
 20
100.97744460897803
 11
220.86549011699418
 21
100.93252460897803
  0
LINE
  8
_1-6_アンカ__類
  6
CONTINUOUS
 62
    7
 10
220.71985011699422
 20
100.90888460897803
 11
219.97633011699423
 21
100.78800460897803
  0
LINE
  8
_1-6_アンカ__類
  6
CONTINUOUS
 62
    7
 10
221.1416901169942
 20
100.99744460897803
 11
220.81693011699423
 21
100.94896460897803
  0
LINE
  8
_1-6_アンカ__類
  6
CONTINUOUS
 62
    7
 10
220.80453011699421
 20
100.94712460897803
 11
219.9731701169942
 21
100.82304460897802
  0
LINE
  8
_1-6_アンカ__類
  6
CONTINUOUS
 62
    7
 10
221.1416901169942
 20
100.97744460897803
 11
221.1416901169942
 21
100.99744460897803
  0
LINE
  8
_1-6_アンカ__類
  6
CONTINUOUS
 62
    7
 10
221.1416901169942
 20
100.99744460897803
 11
221.0116901169942
 21
101.07248460897803
  0
LINE
  8
_1-6_アンカ__類
  6
CONTINUOUS
 62
    7
 10
221.1416901169942
 20
100.97744460897803
 11
221.01253011699424
 21
100.90288460897803
  0
LINE
  8
_1-6_アンカ__類
  6
CONTINUOUS
 62
    7
 10
219.97633011699423
 20
100.78800460897803
 11
219.9731701169942
 21
100.82304460897802
  0
LINE
  8
_1-6_アンカ__類
  6
CONTINUOUS
 62
    7
 10
219.9731701169942
 20
100.82304460897802
 11
220.0906501169942
 21
100.89088460897803
  0
LINE
  8
_1-6_アンカ__類
  6
CONTINUOUS
 62
    7
 10
219.97633011699423
 20
100.78800460897803
 11
220.08773011699424
 21
100.72368460897803
  0
LINE
  8
_1-6_アンカ__類
  6
CONTINUOUS
 62
    7
 10
221.01253011699424
 20
100.90288460897803
 11
220.90929011699421
 21
100.88288460897803
  0
LINE
  8
_1-6_アンカ__類
  6
CONTINUOUS
 62
    7
 10
220.70517011699422
 20
100.84332460897804
 11
220.08773011699424
 21
100.72368460897803
  0
LINE
  8
_1-6_アンカ__類
  6
CONTINUOUS
 62
    7
 10
220.0906501169942
 20
100.89088460897803
 11
221.0116901169942
 21
101.07248460897803
  0
LINE
  8
_1-6_アンカ__類
  6
CONTINUOUS
 62
    7
 10
220.09169011699424
 20
101.44540460897802
 11
220.09169011699424
 21
101.25348460897803
  0
LINE
  8
_1-6_アンカ__類
  6
CONTINUOUS
 62
    7
 10
221.0116901169942
 20
101.62640460897802
 11
221.0116901169942
 21
101.43448460897802
  0
LINE
  8
_1-6_アンカ__類
  6
CONTINUOUS
 62
    7
 10
220.08149011699419
 20
100.36528460897803
 11
220.07789011699418
 21
100.15952460897803
  0
LINE
  8
_1-6_アンカ__類
  6
CONTINUOUS
 62
    7
 10
221.01877011699418
 20
100.54448460897802
 11
221.02233011699423
 21
100.34236460897803
  0
LINE
  8
_1-6_アンカ__類
  6
CONTINUOUS
 62
    7
 10
221.10989011699422
 20
100.59708460897804
 11
220.89329011699419
 21
100.55944460897803
  0
LINE
  8
_1-6_アンカ__類
  6
CONTINUOUS
 62
    7
 10
220.58865011699419
 20
100.50656460897802
 11
220.01069011699423
 21
100.40616460897803
  0
LINE
  8
_1-6_アンカ__類
  6
CONTINUOUS
 62
    7
 10
221.11477011699418
 20
100.65100460897803
 11
220.88905011699421
 21
100.61604460897803
  0
LINE
  8
_1-6_アンカ__類
  6
CONTINUOUS
 62
    7
 10
220.60329011699423
 20
100.57176460897803
 11
220.00413011699419
 21
100.47896460897803
  0
LINE
  8
_1-6_アンカ__類
  6
CONTINUOUS
 62
    7
 10
221.10989011699422
 20
100.59708460897804
 11
221.11477011699418
 21
100.65100460897803
  0
LINE
  8
_1-6_アンカ__類
  6
CONTINUOUS
 62
    7
 10
221.11477011699418
 20
100.65100460897803
 11
221.01593011699418
 21
100.70804460897803
  0
LINE
  8
_1-6_アンカ__類
  6
CONTINUOUS
 62
    7
 10
221.10989011699422
 20
100.59708460897804
 11
221.01877011699418
 21
100.54448460897802
  0
LINE
  8
_1-6_アンカ__類
  6
CONTINUOUS
 62
    7
 10
220.01069011699423
 20
100.40616460897803
 11
220.00413011699419
 21
100.47896460897803
  0
LINE
  8
_1-6_アンカ__類
  6
CONTINUOUS
 62
    7
 10
220.00413011699419
 20
100.47896460897803
 11
220.08429011699423
 21
100.52520460897803
  0
LINE
  8
_1-6_アンカ__類
  6
CONTINUOUS
 62
    7
 10
220.01069011699423
 20
100.40616460897803
 11
220.08149011699419
 21
100.36528460897803
  0
LINE
  8
_1-6_アンカ__類
  6
CONTINUOUS
 62
    7
 10
221.01877011699418
 20
100.54448460897802
 11
220.93569011699418
 21
100.52860460897803
  0
LINE
  8
_1-6_アンカ__類
  6
CONTINUOUS
 62
    7
 10
220.6210901169942
 20
100.46844460897803
 11
220.08149011699419
 21
100.36528460897803
  0
LINE
  8
_1-6_アンカ__類
  6
CONTINUOUS
 62
    7
 10
220.08429011699423
 20
100.52520460897803
 11
220.65913011699422
 21
100.63804460897802
  0
LINE
  8
_1-6_アンカ__類
  6
CONTINUOUS
 62
    7
 10
220.92369011699418
 20
100.68996460897803
 11
221.01593011699418
 21
100.70804460897803
  0
LINE
  8
_1-6_アンカ__類
  6
CONTINUOUS
 62
    7
 10
221.07553011699423
 20
100.21524460897803
 11
220.92105011699419
 21
100.18660460897803
  0
LINE
  8
_1-6_アンカ__類
  6
CONTINUOUS
 62
    7
 10
220.49937011699421
 20
100.10848460897803
 11
220.04505011699422
 21
100.02432460897802
  0
LINE
  8
_1-6_アンカ__類
  6
CONTINUOUS
 62
    7
 10
221.08377011699423
 20
100.30688460897802
 11
220.91417011699423
 21
100.27904460897803
  0
LINE
  8
_1-6_アンカ__類
  6
CONTINUOUS
 62
    7
 10
220.52325011699423
 20
100.21492460897804
 11
220.03509011699418
 21
100.13484460897803
  0
LINE
  8
_1-6_アンカ__類
  6
CONTINUOUS
 62
    7
 10
221.07553011699423
 20
100.21524460897803
 11
221.08377011699423
 21
100.30688460897802
  0
LINE
  8
_1-6_アンカ__類
  6
CONTINUOUS
 62
    7
 10
221.08377011699423
 20
100.30688460897802
 11
221.02233011699423
 21
100.34236460897803
  0
LINE
  8
_1-6_アンカ__類
  6
CONTINUOUS
 62
    7
 10
221.07553011699423
 20
100.21524460897803
 11
221.02505011699424
 21
100.18608460897804
  0
LINE
  8
_1-6_アンカ__類
  6
CONTINUOUS
 62
    7
 10
220.04505011699422
 20
100.02432460897802
 11
220.03509011699418
 21
100.13484460897803
  0
LINE
  8
_1-6_アンカ__類
  6
CONTINUOUS
 62
    7
 10
220.03509011699418
 20
100.13484460897803
 11
220.07789011699418
 21
100.15952460897803
  0
LINE
  8
_1-6_アンカ__類
  6
CONTINUOUS
 62
    7
 10
220.04505011699422
 20
100.02432460897802
 11
220.0752501169942
 21
100.00688460897803
  0
LINE
  8
_1-6_アンカ__類
  6
CONTINUOUS
 62
    7
 10
221.02505011699424
 20
100.18608460897804
 11
220.9620901169942
 21
100.17420460897803
  0
LINE
  8
_1-6_アンカ__類
  6
CONTINUOUS
 62
    7
 10
220.53713011699421
 20
100.09404460897802
 11
220.0752501169942
 21
100.00688460897803
  0
LINE
  8
_1-6_アンカ__類
  6
CONTINUOUS
 62
    7
 10
220.07789011699418
 20
100.15952460897803
 11
220.57333011699421
 21
100.25544460897802
  0
LINE
  8
_1-6_アンカ__類
  6
CONTINUOUS
 62
    7
 10
220.9506101169942
 20
100.32848460897803
 11
221.02233011699423
 21
100.34236460897803
  0
LINE
  8
_1-6_アンカ__類
  6
CONTINUOUS
 62
    7
 10
220.08773011699424
 20
100.72368460897803
 11
220.08429011699423
 21
100.52520460897803
  0
LINE
  8
_1-6_アンカ__類
  6
CONTINUOUS
 62
    7
 10
221.01253011699424
 20
100.90288460897803
 11
221.01593011699418
 21
100.70804460897803
  0
LINE
  8
_1-6_アンカ__類
  6
CONTINUOUS
 62
    7
 10
221.05281011699418
 20
99.962764608978034
 11
220.98217011699421
 21
99.950444608978032
  0
LINE
  8
_1-6_アンカ__類
  6
CONTINUOUS
 62
    7
 10
221.05169011699422
 20
99.950444608978032
 11
221.05281011699418
 21
99.962764608978034
  0
LINE
  8
_1-6_アンカ__類
  6
CONTINUOUS
 62
    7
 10
221.05281011699418
 20
99.962764608978034
 11
221.0286901169942
 21
99.976684608978033
  0
LINE
  8
_1-6_アンカ__類
  6
CONTINUOUS
 62
    7
 10
220.97753011699422
 20
99.966924608978033
 11
221.0286901169942
 21
99.976684608978033
  0
LINE
  8
_1-6_アンカ__類
  6
CONTINUOUS
 62
    7
 10
220.0752501169942
 20
100.00688460897803
 11
220.07425011699422
 21
99.950444608978032
  0
LINE
  8
_1-6_アンカ__類
  6
CONTINUOUS
 62
    7
 10
221.02505011699424
 20
100.18608460897804
 11
221.0286901169942
 21
99.976684608978033
  0
LINE
  8
_1-6_アンカ__類
  6
CONTINUOUS
 62
    7
 10
220.09169011699424
 20
100.95044460897803
 11
220.0906501169942
 21
100.89088460897803
  0
LINE
  8
_1-6_アンカ__類
  6
CONTINUOUS
 62
    7
 10
220.05169011699422
 20
99.950444608978032
 11
220.50493011699422
 21
99.950444608978032
  0
LINE
  8
_1-6_アンカ__類
  6
CONTINUOUS
 62
    7
 10
220.95117011699421
 20
99.950444608978032
 11
221.05169011699422
 21
99.950444608978032
  0
LINE
  8
_1-6_アンカ__類
  6
CONTINUOUS
 62
    7
 10
220.97753011699422
 20
99.966924608978033
 11
220.9620901169942
 21
100.17420460897803
  0
LINE
  8
_1-6_アンカ__類
  6
CONTINUOUS
 62
    7
 10
220.9506101169942
 20
100.32848460897803
 11
220.93569011699418
 21
100.52860460897803
  0
LINE
  8
_1-6_アンカ__類
  6
CONTINUOUS
 62
    7
 10
220.92369011699418
 20
100.68996460897803
 11
220.90929011699421
 21
100.88288460897803
  0
LINE
  8
_1-6_アンカ__類
  6
CONTINUOUS
 62
    7
 10
220.92105011699419
 20
100.18660460897803
 11
220.91417011699423
 21
100.27904460897803
  0
LINE
  8
_1-6_アンカ__類
  6
CONTINUOUS
 62
    7
 10
220.89329011699419
 20
100.55944460897803
 11
220.88905011699421
 21
100.61604460897803
  0
LINE
  8
_1-6_アンカ__類
  6
CONTINUOUS
 62
    7
 10
220.86549011699418
 20
100.93252460897803
 11
220.86425011699419
 21
100.94924460897803
  0
LINE
  8
_1-6_アンカ__類
  6
CONTINUOUS
 62
    7
 10
220.50493011699422
 20
99.950444608978032
 11
220.72057011699422
 21
100.91196460897802
  0
LINE
  8
_1-6_アンカ__類
  6
CONTINUOUS
 62
    7
 10
220.49937011699421
 20
100.10848460897803
 11
220.52325011699423
 21
100.21492460897804
  0
LINE
  8
_1-6_アンカ__類
  6
CONTINUOUS
 62
    7
 10
220.58865011699419
 20
100.50656460897802
 11
220.60329011699423
 21
100.57176460897803
  0
LINE
  8
_1-6_アンカ__類
  6
CONTINUOUS
 62
    7
 10
220.97753011699422
 20
99.966924608978033
 11
220.95117011699421
 21
99.950444608978032
  0
LINE
  8
_1-6_アンカ__類
  6
CONTINUOUS
 62
    7
 10
220.9506101169942
 20
100.32848460897803
 11
220.91417011699423
 21
100.27904460897803
  0
LINE
  8
_1-6_アンカ__類
  6
CONTINUOUS
 62
    7
 10
220.92105011699419
 20
100.18660460897803
 11
220.9620901169942
 21
100.17420460897803
  0
LINE
  8
_1-6_アンカ__類
  6
CONTINUOUS
 62
    7
 10
220.92369011699418
 20
100.68996460897803
 11
220.88905011699421
 21
100.61604460897803
  0
LINE
  8
_1-6_アンカ__類
  6
CONTINUOUS
 62
    7
 10
220.89329011699419
 20
100.55944460897803
 11
220.93569011699418
 21
100.52860460897803
  0
LINE
  8
_1-6_アンカ__類
  6
CONTINUOUS
 62
    7
 10
220.90929011699421
 20
100.88288460897803
 11
220.86549011699418
 21
100.93252460897803
  0
LINE
  8
_1-6_アンカ__類
  6
CONTINUOUS
 62
    7
 10
220.65913011699422
 20
100.63804460897802
 11
220.60329011699423
 21
100.57176460897803
  0
LINE
  8
_1-6_アンカ__類
  6
CONTINUOUS
 62
    7
 10
220.58865011699419
 20
100.50656460897802
 11
220.6210901169942
 21
100.46844460897803
  0
LINE
  8
_1-6_アンカ__類
  6
CONTINUOUS
 62
    7
 10
220.52325011699423
 20
100.21492460897804
 11
220.57333011699421
 21
100.25544460897802
  0
LINE
  8
_1-6_アンカ__類
  6
CONTINUOUS
 62
    7
 10
220.49937011699421
 20
100.10848460897803
 11
220.53713011699421
 21
100.09404460897802
  0
LINE
  8
_1-6_アンカ__類
  6
CONTINUOUS
 62
    7
 10
221.0116901169942
 20
104.78844460897803
 11
221.0116901169942
 21
104.69248460897802
  0
LINE
  8
_1-6_アンカ__類
  6
CONTINUOUS
 62
    7
 10
220.77345011699418
 20
101.21752460897802
 11
220.75377011699419
 21
101.38376460897803
  0
LINE
  8
_1-6_アンカ__類
  6
CONTINUOUS
 62
    7
 10
220.73153011699424
 20
101.57128460897803
 11
220.71181011699423
 21
101.73748460897804
  0
LINE
  8
_1-6_アンカ__類
  6
CONTINUOUS
 62
    7
 10
220.68957011699422
 20
101.92500460897803
 11
220.68657011699423
 21
101.95044460897803
  0
LINE
  8
_1-6_アンカ__類
  6
CONTINUOUS
 62
    7
 10
220.8449701169942
 20
101.29392460897803
 11
220.84265011699421
 21
101.31356460897803
  0
LINE
  8
_1-6_アンカ__類
  6
CONTINUOUS
 62
    7
 10
220.80281011699418
 20
101.64944460897803
 11
220.80049011699418
 21
101.66912460897802
  0
LINE
  8
_1-6_アンカ__類
  6
CONTINUOUS
 62
    7
 10
220.68673011699417
 20
101.26964460897803
 11
220.68441011699423
 21
101.28928460897802
  0
LINE
  8
_1-6_アンカ__類
  6
CONTINUOUS
 62
    7
 10
220.6445701169942
 20
101.62520460897802
 11
220.64225011699421
 21
101.64484460897803
  0
LINE
  8
_1-6_アンカ__類
  6
CONTINUOUS
 62
    7
 10
220.84265011699421
 20
101.31356460897803
 11
220.75377011699419
 21
101.38376460897803
  0
LINE
  8
_1-6_アンカ__類
  6
CONTINUOUS
 62
    7
 10
220.75377011699419
 20
101.38376460897803
 11
220.68441011699423
 21
101.28928460897802
  0
LINE
  8
_1-6_アンカ__類
  6
CONTINUOUS
 62
    7
 10
220.68673011699417
 20
101.26964460897803
 11
220.77345011699418
 21
101.21752460897802
  0
LINE
  8
_1-6_アンカ__類
  6
CONTINUOUS
 62
    7
 10
220.77345011699418
 20
101.21752460897802
 11
220.8449701169942
 21
101.29392460897803
  0
LINE
  8
_1-6_アンカ__類
  6
CONTINUOUS
 62
    7
 10
220.80049011699418
 20
101.66912460897802
 11
220.71181011699423
 21
101.73748460897804
  0
LINE
  8
_1-6_アンカ__類
  6
CONTINUOUS
 62
    7
 10
220.71181011699423
 20
101.73748460897804
 11
220.64225011699421
 21
101.64484460897803
  0
LINE
  8
_1-6_アンカ__類
  6
CONTINUOUS
 62
    7
 10
220.6445701169942
 20
101.62520460897802
 11
220.73153011699424
 21
101.57128460897803
  0
LINE
  8
_1-6_アンカ__類
  6
CONTINUOUS
 62
    7
 10
220.73153011699424
 20
101.57128460897803
 11
220.80281011699418
 21
101.64944460897803
  0
LINE
  8
_1-6_アンカ__類
  6
CONTINUOUS
 62
    7
 10
220.71217011699423
 20
101.95044460897803
 11
220.68957011699422
 21
101.92500460897803
  0
LINE
  8
_1-6_アンカ__類
  6
CONTINUOUS
 62
    7
 10
220.68957011699422
 20
101.92500460897803
 11
220.6497701169942
 21
101.95044460897803
  0
LINE
  8
_1-6_アンカ__類
  6
CONTINUOUS
 62
    7
 10
220.71217011699423
 20
101.95044460897803
 11
220.6497701169942
 21
101.95044460897803
  0
LINE
  8
_1-6_アンカ__類
  6
CONTINUOUS
 62
    7
 10
220.19169011699421
 20
110.15044460897803
 11
220.21089011699422
 21
109.60120460897802
  0
LINE
  8
_1-6_アンカ__類
  6
CONTINUOUS
 62
    7
 10
220.55169011699422
 20
109.40444460897803
 11
220.21089011699422
 21
109.60120460897802
  0
LINE
  8
_1-6_アンカ__類
  6
CONTINUOUS
 62
    7
 10
220.55169011699422
 20
109.40444460897803
 11
220.89253011699418
 21
109.60120460897802
  0
LINE
  8
_1-6_アンカ__類
  6
CONTINUOUS
 62
    7
 10
220.91169011699418
 20
110.15044460897803
 11
220.89253011699418
 21
109.60120460897802
  0
LINE
  8
_1-6_アンカ__類
  6
CONTINUOUS
 62
    7
 10
97.084170116994201
 20
110.15044460897803
 11
99.484170116994207
 21
110.15044460897803
  0
LINE
  8
_1-6_アンカ__類
  6
CONTINUOUS
 62
    7
 10
97.084170116994201
 20
110.05044460897803
 11
99.484170116994207
 21
110.05044460897803
  0
LINE
  8
_1-6_アンカ__類
  6
CONTINUOUS
 62
    7
 10
99.484170116994207
 20
110.05044460897803
 11
99.484170116994207
 21
110.15044460897803
  0
LINE
  8
_1-6_アンカ__類
  6
CONTINUOUS
 62
    7
 10
97.084170116994201
 20
110.15044460897803
 11
97.084170116994201
 21
110.05044460897803
  0
LINE
  8
_1-6_アンカ__類
  6
CONTINUOUS
 62
    7
 10
97.82417011699421
 20
104.70340460897802
 11
97.82417011699421
 21
104.51148460897802
  0
LINE
  8
_1-6_アンカ__類
  6
CONTINUOUS
 62
    7
 10
98.74761011699421
 20
104.88636460897803
 11
98.744170116994198
 21
104.78844460897803
  0
LINE
  8
_1-6_アンカ__類
  6
CONTINUOUS
 62
    7
 10
97.7921701169942
 20
109.17676460897803
 11
97.7921701169942
 21
105.15044460897803
  0
LINE
  8
_1-6_アンカ__類
  6
CONTINUOUS
 62
    7
 10
98.776170116994209
 20
109.17676460897803
 11
98.776170116994209
 21
105.15044460897803
  0
LINE
  8
_1-6_アンカ__類
  6
CONTINUOUS
 62
    7
 10
97.084170116994201
 20
110.05044460897803
 11
97.6750501169942
 21
109.45960460897803
  0
LINE
  8
_1-6_アンカ__類
  6
CONTINUOUS
 62
    7
 10
99.484170116994207
 20
110.05044460897803
 11
98.893330116994193
 21
109.45960460897803
  0
LINE
  8
_1-6_アンカ__類
  6
CONTINUOUS
 62
    7
 10
98.776170116994209
 20
109.34244460897803
 11
97.7921701169942
 21
109.34244460897803
  0
LINE
  8
_1-6_アンカ__類
  6
CONTINUOUS
 62
    7
 10
97.884170116994213
 20
98.837244608978025
 11
97.884170116994213
 21
99.950444608978032
  0
LINE
  8
_1-6_アンカ__類
  6
CONTINUOUS
 62
    7
 10
98.684170116994196
 20
98.591924608978033
 11
98.684170116994196
 21
100.15044460897803
  0
LINE
  8
_1-6_アンカ__類
  6
CONTINUOUS
 62
    7
 10
97.784170116994204
 20
98.545284608978022
 11
97.784170116994204
 21
99.950444608978032
  0
LINE
  8
_1-6_アンカ__類
  6
CONTINUOUS
 62
    7
 10
98.282250116994206
 20
100.15044460897803
 11
98.696330116994218
 21
100.15044460897803
  0
LINE
  8
_1-6_アンカ__類
  6
CONTINUOUS
 62
    7
 10
98.614170116994202
 20
98.800164608978037
 11
98.614170116994202
 21
100.15044460897803
  0
LINE
  8
_1-6_アンカ__類
  6
CONTINUOUS
 62
    7
 10
98.315210116994209
 20
98.28232460897803
 11
98.284170116994204
 21
98.150444608978034
  0
LINE
  8
_1-6_アンカ__類
  6
CONTINUOUS
 62
    7
 10
98.784170116994204
 20
99.950444608978032
 11
98.784170116994204
 21
98.545284608978022
  0
LINE
  8
_1-6_アンカ__類
  6
CONTINUOUS
 62
    7
 10
98.364170116994202
 20
98.779724608978029
 11
98.364170116994202
 21
100.51576460897803
  0
LINE
  8
_1-6_アンカ__類
  6
CONTINUOUS
 62
    7
 10
98.684170116994196
 20
98.591924608978033
 11
98.784170116994204
 21
98.545284608978022
  0
LINE
  8
_1-6_アンカ__類
  6
CONTINUOUS
 62
    7
 10
98.244170116994198
 20
98.159324608978025
 11
98.284170116994204
 21
98.150444608978034
  0
LINE
  8
_1-6_アンカ__類
  6
CONTINUOUS
 62
    7
 10
98.284170116994204
 20
98.150444608978034
 11
98.32417011699421
 21
98.159324608978025
  0
LINE
  8
_1-6_アンカ__類
  6
CONTINUOUS
 62
    7
 10
98.315210116994209
 20
98.28232460897803
 11
98.32417011699421
 21
98.159324608978025
  0
LINE
  8
_1-6_アンカ__類
  6
CONTINUOUS
 62
    7
 10
98.2276101169942
 20
98.405564608978025
 11
98.284170116994204
 21
98.150444608978034
  0
LINE
  8
_1-6_アンカ__類
  6
CONTINUOUS
 62
    7
 10
97.859210116994205
 20
98.717364608978031
 11
97.784170116994204
 21
98.545284608978022
  0
LINE
  8
_1-6_アンカ__類
  6
CONTINUOUS
 62
    7
 10
97.986690116994197
 20
98.688684608978036
 11
98.127570116994193
 21
98.570444608978022
  0
LINE
  8
_1-6_アンカ__類
  6
CONTINUOUS
 62
    7
 10
97.784170116994204
 20
98.545284608978022
 11
98.244170116994198
 21
98.159324608978025
  0
LINE
  8
_1-6_アンカ__類
  6
CONTINUOUS
 62
    7
 10
98.684170116994196
 20
98.591924608978033
 11
98.315210116994209
 21
98.28232460897803
  0
LINE
  8
_1-6_アンカ__類
  6
CONTINUOUS
 62
    7
 10
98.784170116994204
 20
98.545284608978022
 11
98.32417011699421
 21
98.159324608978025
  0
LINE
  8
_1-6_アンカ__類
  6
CONTINUOUS
 62
    7
 10
98.265170116994213
 20
98.608204608978028
 11
98.364170116994202
 21
98.779724608978029
  0
LINE
  8
_1-6_アンカ__類
  6
CONTINUOUS
 62
    7
 10
98.614170116994202
 20
98.800164608978037
 11
98.315210116994209
 21
98.28232460897803
  0
LINE
  8
_1-6_アンカ__類
  6
CONTINUOUS
 62
    7
 10
98.776170116994209
 20
105.15044460897803
 11
97.7921701169942
 21
105.15044460897803
  0
LINE
  8
_1-6_アンカ__類
  6
CONTINUOUS
 62
    7
 10
98.834170116994201
 20
104.93632460897803
 11
97.694170116994215
 21
104.77844460897802
  0
LINE
  8
_1-6_アンカ__類
  6
CONTINUOUS
 62
    7
 10
98.812890116994211
 20
105.01484460897802
 11
97.694170116994215
 21
104.79844460897803
  0
LINE
  8
_1-6_アンカ__類
  6
CONTINUOUS
 62
    7
 10
98.834170116994201
 20
104.93632460897803
 11
98.812890116994211
 21
105.01484460897802
  0
LINE
  8
_1-6_アンカ__類
  6
CONTINUOUS
 62
    7
 10
98.812890116994211
 20
105.01484460897802
 11
98.753290116994194
 21
105.04924460897803
  0
LINE
  8
_1-6_アンカ__類
  6
CONTINUOUS
 62
    7
 10
98.834170116994201
 20
104.93632460897803
 11
98.74761011699421
 21
104.88636460897803
  0
LINE
  8
_1-6_アンカ__類
  6
CONTINUOUS
 62
    7
 10
97.694170116994215
 20
104.77844460897802
 11
97.694170116994215
 21
104.79844460897803
  0
LINE
  8
_1-6_アンカ__類
  6
CONTINUOUS
 62
    7
 10
97.694170116994215
 20
104.79844460897803
 11
97.821290116994206
 21
104.87180460897802
  0
LINE
  8
_1-6_アンカ__類
  6
CONTINUOUS
 62
    7
 10
97.694170116994215
 20
104.77844460897802
 11
97.82417011699421
 21
104.70340460897802
  0
LINE
  8
_1-6_アンカ__類
  6
CONTINUOUS
 62
    7
 10
98.74761011699421
 20
104.88636460897803
 11
97.82417011699421
 21
104.70340460897802
  0
LINE
  8
_1-6_アンカ__類
  6
CONTINUOUS
 62
    7
 10
97.821290116994206
 20
104.87180460897802
 11
98.753290116994194
 21
105.04924460897803
  0
LINE
  8
_1-6_アンカ__類
  6
CONTINUOUS
 62
    7
 10
98.874170116994193
 20
104.59744460897802
 11
97.694170116994215
 21
104.41644460897803
  0
LINE
  8
_1-6_アンカ__類
  6
CONTINUOUS
 62
    7
 10
98.874170116994193
 20
104.61744460897802
 11
97.694170116994215
 21
104.43644460897804
  0
LINE
  8
_1-6_アンカ__類
  6
CONTINUOUS
 62
    7
 10
98.874170116994193
 20
104.59744460897802
 11
98.874170116994193
 21
104.61744460897802
  0
LINE
  8
_1-6_アンカ__類
  6
CONTINUOUS
 62
    7
 10
98.874170116994193
 20
104.61744460897802
 11
98.744170116994198
 21
104.69248460897802
  0
LINE
  8
_1-6_アンカ__類
  6
CONTINUOUS
 62
    7
 10
98.874170116994193
 20
104.59744460897802
 11
98.744170116994198
 21
104.52240460897802
  0
LINE
  8
_1-6_アンカ__類
  6
CONTINUOUS
 62
    7
 10
97.694170116994215
 20
104.41644460897803
 11
97.694170116994215
 21
104.43644460897804
  0
LINE
  8
_1-6_アンカ__類
  6
CONTINUOUS
 62
    7
 10
97.694170116994215
 20
104.43644460897804
 11
97.82417011699421
 21
104.51148460897802
  0
LINE
  8
_1-6_アンカ__類
  6
CONTINUOUS
 62
    7
 10
97.694170116994215
 20
104.41644460897803
 11
97.82417011699421
 21
104.34140460897802
  0
LINE
  8
_1-6_アンカ__類
  6
CONTINUOUS
 62
    7
 10
98.744170116994198
 20
104.52240460897802
 11
97.82417011699421
 21
104.34140460897802
  0
LINE
  8
_1-6_アンカ__類
  6
CONTINUOUS
 62
    7
 10
97.82417011699421
 20
104.51148460897802
 11
98.744170116994198
 21
104.69248460897802
  0
LINE
  8
_1-6_アンカ__類
  6
CONTINUOUS
 62
    7
 10
97.814330116994213
 20
105.07108460897803
 11
97.821290116994206
 21
104.87180460897802
  0
LINE
  8
_1-6_アンカ__類
  6
CONTINUOUS
 62
    7
 10
98.756850116994215
 20
105.15044460897803
 11
98.753290116994194
 21
105.04924460897803
  0
LINE
  8
_1-6_アンカ__類
  6
CONTINUOUS
 62
    7
 10
98.053090116994198
 20
105.15044460897803
 11
97.776610116994206
 21
105.09284460897803
  0
LINE
  8
_1-6_アンカ__類
  6
CONTINUOUS
 62
    7
 10
97.776610116994206
 20
105.09284460897803
 11
97.7921701169942
 21
105.15044460897803
  0
LINE
  8
_1-6_アンカ__類
  6
CONTINUOUS
 62
    7
 10
97.776610116994206
 20
105.09284460897803
 11
97.814330116994213
 21
105.07108460897803
  0
LINE
  8
_1-6_アンカ__類
  6
CONTINUOUS
 62
    7
 10
98.220810116994201
 20
105.15044460897803
 11
97.814330116994213
 21
105.07108460897803
  0
LINE
  8
_1-6_アンカ__類
  6
CONTINUOUS
 62
    7
 10
97.82417011699421
 20
103.97940460897803
 11
97.82417011699421
 21
103.78748460897803
  0
LINE
  8
_1-6_アンカ__類
  6
CONTINUOUS
 62
    7
 10
98.744170116994198
 20
104.16040460897803
 11
98.744170116994198
 21
103.96848460897803
  0
LINE
  8
_1-6_アンカ__類
  6
CONTINUOUS
 62
    7
 10
98.874170116994193
 20
104.23544460897803
 11
97.694170116994215
 21
104.05444460897803
  0
LINE
  8
_1-6_アンカ__類
  6
CONTINUOUS
 62
    7
 10
98.874170116994193
 20
104.25544460897802
 11
97.694170116994215
 21
104.07444460897803
  0
LINE
  8
_1-6_アンカ__類
  6
CONTINUOUS
 62
    7
 10
98.874170116994193
 20
104.23544460897803
 11
98.874170116994193
 21
104.25544460897802
  0
LINE
  8
_1-6_アンカ__類
  6
CONTINUOUS
 62
    7
 10
98.874170116994193
 20
104.25544460897802
 11
98.744170116994198
 21
104.33048460897803
  0
LINE
  8
_1-6_アンカ__類
  6
CONTINUOUS
 62
    7
 10
98.874170116994193
 20
104.23544460897803
 11
98.744170116994198
 21
104.16040460897803
  0
LINE
  8
_1-6_アンカ__類
  6
CONTINUOUS
 62
    7
 10
97.694170116994215
 20
104.05444460897803
 11
97.694170116994215
 21
104.07444460897803
  0
LINE
  8
_1-6_アンカ__類
  6
CONTINUOUS
 62
    7
 10
97.694170116994215
 20
104.07444460897803
 11
97.82417011699421
 21
104.14948460897803
  0
LINE
  8
_1-6_アンカ__類
  6
CONTINUOUS
 62
    7
 10
97.694170116994215
 20
104.05444460897803
 11
97.82417011699421
 21
103.97940460897803
  0
LINE
  8
_1-6_アンカ__類
  6
CONTINUOUS
 62
    7
 10
98.744170116994198
 20
104.16040460897803
 11
97.82417011699421
 21
103.97940460897803
  0
LINE
  8
_1-6_アンカ__類
  6
CONTINUOUS
 62
    7
 10
97.82417011699421
 20
104.14948460897803
 11
98.744170116994198
 21
104.33048460897803
  0
LINE
  8
_1-6_アンカ__類
  6
CONTINUOUS
 62
    7
 10
98.874170116994193
 20
103.87344460897803
 11
97.694170116994215
 21
103.69244460897804
  0
LINE
  8
_1-6_アンカ__類
  6
CONTINUOUS
 62
    7
 10
98.874170116994193
 20
103.89344460897803
 11
97.694170116994215
 21
103.71244460897803
  0
LINE
  8
_1-6_アンカ__類
  6
CONTINUOUS
 62
    7
 10
98.874170116994193
 20
103.87344460897803
 11
98.874170116994193
 21
103.89344460897803
  0
LINE
  8
_1-6_アンカ__類
  6
CONTINUOUS
 62
    7
 10
98.874170116994193
 20
103.89344460897803
 11
98.744170116994198
 21
103.96848460897803
  0
LINE
  8
_1-6_アンカ__類
  6
CONTINUOUS
 62
    7
 10
98.874170116994193
 20
103.87344460897803
 11
98.744170116994198
 21
103.79840460897803
  0
LINE
  8
_1-6_アンカ__類
  6
CONTINUOUS
 62
    7
 10
97.694170116994215
 20
103.69244460897804
 11
97.694170116994215
 21
103.71244460897803
  0
LINE
  8
_1-6_アンカ__類
  6
CONTINUOUS
 62
    7
 10
97.694170116994215
 20
103.71244460897803
 11
97.82417011699421
 21
103.78748460897803
  0
LINE
  8
_1-6_アンカ__類
  6
CONTINUOUS
 62
    7
 10
97.694170116994215
 20
103.69244460897804
 11
97.82417011699421
 21
103.61740460897803
  0
LINE
  8
_1-6_アンカ__類
  6
CONTINUOUS
 62
    7
 10
98.744170116994198
 20
103.79840460897803
 11
97.82417011699421
 21
103.61740460897803
  0
LINE
  8
_1-6_アンカ__類
  6
CONTINUOUS
 62
    7
 10
97.82417011699421
 20
103.78748460897803
 11
98.744170116994198
 21
103.96848460897803
  0
LINE
  8
_1-6_アンカ__類
  6
CONTINUOUS
 62
    7
 10
97.82417011699421
 20
104.34140460897802
 11
97.82417011699421
 21
104.14948460897803
  0
LINE
  8
_1-6_アンカ__類
  6
CONTINUOUS
 62
    7
 10
98.744170116994198
 20
104.52240460897802
 11
98.744170116994198
 21
104.33048460897803
  0
LINE
  8
_1-6_アンカ__類
  6
CONTINUOUS
 62
    7
 10
97.82417011699421
 20
103.25540460897803
 11
97.82417011699421
 21
103.06348460897803
  0
LINE
  8
_1-6_アンカ__類
  6
CONTINUOUS
 62
    7
 10
98.744170116994198
 20
103.43640460897802
 11
98.744170116994198
 21
103.24448460897803
  0
LINE
  8
_1-6_アンカ__類
  6
CONTINUOUS
 62
    7
 10
98.874170116994193
 20
103.51144460897802
 11
97.694170116994215
 21
103.33044460897803
  0
LINE
  8
_1-6_アンカ__類
  6
CONTINUOUS
 62
    7
 10
98.874170116994193
 20
103.53144460897803
 11
97.694170116994215
 21
103.35044460897802
  0
LINE
  8
_1-6_アンカ__類
  6
CONTINUOUS
 62
    7
 10
98.874170116994193
 20
103.51144460897802
 11
98.874170116994193
 21
103.53144460897803
  0
LINE
  8
_1-6_アンカ__類
  6
CONTINUOUS
 62
    7
 10
98.874170116994193
 20
103.53144460897803
 11
98.744170116994198
 21
103.60648460897804
  0
LINE
  8
_1-6_アンカ__類
  6
CONTINUOUS
 62
    7
 10
98.874170116994193
 20
103.51144460897802
 11
98.744170116994198
 21
103.43640460897802
  0
LINE
  8
_1-6_アンカ__類
  6
CONTINUOUS
 62
    7
 10
97.694170116994215
 20
103.33044460897803
 11
97.694170116994215
 21
103.35044460897802
  0
LINE
  8
_1-6_アンカ__類
  6
CONTINUOUS
 62
    7
 10
97.694170116994215
 20
103.35044460897802
 11
97.82417011699421
 21
103.42548460897802
  0
LINE
  8
_1-6_アンカ__類
  6
CONTINUOUS
 62
    7
 10
97.694170116994215
 20
103.33044460897803
 11
97.82417011699421
 21
103.25540460897803
  0
LINE
  8
_1-6_アンカ__類
  6
CONTINUOUS
 62
    7
 10
98.744170116994198
 20
103.43640460897802
 11
97.82417011699421
 21
103.25540460897803
  0
LINE
  8
_1-6_アンカ__類
  6
CONTINUOUS
 62
    7
 10
97.82417011699421
 20
103.42548460897802
 11
98.744170116994198
 21
103.60648460897804
  0
LINE
  8
_1-6_アンカ__類
  6
CONTINUOUS
 62
    7
 10
98.874170116994193
 20
103.14944460897803
 11
97.694170116994215
 21
102.96844460897803
  0
LINE
  8
_1-6_アンカ__類
  6
CONTINUOUS
 62
    7
 10
98.874170116994193
 20
103.16944460897803
 11
97.694170116994215
 21
102.98844460897803
  0
LINE
  8
_1-6_アンカ__類
  6
CONTINUOUS
 62
    7
 10
98.874170116994193
 20
103.14944460897803
 11
98.874170116994193
 21
103.16944460897803
  0
LINE
  8
_1-6_アンカ__類
  6
CONTINUOUS
 62
    7
 10
98.874170116994193
 20
103.16944460897803
 11
98.744170116994198
 21
103.24448460897803
  0
LINE
  8
_1-6_アンカ__類
  6
CONTINUOUS
 62
    7
 10
98.874170116994193
 20
103.14944460897803
 11
98.744170116994198
 21
103.07440460897803
  0
LINE
  8
_1-6_アンカ__類
  6
CONTINUOUS
 62
    7
 10
97.694170116994215
 20
102.96844460897803
 11
97.694170116994215
 21
102.98844460897803
  0
LINE
  8
_1-6_アンカ__類
  6
CONTINUOUS
 62
    7
 10
97.694170116994215
 20
102.98844460897803
 11
97.82417011699421
 21
103.06348460897803
  0
LINE
  8
_1-6_アンカ__類
  6
CONTINUOUS
 62
    7
 10
97.694170116994215
 20
102.96844460897803
 11
97.82417011699421
 21
102.89340460897803
  0
LINE
  8
_1-6_アンカ__類
  6
CONTINUOUS
 62
    7
 10
98.744170116994198
 20
103.07440460897803
 11
97.82417011699421
 21
102.89340460897803
  0
LINE
  8
_1-6_アンカ__類
  6
CONTINUOUS
 62
    7
 10
97.82417011699421
 20
103.06348460897803
 11
98.744170116994198
 21
103.24448460897803
  0
LINE
  8
_1-6_アンカ__類
  6
CONTINUOUS
 62
    7
 10
97.82417011699421
 20
103.61740460897803
 11
97.82417011699421
 21
103.42548460897802
  0
LINE
  8
_1-6_アンカ__類
  6
CONTINUOUS
 62
    7
 10
98.744170116994198
 20
103.79840460897803
 11
98.744170116994198
 21
103.60648460897804
  0
LINE
  8
_1-6_アンカ__類
  6
CONTINUOUS
 62
    7
 10
97.82417011699421
 20
102.53140460897802
 11
97.82417011699421
 21
102.33948460897803
  0
LINE
  8
_1-6_アンカ__類
  6
CONTINUOUS
 62
    7
 10
98.744170116994198
 20
102.71240460897803
 11
98.744170116994198
 21
102.52048460897802
  0
LINE
  8
_1-6_アンカ__類
  6
CONTINUOUS
 62
    7
 10
98.874170116994193
 20
102.78744460897803
 11
97.694170116994215
 21
102.60644460897802
  0
LINE
  8
_1-6_アンカ__類
  6
CONTINUOUS
 62
    7
 10
98.874170116994193
 20
102.80744460897803
 11
97.694170116994215
 21
102.62644460897803
  0
LINE
  8
_1-6_アンカ__類
  6
CONTINUOUS
 62
    7
 10
98.874170116994193
 20
102.78744460897803
 11
98.874170116994193
 21
102.80744460897803
  0
LINE
  8
_1-6_アンカ__類
  6
CONTINUOUS
 62
    7
 10
98.874170116994193
 20
102.80744460897803
 11
98.744170116994198
 21
102.88248460897803
  0
LINE
  8
_1-6_アンカ__類
  6
CONTINUOUS
 62
    7
 10
98.874170116994193
 20
102.78744460897803
 11
98.744170116994198
 21
102.71240460897803
  0
LINE
  8
_1-6_アンカ__類
  6
CONTINUOUS
 62
    7
 10
97.694170116994215
 20
102.60644460897802
 11
97.694170116994215
 21
102.62644460897803
  0
LINE
  8
_1-6_アンカ__類
  6
CONTINUOUS
 62
    7
 10
97.694170116994215
 20
102.62644460897803
 11
97.82417011699421
 21
102.70148460897803
  0
LINE
  8
_1-6_アンカ__類
  6
CONTINUOUS
 62
    7
 10
97.694170116994215
 20
102.60644460897802
 11
97.82417011699421
 21
102.53140460897802
  0
LINE
  8
_1-6_アンカ__類
  6
CONTINUOUS
 62
    7
 10
98.744170116994198
 20
102.71240460897803
 11
97.82417011699421
 21
102.53140460897802
  0
LINE
  8
_1-6_アンカ__類
  6
CONTINUOUS
 62
    7
 10
97.82417011699421
 20
102.70148460897803
 11
98.744170116994198
 21
102.88248460897803
  0
LINE
  8
_1-6_アンカ__類
  6
CONTINUOUS
 62
    7
 10
98.874170116994193
 20
102.42544460897803
 11
97.694170116994215
 21
102.24444460897803
  0
LINE
  8
_1-6_アンカ__類
  6
CONTINUOUS
 62
    7
 10
98.874170116994193
 20
102.44544460897802
 11
97.694170116994215
 21
102.26444460897802
  0
LINE
  8
_1-6_アンカ__類
  6
CONTINUOUS
 62
    7
 10
98.874170116994193
 20
102.42544460897803
 11
98.874170116994193
 21
102.44544460897802
  0
LINE
  8
_1-6_アンカ__類
  6
CONTINUOUS
 62
    7
 10
98.874170116994193
 20
102.44544460897802
 11
98.744170116994198
 21
102.52048460897802
  0
LINE
  8
_1-6_アンカ__類
  6
CONTINUOUS
 62
    7
 10
98.874170116994193
 20
102.42544460897803
 11
98.744170116994198
 21
102.35040460897802
  0
LINE
  8
_1-6_アンカ__類
  6
CONTINUOUS
 62
    7
 10
97.694170116994215
 20
102.24444460897803
 11
97.694170116994215
 21
102.26444460897802
  0
LINE
  8
_1-6_アンカ__類
  6
CONTINUOUS
 62
    7
 10
97.694170116994215
 20
102.26444460897802
 11
97.82417011699421
 21
102.33948460897803
  0
LINE
  8
_1-6_アンカ__類
  6
CONTINUOUS
 62
    7
 10
97.694170116994215
 20
102.24444460897803
 11
97.82417011699421
 21
102.16940460897803
  0
LINE
  8
_1-6_アンカ__類
  6
CONTINUOUS
 62
    7
 10
98.744170116994198
 20
102.35040460897802
 11
97.82417011699421
 21
102.16940460897803
  0
LINE
  8
_1-6_アンカ__類
  6
CONTINUOUS
 62
    7
 10
97.82417011699421
 20
102.33948460897803
 11
98.744170116994198
 21
102.52048460897802
  0
LINE
  8
_1-6_アンカ__類
  6
CONTINUOUS
 62
    7
 10
97.82417011699421
 20
102.89340460897803
 11
97.82417011699421
 21
102.70148460897803
  0
LINE
  8
_1-6_アンカ__類
  6
CONTINUOUS
 62
    7
 10
98.744170116994198
 20
103.07440460897803
 11
98.744170116994198
 21
102.88248460897803
  0
LINE
  8
_1-6_アンカ__類
  6
CONTINUOUS
 62
    7
 10
97.82417011699421
 20
101.80740460897803
 11
97.82417011699421
 21
101.61548460897802
  0
LINE
  8
_1-6_アンカ__類
  6
CONTINUOUS
 62
    7
 10
98.744170116994198
 20
101.98840460897803
 11
98.744170116994198
 21
101.79648460897803
  0
LINE
  8
_1-6_アンカ__類
  6
CONTINUOUS
 62
    7
 10
98.874170116994193
 20
102.06344460897803
 11
97.694170116994215
 21
101.88244460897803
  0
LINE
  8
_1-6_アンカ__類
  6
CONTINUOUS
 62
    7
 10
98.874170116994193
 20
102.08344460897803
 11
97.694170116994215
 21
101.90244460897803
  0
LINE
  8
_1-6_アンカ__類
  6
CONTINUOUS
 62
    7
 10
98.874170116994193
 20
102.06344460897803
 11
98.874170116994193
 21
102.08344460897803
  0
LINE
  8
_1-6_アンカ__類
  6
CONTINUOUS
 62
    7
 10
98.874170116994193
 20
102.08344460897803
 11
98.744170116994198
 21
102.15848460897803
  0
LINE
  8
_1-6_アンカ__類
  6
CONTINUOUS
 62
    7
 10
98.874170116994193
 20
102.06344460897803
 11
98.744170116994198
 21
101.98840460897803
  0
LINE
  8
_1-6_アンカ__類
  6
CONTINUOUS
 62
    7
 10
97.694170116994215
 20
101.88244460897803
 11
97.694170116994215
 21
101.90244460897803
  0
LINE
  8
_1-6_アンカ__類
  6
CONTINUOUS
 62
    7
 10
97.694170116994215
 20
101.90244460897803
 11
97.82417011699421
 21
101.97748460897803
  0
LINE
  8
_1-6_アンカ__類
  6
CONTINUOUS
 62
    7
 10
97.694170116994215
 20
101.88244460897803
 11
97.82417011699421
 21
101.80740460897803
  0
LINE
  8
_1-6_アンカ__類
  6
CONTINUOUS
 62
    7
 10
98.744170116994198
 20
101.98840460897803
 11
97.82417011699421
 21
101.80740460897803
  0
LINE
  8
_1-6_アンカ__類
  6
CONTINUOUS
 62
    7
 10
97.82417011699421
 20
101.97748460897803
 11
98.744170116994198
 21
102.15848460897803
  0
LINE
  8
_1-6_アンカ__類
  6
CONTINUOUS
 62
    7
 10
98.874170116994193
 20
101.70144460897802
 11
98.535290116994204
 21
101.64944460897803
  0
LINE
  8
_1-6_アンカ__類
  6
CONTINUOUS
 62
    7
 10
98.377050116994198
 20
101.62520460897802
 11
97.694170116994215
 21
101.52044460897802
  0
LINE
  8
_1-6_アンカ__類
  6
CONTINUOUS
 62
    7
 10
98.874170116994193
 20
101.72144460897803
 11
98.532970116994207
 21
101.66912460897802
  0
LINE
  8
_1-6_アンカ__類
  6
CONTINUOUS
 62
    7
 10
98.374730116994201
 20
101.64484460897803
 11
97.694170116994215
 21
101.54044460897802
  0
LINE
  8
_1-6_アンカ__類
  6
CONTINUOUS
 62
    7
 10
98.874170116994193
 20
101.70144460897802
 11
98.874170116994193
 21
101.72144460897803
  0
LINE
  8
_1-6_アンカ__類
  6
CONTINUOUS
 62
    7
 10
98.874170116994193
 20
101.72144460897803
 11
98.744170116994198
 21
101.79648460897803
  0
LINE
  8
_1-6_アンカ__類
  6
CONTINUOUS
 62
    7
 10
98.874170116994193
 20
101.70144460897802
 11
98.744170116994198
 21
101.62640460897802
  0
LINE
  8
_1-6_アンカ__類
  6
CONTINUOUS
 62
    7
 10
97.694170116994215
 20
101.52044460897802
 11
97.694170116994215
 21
101.54044460897802
  0
LINE
  8
_1-6_アンカ__類
  6
CONTINUOUS
 62
    7
 10
97.694170116994215
 20
101.54044460897802
 11
97.82417011699421
 21
101.61548460897802
  0
LINE
  8
_1-6_アンカ__類
  6
CONTINUOUS
 62
    7
 10
97.694170116994215
 20
101.52044460897802
 11
97.82417011699421
 21
101.44540460897802
  0
LINE
  8
_1-6_アンカ__類
  6
CONTINUOUS
 62
    7
 10
98.744170116994198
 20
101.62640460897802
 11
97.82417011699421
 21
101.44540460897802
  0
LINE
  8
_1-6_アンカ__類
  6
CONTINUOUS
 62
    7
 10
97.82417011699421
 20
101.61548460897802
 11
98.744170116994198
 21
101.79648460897803
  0
LINE
  8
_1-6_アンカ__類
  6
CONTINUOUS
 62
    7
 10
97.82417011699421
 20
102.16940460897803
 11
97.82417011699421
 21
101.97748460897803
  0
LINE
  8
_1-6_アンカ__類
  6
CONTINUOUS
 62
    7
 10
98.744170116994198
 20
102.35040460897802
 11
98.744170116994198
 21
102.15848460897803
  0
LINE
  8
_1-6_アンカ__類
  6
CONTINUOUS
 62
    7
 10
97.82417011699421
 20
101.08340460897803
 11
97.82417011699421
 21
100.95044460897803
  0
LINE
  8
_1-6_アンカ__類
  6
CONTINUOUS
 62
    7
 10
98.744170116994198
 20
101.26440460897803
 11
98.744170116994198
 21
101.07248460897803
  0
LINE
  8
_1-6_アンカ__類
  6
CONTINUOUS
 62
    7
 10
98.874170116994193
 20
101.33944460897803
 11
98.5774501169942
 21
101.29392460897803
  0
LINE
  8
_1-6_アンカ__類
  6
CONTINUOUS
 62
    7
 10
98.419210116994194
 20
101.26964460897803
 11
97.694170116994215
 21
101.15844460897803
  0
LINE
  8
_1-6_アンカ__類
  6
CONTINUOUS
 62
    7
 10
98.874170116994193
 20
101.35944460897802
 11
98.575130116994202
 21
101.31356460897803
  0
LINE
  8
_1-6_アンカ__類
  6
CONTINUOUS
 62
    7
 10
98.41689011699421
 20
101.28928460897802
 11
97.694170116994215
 21
101.17844460897803
  0
LINE
  8
_1-6_アンカ__類
  6
CONTINUOUS
 62
    7
 10
98.874170116994193
 20
101.33944460897803
 11
98.874170116994193
 21
101.35944460897802
  0
LINE
  8
_1-6_アンカ__類
  6
CONTINUOUS
 62
    7
 10
98.874170116994193
 20
101.35944460897802
 11
98.744170116994198
 21
101.43448460897802
  0
LINE
  8
_1-6_アンカ__類
  6
CONTINUOUS
 62
    7
 10
98.874170116994193
 20
101.33944460897803
 11
98.744170116994198
 21
101.26440460897803
  0
LINE
  8
_1-6_アンカ__類
  6
CONTINUOUS
 62
    7
 10
97.694170116994215
 20
101.15844460897803
 11
97.694170116994215
 21
101.17844460897803
  0
LINE
  8
_1-6_アンカ__類
  6
CONTINUOUS
 62
    7
 10
97.694170116994215
 20
101.17844460897803
 11
97.82417011699421
 21
101.25348460897803
  0
LINE
  8
_1-6_アンカ__類
  6
CONTINUOUS
 62
    7
 10
97.694170116994215
 20
101.15844460897803
 11
97.82417011699421
 21
101.08340460897803
  0
LINE
  8
_1-6_アンカ__類
  6
CONTINUOUS
 62
    7
 10
98.744170116994198
 20
101.26440460897803
 11
97.82417011699421
 21
101.08340460897803
  0
LINE
  8
_1-6_アンカ__類
  6
CONTINUOUS
 62
    7
 10
97.82417011699421
 20
101.25348460897803
 11
98.744170116994198
 21
101.43448460897802
  0
LINE
  8
_1-6_アンカ__類
  6
CONTINUOUS
 62
    7
 10
98.874170116994193
 20
100.97744460897803
 11
98.597970116994205
 21
100.93252460897803
  0
LINE
  8
_1-6_アンカ__類
  6
CONTINUOUS
 62
    7
 10
98.452370116994203
 20
100.90888460897803
 11
97.708810116994201
 21
100.78800460897803
  0
LINE
  8
_1-6_アンカ__類
  6
CONTINUOUS
 62
    7
 10
98.874170116994193
 20
100.99744460897803
 11
98.54941011699421
 21
100.94896460897803
  0
LINE
  8
_1-6_アンカ__類
  6
CONTINUOUS
 62
    7
 10
98.53701011699421
 20
100.94712460897803
 11
97.705650116994192
 21
100.82304460897802
  0
LINE
  8
_1-6_アンカ__類
  6
CONTINUOUS
 62
    7
 10
98.874170116994193
 20
100.97744460897803
 11
98.874170116994193
 21
100.99744460897803
  0
LINE
  8
_1-6_アンカ__類
  6
CONTINUOUS
 62
    7
 10
98.874170116994193
 20
100.99744460897803
 11
98.744170116994198
 21
101.07248460897803
  0
LINE
  8
_1-6_アンカ__類
  6
CONTINUOUS
 62
    7
 10
98.874170116994193
 20
100.97744460897803
 11
98.745010116994209
 21
100.90288460897803
  0
LINE
  8
_1-6_アンカ__類
  6
CONTINUOUS
 62
    7
 10
97.708810116994201
 20
100.78800460897803
 11
97.705650116994192
 21
100.82304460897802
  0
LINE
  8
_1-6_アンカ__類
  6
CONTINUOUS
 62
    7
 10
97.705650116994192
 20
100.82304460897802
 11
97.823130116994193
 21
100.89088460897803
  0
LINE
  8
_1-6_アンカ__類
  6
CONTINUOUS
 62
    7
 10
97.708810116994201
 20
100.78800460897803
 11
97.820250116994217
 21
100.72368460897803
  0
LINE
  8
_1-6_アンカ__類
  6
CONTINUOUS
 62
    7
 10
98.745010116994209
 20
100.90288460897803
 11
98.641770116994195
 21
100.88288460897803
  0
LINE
  8
_1-6_アンカ__類
  6
CONTINUOUS
 62
    7
 10
98.437650116994206
 20
100.84332460897804
 11
97.820250116994217
 21
100.72368460897803
  0
LINE
  8
_1-6_アンカ__類
  6
CONTINUOUS
 62
    7
 10
97.823130116994193
 20
100.89088460897803
 11
98.744170116994198
 21
101.07248460897803
  0
LINE
  8
_1-6_アンカ__類
  6
CONTINUOUS
 62
    7
 10
97.82417011699421
 20
101.44540460897802
 11
97.82417011699421
 21
101.25348460897803
  0
LINE
  8
_1-6_アンカ__類
  6
CONTINUOUS
 62
    7
 10
98.744170116994198
 20
101.62640460897802
 11
98.744170116994198
 21
101.43448460897802
  0
LINE
  8
_1-6_アンカ__類
  6
CONTINUOUS
 62
    7
 10
97.813970116994213
 20
100.36528460897803
 11
97.810370116994207
 21
100.15952460897803
  0
LINE
  8
_1-6_アンカ__類
  6
CONTINUOUS
 62
    7
 10
98.751290116994213
 20
100.54448460897802
 11
98.754810116994193
 21
100.34236460897803
  0
LINE
  8
_1-6_アンカ__類
  6
CONTINUOUS
 62
    7
 10
98.842370116994203
 20
100.59708460897804
 11
98.625770116994218
 21
100.55944460897803
  0
LINE
  8
_1-6_アンカ__類
  6
CONTINUOUS
 62
    7
 10
98.321130116994212
 20
100.50656460897802
 11
97.743170116994207
 21
100.40616460897803
  0
LINE
  8
_1-6_アンカ__類
  6
CONTINUOUS
 62
    7
 10
98.847250116994203
 20
100.65100460897803
 11
98.621570116994192
 21
100.61604460897803
  0
LINE
  8
_1-6_アンカ__類
  6
CONTINUOUS
 62
    7
 10
98.335770116994198
 20
100.57176460897803
 11
97.736610116994186
 21
100.47896460897803
  0
LINE
  8
_1-6_アンカ__類
  6
CONTINUOUS
 62
    7
 10
98.842370116994203
 20
100.59708460897804
 11
98.847250116994203
 21
100.65100460897803
  0
LINE
  8
_1-6_アンカ__類
  6
CONTINUOUS
 62
    7
 10
98.847250116994203
 20
100.65100460897803
 11
98.748410116994208
 21
100.70804460897803
  0
LINE
  8
_1-6_アンカ__類
  6
CONTINUOUS
 62
    7
 10
98.842370116994203
 20
100.59708460897804
 11
98.751290116994213
 21
100.54448460897802
  0
LINE
  8
_1-6_アンカ__類
  6
CONTINUOUS
 62
    7
 10
97.743170116994207
 20
100.40616460897803
 11
97.736610116994186
 21
100.47896460897803
  0
LINE
  8
_1-6_アンカ__類
  6
CONTINUOUS
 62
    7
 10
97.736610116994186
 20
100.47896460897803
 11
97.816770116994192
 21
100.52520460897803
  0
LINE
  8
_1-6_アンカ__類
  6
CONTINUOUS
 62
    7
 10
97.743170116994207
 20
100.40616460897803
 11
97.813970116994213
 21
100.36528460897803
  0
LINE
  8
_1-6_アンカ__類
  6
CONTINUOUS
 62
    7
 10
98.751290116994213
 20
100.54448460897802
 11
98.668170116994204
 21
100.52860460897803
  0
LINE
  8
_1-6_アンカ__類
  6
CONTINUOUS
 62
    7
 10
98.353570116994192
 20
100.46844460897803
 11
97.813970116994213
 21
100.36528460897803
  0
LINE
  8
_1-6_アンカ__類
  6
CONTINUOUS
 62
    7
 10
97.816770116994192
 20
100.52520460897803
 11
98.391610116994201
 21
100.63804460897802
  0
LINE
  8
_1-6_アンカ__類
  6
CONTINUOUS
 62
    7
 10
98.656170116994204
 20
100.68996460897803
 11
98.748410116994208
 21
100.70804460897803
  0
LINE
  8
_1-6_アンカ__類
  6
CONTINUOUS
 62
    7
 10
98.808010116994197
 20
100.21524460897803
 11
98.65353011699419
 21
100.18660460897803
  0
LINE
  8
_1-6_アンカ__類
  6
CONTINUOUS
 62
    7
 10
98.23185011699421
 20
100.10848460897803
 11
97.7775301169942
 21
100.02432460897802
  0
LINE
  8
_1-6_アンカ__類
  6
CONTINUOUS
 62
    7
 10
98.816250116994198
 20
100.30688460897802
 11
98.646650116994195
 21
100.27904460897803
  0
LINE
  8
_1-6_アンカ__類
  6
CONTINUOUS
 62
    7
 10
98.255730116994201
 20
100.21492460897804
 11
97.767610116994192
 21
100.13484460897803
  0
LINE
  8
_1-6_アンカ__類
  6
CONTINUOUS
 62
    7
 10
98.808010116994197
 20
100.21524460897803
 11
98.816250116994198
 21
100.30688460897802
  0
LINE
  8
_1-6_アンカ__類
  6
CONTINUOUS
 62
    7
 10
98.816250116994198
 20
100.30688460897802
 11
98.754810116994193
 21
100.34236460897803
  0
LINE
  8
_1-6_アンカ__類
  6
CONTINUOUS
 62
    7
 10
98.808010116994197
 20
100.21524460897803
 11
98.757530116994204
 21
100.18608460897804
  0
LINE
  8
_1-6_アンカ__類
  6
CONTINUOUS
 62
    7
 10
97.7775301169942
 20
100.02432460897802
 11
97.767610116994192
 21
100.13484460897803
  0
LINE
  8
_1-6_アンカ__類
  6
CONTINUOUS
 62
    7
 10
97.767610116994192
 20
100.13484460897803
 11
97.810370116994207
 21
100.15952460897803
  0
LINE
  8
_1-6_アンカ__類
  6
CONTINUOUS
 62
    7
 10
97.7775301169942
 20
100.02432460897802
 11
97.807730116994193
 21
100.00688460897803
  0
LINE
  8
_1-6_アンカ__類
  6
CONTINUOUS
 62
    7
 10
98.757530116994204
 20
100.18608460897804
 11
98.6945701169942
 21
100.17420460897803
  0
LINE
  8
_1-6_アンカ__類
  6
CONTINUOUS
 62
    7
 10
98.269610116994201
 20
100.09404460897802
 11
97.807730116994193
 21
100.00688460897803
  0
LINE
  8
_1-6_アンカ__類
  6
CONTINUOUS
 62
    7
 10
97.810370116994207
 20
100.15952460897803
 11
98.305810116994195
 21
100.25544460897802
  0
LINE
  8
_1-6_アンカ__類
  6
CONTINUOUS
 62
    7
 10
98.683090116994194
 20
100.32848460897803
 11
98.754810116994193
 21
100.34236460897803
  0
LINE
  8
_1-6_アンカ__類
  6
CONTINUOUS
 62
    7
 10
97.820250116994217
 20
100.72368460897803
 11
97.816770116994192
 21
100.52520460897803
  0
LINE
  8
_1-6_アンカ__類
  6
CONTINUOUS
 62
    7
 10
98.745010116994209
 20
100.90288460897803
 11
98.748410116994208
 21
100.70804460897803
  0
LINE
  8
_1-6_アンカ__類
  6
CONTINUOUS
 62
    7
 10
98.785290116994204
 20
99.962764608978034
 11
98.714650116994207
 21
99.950444608978032
  0
LINE
  8
_1-6_アンカ__類
  6
CONTINUOUS
 62
    7
 10
98.784170116994204
 20
99.950444608978032
 11
98.785290116994204
 21
99.962764608978034
  0
LINE
  8
_1-6_アンカ__類
  6
CONTINUOUS
 62
    7
 10
98.785290116994204
 20
99.962764608978034
 11
98.761170116994194
 21
99.976684608978033
  0
LINE
  8
_1-6_アンカ__類
  6
CONTINUOUS
 62
    7
 10
98.710010116994212
 20
99.966924608978033
 11
98.761170116994194
 21
99.976684608978033
  0
LINE
  8
_1-6_アンカ__類
  6
CONTINUOUS
 62
    7
 10
97.807730116994193
 20
100.00688460897803
 11
97.806730116994203
 21
99.950444608978032
  0
LINE
  8
_1-6_アンカ__類
  6
CONTINUOUS
 62
    7
 10
98.757530116994204
 20
100.18608460897804
 11
98.761170116994194
 21
99.976684608978033
  0
LINE
  8
_1-6_アンカ__類
  6
CONTINUOUS
 62
    7
 10
97.82417011699421
 20
100.95044460897803
 11
97.823130116994193
 21
100.89088460897803
  0
LINE
  8
_1-6_アンカ__類
  6
CONTINUOUS
 62
    7
 10
97.784170116994204
 20
99.950444608978032
 11
98.237410116994198
 21
99.950444608978032
  0
LINE
  8
_1-6_アンカ__類
  6
CONTINUOUS
 62
    7
 10
98.6836901169942
 20
99.950444608978032
 11
98.784170116994204
 21
99.950444608978032
  0
LINE
  8
_1-6_アンカ__類
  6
CONTINUOUS
 62
    7
 10
98.710010116994212
 20
99.966924608978033
 11
98.6945701169942
 21
100.17420460897803
  0
LINE
  8
_1-6_アンカ__類
  6
CONTINUOUS
 62
    7
 10
98.683090116994194
 20
100.32848460897803
 11
98.668170116994204
 21
100.52860460897803
  0
LINE
  8
_1-6_アンカ__類
  6
CONTINUOUS
 62
    7
 10
98.656170116994204
 20
100.68996460897803
 11
98.641770116994195
 21
100.88288460897803
  0
LINE
  8
_1-6_アンカ__類
  6
CONTINUOUS
 62
    7
 10
98.65353011699419
 20
100.18660460897803
 11
98.646650116994195
 21
100.27904460897803
  0
LINE
  8
_1-6_アンカ__類
  6
CONTINUOUS
 62
    7
 10
98.625770116994218
 20
100.55944460897803
 11
98.621570116994192
 21
100.61604460897803
  0
LINE
  8
_1-6_アンカ__類
  6
CONTINUOUS
 62
    7
 10
98.597970116994205
 20
100.93252460897803
 11
98.596730116994209
 21
100.94924460897803
  0
LINE
  8
_1-6_アンカ__類
  6
CONTINUOUS
 62
    7
 10
98.237410116994198
 20
99.950444608978032
 11
98.453050116994206
 21
100.91196460897802
  0
LINE
  8
_1-6_アンカ__類
  6
CONTINUOUS
 62
    7
 10
98.23185011699421
 20
100.10848460897803
 11
98.255730116994201
 21
100.21492460897804
  0
LINE
  8
_1-6_アンカ__類
  6
CONTINUOUS
 62
    7
 10
98.321130116994212
 20
100.50656460897802
 11
98.335770116994198
 21
100.57176460897803
  0
LINE
  8
_1-6_アンカ__類
  6
CONTINUOUS
 62
    7
 10
98.710010116994212
 20
99.966924608978033
 11
98.6836901169942
 21
99.950444608978032
  0
LINE
  8
_1-6_アンカ__類
  6
CONTINUOUS
 62
    7
 10
98.683090116994194
 20
100.32848460897803
 11
98.646650116994195
 21
100.27904460897803
  0
LINE
  8
_1-6_アンカ__類
  6
CONTINUOUS
 62
    7
 10
98.65353011699419
 20
100.18660460897803
 11
98.6945701169942
 21
100.17420460897803
  0
LINE
  8
_1-6_アンカ__類
  6
CONTINUOUS
 62
    7
 10
98.656170116994204
 20
100.68996460897803
 11
98.621570116994192
 21
100.61604460897803
  0
LINE
  8
_1-6_アンカ__類
  6
CONTINUOUS
 62
    7
 10
98.625770116994218
 20
100.55944460897803
 11
98.668170116994204
 21
100.52860460897803
  0
LINE
  8
_1-6_アンカ__類
  6
CONTINUOUS
 62
    7
 10
98.641770116994195
 20
100.88288460897803
 11
98.597970116994205
 21
100.93252460897803
  0
LINE
  8
_1-6_アンカ__類
  6
CONTINUOUS
 62
    7
 10
98.391610116994201
 20
100.63804460897802
 11
98.335770116994198
 21
100.57176460897803
  0
LINE
  8
_1-6_アンカ__類
  6
CONTINUOUS
 62
    7
 10
98.321130116994212
 20
100.50656460897802
 11
98.353570116994192
 21
100.46844460897803
  0
LINE
  8
_1-6_アンカ__類
  6
CONTINUOUS
 62
    7
 10
98.255730116994201
 20
100.21492460897804
 11
98.305810116994195
 21
100.25544460897802
  0
LINE
  8
_1-6_アンカ__類
  6
CONTINUOUS
 62
    7
 10
98.23185011699421
 20
100.10848460897803
 11
98.269610116994201
 21
100.09404460897802
  0
LINE
  8
_1-6_アンカ__類
  6
CONTINUOUS
 62
    7
 10
98.744170116994198
 20
104.78844460897803
 11
98.744170116994198
 21
104.69248460897802
  0
LINE
  8
_1-6_アンカ__類
  6
CONTINUOUS
 62
    7
 10
98.505930116994207
 20
101.21752460897802
 11
98.486250116994213
 21
101.38376460897803
  0
LINE
  8
_1-6_アンカ__類
  6
CONTINUOUS
 62
    7
 10
98.464010116994203
 20
101.57128460897803
 11
98.444290116994196
 21
101.73748460897804
  0
LINE
  8
_1-6_アンカ__類
  6
CONTINUOUS
 62
    7
 10
98.4220501169942
 20
101.92500460897803
 11
98.4190501169942
 21
101.95044460897803
  0
LINE
  8
_1-6_アンカ__類
  6
CONTINUOUS
 62
    7
 10
98.5774501169942
 20
101.29392460897803
 11
98.575130116994202
 21
101.31356460897803
  0
LINE
  8
_1-6_アンカ__類
  6
CONTINUOUS
 62
    7
 10
98.535290116994204
 20
101.64944460897803
 11
98.532970116994207
 21
101.66912460897802
  0
LINE
  8
_1-6_アンカ__類
  6
CONTINUOUS
 62
    7
 10
98.419210116994194
 20
101.26964460897803
 11
98.41689011699421
 21
101.28928460897802
  0
LINE
  8
_1-6_アンカ__類
  6
CONTINUOUS
 62
    7
 10
98.377050116994198
 20
101.62520460897802
 11
98.374730116994201
 21
101.64484460897803
  0
LINE
  8
_1-6_アンカ__類
  6
CONTINUOUS
 62
    7
 10
98.575130116994202
 20
101.31356460897803
 11
98.486250116994213
 21
101.38376460897803
  0
LINE
  8
_1-6_アンカ__類
  6
CONTINUOUS
 62
    7
 10
98.486250116994213
 20
101.38376460897803
 11
98.41689011699421
 21
101.28928460897802
  0
LINE
  8
_1-6_アンカ__類
  6
CONTINUOUS
 62
    7
 10
98.419210116994194
 20
101.26964460897803
 11
98.505930116994207
 21
101.21752460897802
  0
LINE
  8
_1-6_アンカ__類
  6
CONTINUOUS
 62
    7
 10
98.505930116994207
 20
101.21752460897802
 11
98.5774501169942
 21
101.29392460897803
  0
LINE
  8
_1-6_アンカ__類
  6
CONTINUOUS
 62
    7
 10
98.532970116994207
 20
101.66912460897802
 11
98.444290116994196
 21
101.73748460897804
  0
LINE
  8
_1-6_アンカ__類
  6
CONTINUOUS
 62
    7
 10
98.444290116994196
 20
101.73748460897804
 11
98.374730116994201
 21
101.64484460897803
  0
LINE
  8
_1-6_アンカ__類
  6
CONTINUOUS
 62
    7
 10
98.377050116994198
 20
101.62520460897802
 11
98.464010116994203
 21
101.57128460897803
  0
LINE
  8
_1-6_アンカ__類
  6
CONTINUOUS
 62
    7
 10
98.464010116994203
 20
101.57128460897803
 11
98.535290116994204
 21
101.64944460897803
  0
LINE
  8
_1-6_アンカ__類
  6
CONTINUOUS
 62
    7
 10
98.444650116994197
 20
101.95044460897803
 11
98.4220501169942
 21
101.92500460897803
  0
LINE
  8
_1-6_アンカ__類
  6
CONTINUOUS
 62
    7
 10
98.4220501169942
 20
101.92500460897803
 11
98.382290116994213
 21
101.95044460897803
  0
LINE
  8
_1-6_アンカ__類
  6
CONTINUOUS
 62
    7
 10
98.444650116994197
 20
101.95044460897803
 11
98.382290116994213
 21
101.95044460897803
  0
LINE
  8
_1-6_アンカ__類
  6
CONTINUOUS
 62
    7
 10
97.924170116994205
 20
110.15044460897803
 11
97.943370116994203
 21
109.60120460897802
  0
LINE
  8
_1-6_アンカ__類
  6
CONTINUOUS
 62
    7
 10
98.284170116994204
 20
109.40444460897803
 11
97.943370116994203
 21
109.60120460897802
  0
LINE
  8
_1-6_アンカ__類
  6
CONTINUOUS
 62
    7
 10
98.284170116994204
 20
109.40444460897803
 11
98.625010116994204
 21
109.60120460897802
  0
LINE
  8
_1-6_アンカ__類
  6
CONTINUOUS
 62
    7
 10
98.644170116994204
 20
110.15044460897803
 11
98.625010116994204
 21
109.60120460897802
  0
ARC
  8
_1-6_アンカ__類
  6
CONTINUOUS
 62
    7
 10
211.44369011699422
 20
109.17676460897803
 40
0.4
 50
135.00000000000003
 51
180.00000000000006
  0
ARC
  8
_1-6_アンカ__類
  6
CONTINUOUS
 62
    7
 10
209.65969011699423
 20
109.17676460897803
 40
0.4
 50
0
 51
45.000000000000014
  0
ARC
  8
_1-6_アンカ__類
  6
CONTINUOUS
 62
    7
 10
210.84169011699424
 20
100.74044460897802
 40
0.21
 50
83.837000000000018
 51
125.23000000000002
  0
ARC
  8
_1-6_アンカ__類
  6
CONTINUOUS
 62
    7
 10
210.18989011699421
 20
98.612084608978023
 40
0.1
 50
50.000000000000014
 51
156.44600000000003
  0
ARC
  8
_1-6_アンカ__類
  6
CONTINUOUS
 62
    7
 10
210.44609011699418
 20
98.658204608978025
 40
0.1
 50
230.00000000000006
 51
330.00000000000006
  0
ARC
  8
_1-6_アンカ__類
  6
CONTINUOUS
 62
    7
 10
210.79125011699421
 20
98.456044608978033
 40
0.3
 50
150.00000000000003
 51
192.50000000000003
  0
ARC
  8
_1-6_アンカ__類
  6
CONTINUOUS
 62
    7
 10
210.20225011699421
 20
98.340644608978025
 40
0.3
 50
12.500000000000004
 51
50.000000000000014
  0
ARC
  8
_1-6_アンカ__類
  6
CONTINUOUS
 62
    7
 10
209.85169011699423
 20
98.837244608978025
 40
0.3
 50
336.44600000000008
 51
0.0000000000000795
  0
ARC
  8
_1-6_アンカ__類
  6
CONTINUOUS
 62
    7
 10
210.4516901169942
 20
98.914564608978026
 40
0.3
 50
180.00000000000006
 51
230.00000000000009
  0
ARC
  8
_1-6_アンカ__類
  6
CONTINUOUS
 62
    7
 10
210.54561011699417
 20
110.32236460897803
 40
0.72116
 50
242.08300000000008
 51
297.91700000000003
  0
ARC
  8
_1-6_アンカ__類
  6
CONTINUOUS
 62
    7
 10
221.44369011699422
 20
109.17676460897803
 40
0.4
 50
135.00000000000003
 51
180.00000000000006
  0
ARC
  8
_1-6_アンカ__類
  6
CONTINUOUS
 62
    7
 10
219.65969011699423
 20
109.17676460897803
 40
0.4
 50
0
 51
45.000000000000014
  0
ARC
  8
_1-6_アンカ__類
  6
CONTINUOUS
 62
    7
 10
220.84169011699424
 20
100.74044460897802
 40
0.21
 50
83.837000000000018
 51
125.23000000000002
  0
ARC
  8
_1-6_アンカ__類
  6
CONTINUOUS
 62
    7
 10
220.18989011699421
 20
98.612084608978023
 40
0.1
 50
50.000000000000014
 51
156.44600000000003
  0
ARC
  8
_1-6_アンカ__類
  6
CONTINUOUS
 62
    7
 10
220.44609011699418
 20
98.658204608978025
 40
0.1
 50
230.00000000000006
 51
330.00000000000006
  0
ARC
  8
_1-6_アンカ__類
  6
CONTINUOUS
 62
    7
 10
220.79125011699421
 20
98.456044608978033
 40
0.3
 50
150.00000000000003
 51
192.50000000000003
  0
ARC
  8
_1-6_アンカ__類
  6
CONTINUOUS
 62
    7
 10
220.20225011699421
 20
98.340644608978025
 40
0.3
 50
12.500000000000004
 51
50.000000000000014
  0
ARC
  8
_1-6_アンカ__類
  6
CONTINUOUS
 62
    7
 10
219.85169011699423
 20
98.837244608978025
 40
0.3
 50
336.44600000000008
 51
0.0000000000000795
  0
ARC
  8
_1-6_アンカ__類
  6
CONTINUOUS
 62
    7
 10
220.4516901169942
 20
98.914564608978026
 40
0.3
 50
180.00000000000006
 51
230.00000000000009
  0
ARC
  8
_1-6_アンカ__類
  6
CONTINUOUS
 62
    7
 10
220.54561011699417
 20
110.32236460897803
 40
0.72116
 50
242.08300000000008
 51
297.91700000000003
  0
ARC
  8
_1-6_アンカ__類
  6
CONTINUOUS
 62
    7
 10
99.1761701169942
 20
109.17676460897803
 40
0.4
 50
135.00000000000003
 51
180.00000000000006
  0
ARC
  8
_1-6_アンカ__類
  6
CONTINUOUS
 62
    7
 10
97.392170116994208
 20
109.17676460897803
 40
0.4
 50
0
 51
45.000000000000014
  0
ARC
  8
_1-6_アンカ__類
  6
CONTINUOUS
 62
    7
 10
98.57417011699421
 20
100.74044460897802
 40
0.21
 50
83.837000000000018
 51
125.23000000000002
  0
ARC
  8
_1-6_アンカ__類
  6
CONTINUOUS
 62
    7
 10
97.9224101169942
 20
98.612084608978023
 40
0.1
 50
50.000000000000014
 51
156.44600000000003
  0
ARC
  8
_1-6_アンカ__類
  6
CONTINUOUS
 62
    7
 10
98.178570116994209
 20
98.658204608978025
 40
0.1
 50
230.00000000000006
 51
330.00000000000006
  0
ARC
  8
_1-6_アンカ__類
  6
CONTINUOUS
 62
    7
 10
98.523730116994201
 20
98.456044608978033
 40
0.3
 50
150.00000000000003
 51
192.50000000000003
  0
ARC
  8
_1-6_アンカ__類
  6
CONTINUOUS
 62
    7
 10
97.934730116994203
 20
98.340644608978025
 40
0.3
 50
12.500000000000004
 51
50.000000000000014
  0
ARC
  8
_1-6_アンカ__類
  6
CONTINUOUS
 62
    7
 10
97.584170116994201
 20
98.837244608978025
 40
0.3
 50
336.44600000000008
 51
0.0000000000000795
  0
ARC
  8
_1-6_アンカ__類
  6
CONTINUOUS
 62
    7
 10
98.184170116994196
 20
98.914564608978026
 40
0.3
 50
180.00000000000006
 51
230.00000000000009
  0
ARC
  8
_1-6_アンカ__類
  6
CONTINUOUS
 62
    7
 10
98.278090116994193
 20
110.32236460897803
 40
0.72116
 50
242.08300000000008
 51
297.91700000000003
  0
LINE
  8
_1-3_断熱材
  6
CONTINUOUS
 62
    7
 10
151.87385011699419
 20
103.22044460897803
 11
210.09169011699424
 21
103.22044460897803
  0
LINE
  8
_1-3_断熱材
  6
CONTINUOUS
 62
    7
 10
151.87385011699419
 20
103.15044460897803
 11
210.09169011699424
 21
103.15044460897803
  0
LINE
  8
_1-8_下地など
  6
CONTINUOUS
 62
    7
 10
215.15169011699419
 20
103.15044460897803
 11
211.1416901169942
 21
103.15044460897803
  0
LINE
  8
_1-8_下地など
  6
CONTINUOUS
 62
    7
 10
210.07256431742064
 20
102.69044460897803
 11
206.21169011699419
 21
102.69044460897803
  0
LINE
  8
_1-8_下地など
  6
CONTINUOUS
 62
    7
 10
214.8916901169942
 20
102.69044460897803
 11
211.0116901169942
 21
102.69044460897803
  0
LINE
  8
_1-8_下地など
  6
CONTINUOUS
 62
    7
 10
215.9516901169942
 20
103.15044460897803
 11
220.09169011699424
 21
103.15044460897803
  0
LINE
  8
_1-3_断熱材
  6
CONTINUOUS
 62
    7
 10
221.05333723852939
 20
103.22044460897803
 11
238.28341011699422
 21
103.22044460897803
  0
LINE
  8
_1-8_下地など
  6
CONTINUOUS
 62
    7
 10
221.1416901169942
 20
103.15044460897803
 11
225.15169011699419
 21
103.15044460897803
  0
LINE
  8
_1-8_下地など
  6
CONTINUOUS
 62
    7
 10
221.0116901169942
 20
102.69044460897803
 11
224.8916901169942
 21
102.69044460897803
  0
LINE
  8
_1-8_下地など
  6
CONTINUOUS
 62
    7
 10
216.21169011699419
 20
102.69044460897803
 11
220.07256431742064
 21
102.69044460897803
  0
LINE
  8
_1-3_断熱材
  6
CONTINUOUS
 62
    7
 10
85.702170116994196
 20
103.22044460897803
 11
97.82417011699421
 21
103.22044460897803
  0
LINE
  8
_1-3_断熱材
  6
CONTINUOUS
 62
    7
 10
98.785817238529376
 20
103.22044460897803
 11
150.8721701169942
 21
103.22044460897803
  0
LINE
  8
_1-3_断熱材
  6
CONTINUOUS
 62
    7
 10
98.874170116994193
 20
103.15044460897803
 11
150.8721701169942
 21
103.15044460897803
  0
LINE
  8
_1-8_下地など
  6
CONTINUOUS
 62
    7
 10
93.684170116994196
 20
103.15044460897803
 11
97.82417011699421
 21
103.15044460897803
  0
LINE
  8
_1-8_下地など
  6
CONTINUOUS
 62
    7
 10
98.874170116994193
 20
103.15044460897803
 11
102.88417011699421
 21
103.15044460897803
  0
LINE
  8
_1-8_下地など
  6
CONTINUOUS
 62
    7
 10
93.944170116994201
 20
102.69044460897803
 11
97.805044317420638
 21
102.69044460897803
  0
LINE
  8
_1-8_下地など
  6
CONTINUOUS
 62
    7
 10
98.744170116994198
 20
102.69044460897803
 11
102.62417011699419
 21
102.69044460897803
  0
LINE
  8
_1-3_断熱材
  6
CONTINUOUS
 62
    7
 10
202.61589011699419
 20
103.22044460897803
 11
209.39879011699421
 21
110.00334460897804
  0
LINE
  8
_1-3_断熱材
  6
CONTINUOUS
 62
    7
 10
153.81961011699423
 20
110.05044460897804
 11
209.35169011699423
 21
110.05044460897804
  0
LINE
  8
_1-3_断熱材
  6
CONTINUOUS
 62
    7
 10
153.81961011699423
 20
110.15044460897803
 11
209.35169011699423
 21
110.15044460897803
  0
LINE
  8
_1-3_断熱材
  6
CONTINUOUS
 62
    7
 10
211.75169011699421
 20
110.15044460897803
 11
219.35169011699423
 21
110.15044460897803
  0
LINE
  8
_1-3_断熱材
  6
CONTINUOUS
 62
    7
 10
221.75169011699421
 20
110.15044460897803
 11
238.28341011699422
 21
110.15044460897803
  0
LINE
  8
_1-3_断熱材
  6
CONTINUOUS
 62
    7
 10
221.75169011699421
 20
110.05044460897804
 11
238.28341011699422
 21
110.05044460897804
  0
LINE
  8
_1-3_断熱材
  6
CONTINUOUS
 62
    7
 10
87.647890116994205
 20
110.15044460897803
 11
97.084170116994201
 21
110.15044460897803
  0
LINE
  8
_1-3_断熱材
  6
CONTINUOUS
 62
    7
 10
87.647890116994205
 20
110.05044460897804
 11
97.084170116994201
 21
110.05044460897804
  0
LINE
  8
_1-3_断熱材
  6
CONTINUOUS
 62
    7
 10
99.484170116994207
 20
110.15044460897803
 11
152.81033011699418
 21
110.15044460897803
  0
LINE
  8
_1-3_断熱材
  6
CONTINUOUS
 62
    7
 10
99.484170116994207
 20
110.05044460897804
 11
152.81033011699418
 21
110.05044460897804
  0
LINE
  8
_1-7_設備
  6
CONTINUOUS
 62
    5
 10
215.05169011699422
 20
103.15044460897803
 11
216.05169011699422
 21
103.15044460897803
  0
LINE
  8
_1-7_設備
  6
CONTINUOUS
 62
    5
 10
216.05169011699422
 20
103.15044460897803
 11
216.05169011699422
 21
110.15044460897803
  0
LINE
  8
_1-7_設備
  6
CONTINUOUS
 62
    5
 10
216.05169011699422
 20
110.15044460897803
 11
215.05169011699422
 21
110.15044460897803
  0
LINE
  8
_1-7_設備
  6
CONTINUOUS
 62
    5
 10
215.05169011699422
 20
110.15044460897803
 11
215.05169011699422
 21
103.15044460897803
  0
LINE
  8
_1-7_設備
  6
CONTINUOUS
 62
    5
 10
215.05169011699422
 20
109.51440460897803
 11
215.6877301169942
 21
110.15044460897803
  0
LINE
  8
_1-7_設備
  6
CONTINUOUS
 62
    5
 10
215.05169011699422
 20
108.80728460897802
 11
216.05169011699422
 21
109.80728460897802
  0
LINE
  8
_1-7_設備
  6
CONTINUOUS
 62
    5
 10
215.05169011699422
 20
108.10020460897803
 11
216.05169011699422
 21
109.10020460897803
  0
LINE
  8
_1-7_設備
  6
CONTINUOUS
 62
    5
 10
215.05169011699422
 20
107.39308460897803
 11
216.05169011699422
 21
108.39308460897803
  0
LINE
  8
_1-7_設備
  6
CONTINUOUS
 62
    5
 10
215.05169011699422
 20
106.68596460897803
 11
216.05169011699422
 21
107.68596460897803
  0
LINE
  8
_1-7_設備
  6
CONTINUOUS
 62
    5
 10
215.05169011699422
 20
105.97888460897803
 11
216.05169011699422
 21
106.97888460897803
  0
LINE
  8
_1-7_設備
  6
CONTINUOUS
 62
    5
 10
215.05169011699422
 20
105.27176460897803
 11
216.05169011699422
 21
106.27176460897803
  0
LINE
  8
_1-7_設備
  6
CONTINUOUS
 62
    5
 10
215.05169011699422
 20
104.56464460897803
 11
216.05169011699422
 21
105.56464460897803
  0
LINE
  8
_1-7_設備
  6
CONTINUOUS
 62
    5
 10
215.05169011699422
 20
103.85756460897802
 11
216.05169011699422
 21
104.85756460897802
  0
LINE
  8
_1-7_設備
  6
CONTINUOUS
 62
    5
 10
215.05169011699422
 20
103.15044460897803
 11
216.05169011699422
 21
104.15044460897803
  0
LINE
  8
_1-7_設備
  6
CONTINUOUS
 62
    5
 10
215.05169011699422
 20
103.15044460897803
 11
216.05169011699422
 21
104.15044460897803
  0
LINE
  8
_1-7_設備
  6
CONTINUOUS
 62
    5
 10
215.7588101169942
 20
103.15044460897803
 11
216.05169011699422
 21
103.44332460897803
  0
LINE
  8
_1-7_設備
  6
CONTINUOUS
 62
    5
 10
215.7588101169942
 20
103.15044460897803
 11
215.05169011699422
 21
103.85756460897802
  0
LINE
  8
_1-7_設備
  6
CONTINUOUS
 62
    5
 10
216.05169011699422
 20
103.56464460897803
 11
215.05169011699422
 21
104.56464460897803
  0
LINE
  8
_1-7_設備
  6
CONTINUOUS
 62
    5
 10
216.05169011699422
 20
104.27176460897803
 11
215.05169011699422
 21
105.27176460897803
  0
LINE
  8
_1-7_設備
  6
CONTINUOUS
 62
    5
 10
216.05169011699422
 20
104.97888460897803
 11
215.05169011699422
 21
105.97888460897803
  0
LINE
  8
_1-7_設備
  6
CONTINUOUS
 62
    5
 10
216.05169011699422
 20
105.68596460897803
 11
215.05169011699422
 21
106.68596460897803
  0
LINE
  8
_1-7_設備
  6
CONTINUOUS
 62
    5
 10
216.05169011699422
 20
106.39308460897803
 11
215.05169011699422
 21
107.39308460897803
  0
LINE
  8
_1-7_設備
  6
CONTINUOUS
 62
    5
 10
216.05169011699422
 20
107.10020460897803
 11
215.05169011699422
 21
108.10020460897803
  0
LINE
  8
_1-7_設備
  6
CONTINUOUS
 62
    5
 10
216.05169011699422
 20
107.80728460897802
 11
215.05169011699422
 21
108.80728460897802
  0
LINE
  8
_1-7_設備
  6
CONTINUOUS
 62
    5
 10
216.05169011699422
 20
108.51440460897803
 11
215.05169011699422
 21
109.51440460897803
  0
LINE
  8
_1-7_設備
  6
CONTINUOUS
 62
    5
 10
216.05169011699422
 20
109.22152460897803
 11
215.12277011699422
 21
110.15044460897803
  0
LINE
  8
_1-7_設備
  6
CONTINUOUS
 62
    5
 10
216.05169011699422
 20
109.92860460897802
 11
215.82989011699419
 21
110.15044460897803
  0
LINE
  8
_1-3_断熱材
  6
CONTINUOUS
 62
    7
 10
211.75169011699421
 20
110.05044460897804
 11
215.05169011699422
 21
110.05044460897804
  0
LINE
  8
_1-3_断熱材
  6
CONTINUOUS
 62
    7
 10
216.05169011699422
 20
110.05044460897804
 11
219.35169011699423
 21
110.05044460897804
  0
LINE
  8
_1-3_断熱材
  6
CONTINUOUS
 62
    7
 10
211.05333723852939
 20
103.22044460897803
 11
215.05169011699422
 21
103.22044460897803
  0
LINE
  8
_1-3_断熱材
  6
CONTINUOUS
 62
    7
 10
216.05169011699422
 20
103.22044460897803
 11
220.09169011699424
 21
103.22044460897803
  0
ARC
  8
_1-3_断熱材
  6
CONTINUOUS
 62
    7
 10
147.8653701169942
 20
109.41052460897802
 40
5
 50
323.13000000000005
 51
36.870000000000083
  0
ARC
  8
_1-3_断熱材
  6
CONTINUOUS
 62
    7
 10
155.8653701169942
 20
103.41052460897802
 40
5
 50
143.13000000000002
 51
216.87000000000003
  0
ARC
  8
_1-3_断熱材
  6
CONTINUOUS
 62
    7
 10
147.8653701169942
 20
109.41052460897802
 40
6
 50
323.13000000000005
 51
36.870000000000083
  0
ARC
  8
_1-3_断熱材
  6
CONTINUOUS
 62
    7
 10
155.8653701169942
 20
103.41052460897802
 40
4
 50
143.13000000000002
 51
216.87000000000003
  0
ARC
  8
_1-3_断熱材
  6
CONTINUOUS
 62
    7
 10
81.693690116994205
 20
109.41052460897802
 40
5
 50
323.13000000000005
 51
36.870000000000083
  0
ARC
  8
_1-3_断熱材
  6
CONTINUOUS
 62
    7
 10
81.693690116994205
 20
109.41052460897802
 40
6
 50
323.13000000000005
 51
36.870000000000083
  0
ARC
  8
_1-3_断熱材
  6
CONTINUOUS
 62
    7
 10
89.693690116994205
 20
103.41052460897802
 40
5
 50
143.13000000000002
 51
216.87000000000003
  0
ARC
  8
_1-3_断熱材
  6
CONTINUOUS
 62
    7
 10
89.693690116994205
 20
103.41052460897802
 40
4
 50
143.13000000000002
 51
216.87000000000003
  0
ARC
  8
_1-4_リベットル__フ
  6
CONTINUOUS
 62
    3
 10
61.187770116994201
 20
110.35044460897802
 40
0.4
 50
90.000000000000028
 51
115.57300000000002
  0
ARC
  8
_1-4_リベットル__フ
  6
CONTINUOUS
 62
    3
 10
61.187770116994201
 20
110.35044460897802
 40
0.4
 50
90.000000000000028
 51
115.57300000000002
  0
LINE
  8
_1-4_リベットル__フ
  6
CONTINUOUS
 62
    3
 10
60.444730116994194
 20
110.50204460897803
 11
61.0151301169942
 21
110.71124460897803
  0
LINE
  8
_1-4_リベットル__フ
  6
CONTINUOUS
 62
    3
 10
61.158970116994197
 20
110.42000460897803
 11
60.553370116994202
 21
110.19368460897803
  0
LINE
  8
_1-4_リベットル__フ
  6
CONTINUOUS
 62
    3
 10
71.3120501169942
 20
110.75044460897803
 11
61.187770116994201
 21
110.75044460897803
  0
LINE
  8
_1-4_リベットル__フ
  6
CONTINUOUS
 62
    3
 10
71.3120501169942
 20
110.45044460897803
 11
61.3120501169942
 21
110.45044460897803
  0
LINE
  8
_1-4_リベットル__フ
  6
CONTINUOUS
 62
    3
 10
170.24821011699419
 20
110.45044460897803
 11
153.7745701169942
 21
110.45044460897803
  0
LINE
  8
_1-4_リベットル__フ
  6
CONTINUOUS
 62
    3
 10
61.3120501169942
 20
110.45044460897803
 11
61.3120501169942
 21
110.15044460897803
  0
LINE
  8
_1-4_リベットル__フ
  6
CONTINUOUS
 62
    3
 10
71.3120501169942
 20
110.45044460897803
 11
71.3120501169942
 21
110.75044460897803
  0
LINE
  8
_1-4_リベットル__フ
  6
CONTINUOUS
 62
    3
 10
170.44473011699421
 20
110.50204460897803
 11
171.01513011699421
 21
110.71124460897803
  0
LINE
  8
_1-4_リベットル__フ
  6
CONTINUOUS
 62
    3
 10
170.3724501169942
 20
110.15044460897803
 11
153.81961011699423
 21
110.15044460897803
  0
LINE
  8
_1-4_リベットル__フ
  6
CONTINUOUS
 62
    3
 10
171.1589701169942
 20
110.42000460897803
 11
170.55337011699419
 21
110.19368460897803
  0
LINE
  8
_1-4_リベットル__フ
  6
CONTINUOUS
 62
    3
 10
181.31205011699421
 20
110.75044460897803
 11
171.18777011699422
 21
110.75044460897803
  0
LINE
  8
_1-4_リベットル__フ
  6
CONTINUOUS
 62
    3
 10
238.28341011699422
 20
110.45044460897803
 11
171.31205011699421
 21
110.45044460897803
  0
LINE
  8
_1-4_リベットル__フ
  6
CONTINUOUS
 62
    3
 10
171.31205011699421
 20
110.15044460897803
 11
171.31205011699421
 21
110.45044460897803
  0
LINE
  8
_1-4_リベットル__フ
  6
CONTINUOUS
 62
    3
 10
171.31205011699421
 20
110.15044460897803
 11
238.28341011699422
 21
110.15044460897803
  0
LINE
  8
_1-4_リベットル__フ
  6
CONTINUOUS
 62
    3
 10
181.31205011699421
 20
110.75044460897803
 11
181.31205011699421
 21
110.45044460897803
  0
LINE
  8
_1-4_リベットル__フ
  6
CONTINUOUS
 62
    3
 10
152.81033011699418
 20
110.15044460897803
 11
87.647890116994205
 21
110.15044460897803
  0
LINE
  8
_1-4_リベットル__フ
  6
CONTINUOUS
 62
    3
 10
152.7560501169942
 20
110.45044460897803
 11
87.602890116994203
 21
110.45044460897803
  0
LINE
  8
_1-4_リベットル__フ
  6
CONTINUOUS
 62
    3
 10
86.638650116994214
 20
110.15044460897803
 11
61.3120501169942
 21
110.15044460897803
  0
LINE
  8
_1-4_リベットル__フ
  6
CONTINUOUS
 62
    3
 10
86.584370116994208
 20
110.45044460897803
 11
61.3120501169942
 21
110.45044460897803
  0
ARC
  8
_1-4_リベットル__フ
  6
CONTINUOUS
 62
    3
 10
60.248210116994201
 20
110.85044460897802
 40
0.4
 50
270.00000000000006
 51
299.42500000000007
  0
ARC
  8
_1-4_リベットル__フ
  6
CONTINUOUS
 62
    3
 10
60.372450116994202
 20
110.55044460897803
 40
0.4
 50
270.00000000000006
 51
296.89100000000008
  0
ARC
  8
_1-4_リベットル__フ
  6
CONTINUOUS
 62
    3
 10
61.3120501169942
 20
110.05044460897803
 40
0.4
 50
90.000000000000028
 51
112.50000000000003
  0
ARC
  8
_1-4_リベットル__フ
  6
CONTINUOUS
 62
    3
 10
171.18777011699422
 20
110.35044460897802
 40
0.4
 50
90.000000000000028
 51
115.57300000000002
  0
ARC
  8
_1-4_リベットル__フ
  6
CONTINUOUS
 62
    3
 10
171.31205011699421
 20
110.05044460897803
 40
0.4
 50
90.000000000000028
 51
112.50000000000003
  0
ARC
  8
_1-4_リベットル__フ
  6
CONTINUOUS
 62
    3
 10
170.24821011699419
 20
110.85044460897802
 40
0.4
 50
270.00000000000006
 51
299.42500000000007
  0
ARC
  8
_1-4_リベットル__フ
  6
CONTINUOUS
 62
    3
 10
170.3724501169942
 20
110.55044460897803
 40
0.4
 50
270.00000000000006
 51
296.89100000000008
  0
TEXT
  8
_e-0_
 62
    7
 10
119.43768211699421
 20
131.02292368096909
 40
4
 41
1
 50
0
  1
1200mm
  0
LINE
  8
_1-0_芯__寸法線
  6
CONTINUOUS
 62
    7
 10
61.3120501169942
 20
117.90560368096908
 11
61.3120501169942
 21
130.0174036809691
  0
LINE
  8
_1-0_芯__寸法線
  6
CONTINUOUS
 62
    7
 10
181.31205011699421
 20
117.90560368096908
 11
181.31205011699421
 21
130.0174036809691
  0
LINE
  8
_1-0_芯__寸法線
  6
CONTINUOUS
 62
    7
 10
61.3120501169942
 20
130.0174036809691
 11
139.59141011699421
 21
130.0174036809691
  0
LINE
  8
_1-0_芯__寸法線
  6
CONTINUOUS
 62
    7
 10
140.18949011699419
 20
130.0174036809691
 11
181.31205011699421
 21
130.0174036809691
  0
ARC
  8
_1-0_芯__寸法線
  6
CONTINUOUS
 62
    7
 10
137.59141011699421
 20
131.5174036809691
 40
2.5
 50
323.13000000000005
 51
36.870000000000083
  0
ARC
  8
_1-0_芯__寸法線
  6
CONTINUOUS
 62
    7
 10
137.59141011699421
 20
131.5174036809691
 40
3
 50
323.13000000000005
 51
36.870000000000083
  0
ARC
  8
_1-0_芯__寸法線
  6
CONTINUOUS
 62
    7
 10
141.59141011699421
 20
128.5174036809691
 40
2.5
 50
143.13000000000002
 51
216.87000000000003
  0
ARC
  8
_1-0_芯__寸法線
  6
CONTINUOUS
 62
    7
 10
141.59141011699421
 20
128.5174036809691
 40
2
 50
143.13000000000002
 51
216.87000000000003
  0
LINE
  8
_1-0_芯__寸法線
  6
CONTINUOUS
 62
    7
 10
116.3120501169942
 20
99.953218626977986
 11
116.3120501169942
 21
93.973938626977969
  0
LINE
  8
_1-0_芯__寸法線
  6
CONTINUOUS
 62
    7
 10
126.3120501169942
 20
99.953218626977986
 11
126.3120501169942
 21
93.973938626977969
  0
LINE
  8
_1-0_芯__寸法線
  6
CONTINUOUS
 62
    7
 10
116.3120501169942
 20
93.973938626977969
 11
126.3120501169942
 21
93.973938626977969
  0
LINE
  8
_1-0_芯__寸法線
  6
CONTINUOUS
 62
    7
 10
171.31205011699421
 20
99.953218626977986
 11
171.31205011699421
 21
93.973938626977969
  0
LINE
  8
_1-0_芯__寸法線
  6
CONTINUOUS
 62
    7
 10
181.31205011699421
 20
99.953218626977986
 11
181.31205011699421
 21
93.973938626977969
  0
LINE
  8
_1-0_芯__寸法線
  6
CONTINUOUS
 62
    7
 10
171.31205011699421
 20
93.973938626977969
 11
181.31205011699421
 21
93.973938626977969
  0
LINE
  8
_1-0_芯__寸法線
  6
CONTINUOUS
 62
    7
 10
66.3120501169942
 20
95.718298626977983
 11
66.3120501169942
 21
79.084018626977979
  0
LINE
  8
_1-0_芯__寸法線
  6
CONTINUOUS
 62
    7
 10
121.3120501169942
 20
86.877578626977979
 11
121.3120501169942
 21
79.084018626977979
  0
LINE
  8
_1-0_芯__寸法線
  6
CONTINUOUS
 62
    7
 10
66.3120501169942
 20
79.084018626977979
 11
85.693690116994205
 21
79.084018626977979
  0
LINE
  8
_1-0_芯__寸法線
  6
CONTINUOUS
 62
    7
 10
176.31205011699421
 20
86.877578626977979
 11
176.31205011699421
 21
79.084018626977979
  0
LINE
  8
_1-0_芯__寸法線
  6
CONTINUOUS
 62
    7
 10
121.3120501169942
 20
86.877578626977979
 11
121.3120501169942
 21
79.084018626977979
  0
LINE
  8
_1-0_芯__寸法線
  6
CONTINUOUS
 62
    7
 10
176.31205011699421
 20
79.084018626977979
 11
136.98729011699419
 21
79.084018626977979
  0
LINE
  8
_1-0_芯__寸法線
  6
CONTINUOUS
 62
    7
 10
86.291770116994215
 20
79.084018626977979
 11
121.3120501169942
 21
79.084018626977979
  0
LINE
  8
_1-0_芯__寸法線
  6
CONTINUOUS
 62
    7
 10
136.38921011699421
 20
79.084018626977979
 11
121.3120501169942
 21
79.084018626977979
  0
ARC
  8
_1-0_芯__寸法線
  6
CONTINUOUS
 62
    7
 10
83.693690116994205
 20
80.584018626977979
 40
2.5
 50
323.13000000000005
 51
36.870000000000083
  0
ARC
  8
_1-0_芯__寸法線
  6
CONTINUOUS
 62
    7
 10
83.693690116994205
 20
80.584018626977979
 40
3
 50
323.13000000000005
 51
36.870000000000083
  0
ARC
  8
_1-0_芯__寸法線
  6
CONTINUOUS
 62
    7
 10
87.693690116994205
 20
77.584018626977979
 40
2.5
 50
143.13000000000002
 51
216.87000000000003
  0
ARC
  8
_1-0_芯__寸法線
  6
CONTINUOUS
 62
    7
 10
87.693690116994205
 20
77.584018626977979
 40
2
 50
143.13000000000002
 51
216.87000000000003
  0
ARC
  8
_1-0_芯__寸法線
  6
CONTINUOUS
 62
    7
 10
134.38921011699421
 20
80.584018626977979
 40
2.5
 50
323.13000000000005
 51
36.870000000000083
  0
ARC
  8
_1-0_芯__寸法線
  6
CONTINUOUS
 62
    7
 10
134.38921011699421
 20
80.584018626977979
 40
3
 50
323.13000000000005
 51
36.870000000000083
  0
ARC
  8
_1-0_芯__寸法線
  6
CONTINUOUS
 62
    7
 10
138.38921011699421
 20
77.584018626977979
 40
2.5
 50
143.13000000000002
 51
216.87000000000003
  0
ARC
  8
_1-0_芯__寸法線
  6
CONTINUOUS
 62
    7
 10
138.38921011699421
 20
77.584018626977979
 40
2
 50
143.13000000000002
 51
216.87000000000003
  0
LINE
  8
_e-0_
  6
CONTINUOUS
 62
    7
 10
215.677188811321
 20
109.67259645369634
 11
217.840868811321
 21
113.42019645369635
  0
LINE
  8
_e-0_
  6
CONTINUOUS
 62
    7
 10
217.840868811321
 20
113.42019645369635
 11
220.15026881132098
 21
113.42019645369635
  0
TEXT
  8
_e-0_
 62
    7
 10
220.3976692764663
 20
111.38253252677279
 40
4
 41
1
 50
0
  1
耐火フェルト
  0
TEXT
  8
_e-0_
 62
    7
 10
220.76130564010265
 20
115.60071434495461
 40
4
 41
1
 50
0
  1
AYボードテープ
  0
LINE
  8
_e-0_
  6
CONTINUOUS
 62
    7
 10
218.00660564010269
 20
117.87546181970208
 11
220.31600564010267
 21
117.87546181970208
  0
LINE
  8
_e-0_
  6
CONTINUOUS
 62
    7
 10
213.56322266823889
 20
110.17926042321457
 11
218.00660564010269
 21
117.87546181970208
  0
LINE
  8
_e-0_
  6
CONTINUOUS
 62
    7
 10
181.56868038757739
 20
110.60354101162129
 11
183.04064038757735
 21
113.15306101162129
  0
LINE
  8
_e-0_
  6
CONTINUOUS
 62
    7
 10
183.04064038757735
 20
113.15306101162129
 11
185.35004038757739
 21
113.15306101162129
  0
TEXT
  8
_e-0_
 62
    7
 10
185.704739983537
 20
111.01081535505563
 40
4
 41
1
 50
0
  1
FLシール
  0
LINE
  8
_e-0_
  6
CONTINUOUS
 62
    7
 10
183.23286826636527
 20
117.32596687020714
 11
185.54226826636528
 21
117.32596687020714
  0
LINE
  8
_e-0_
  6
CONTINUOUS
 62
    7
 10
179.30247099181722
 20
110.51823046409294
 11
183.23286826636527
 21
117.32596687020714
  0
LINE
  8
_e-0_
  6
CONTINUOUS
 62
    7
 10
121.7522981990252
 20
110.6244329308132
 11
123.33973819902521
 21
113.3739529308132
  0
LINE
  8
_e-0_
  6
CONTINUOUS
 62
    7
 10
123.33973819902521
 20
113.3739529308132
 11
125.6491381990252
 21
113.3739529308132
  0
TEXT
  8
_e-0_
 62
    7
 10
125.84750092629793
 20
111.37748202172229
 40
4
 41
1
 50
0
  1
溶着
  0
LINE
  8
_e-0_
  6
CONTINUOUS
 62
    7
 10
102.93522516872217
 20
117.8865729308132
 11
105.24462516872217
 21
117.8865729308132
  0
TEXT
  8
_e-0_
 62
    7
 10
105.3617097141767
 20
115.74717959747987
 40
4
 41
1
 50
0
  1
フラットビス6x60
  0
LINE
  8
_e-0_
  6
CONTINUOUS
 62
    7
 10
98.261278018506871
 20
109.79106985752986
 11
102.93522516872217
 21
117.8865729308132
  0
LINE
  8
_e-0_
  6
CONTINUOUS
 62
    7
 10
146.02083122932822
 20
119.58929495101522
 11
148.33023122932823
 21
119.58929495101522
  0
LINE
  8
_e-0_
  6
CONTINUOUS
 62
    7
 10
140.73922990292104
 20
110.44132646447953
 11
146.02083122932822
 21
119.58929495101522
  0
TEXT
  8
_e-0_
 62
    7
 10
148.78689486569186
 20
117.96132040556068
 40
4
 41
1
 50
0
  1
リベットルーフ
  0
LINE
  8
_1-0_芯__寸法線
  6
CONTINUOUS
 62
    7
 10
143.61829024500551
 20
115.42798707222735
 11
146.12628880508581
 21
115.42798707222735
  0
TEXT
  8
_e-0_
 62
    7
 10
146.29867937747639
 20
113.48185912609941
 40
4
 41
1
 50
0
  1
FLボードNC
  0
LINE
  8
_e-0_
  6
CONTINUOUS
 62
    7
 10
73.532504023941044
 20
114.77248168502196
 11
75.841904023941055
 21
114.77248168502196
  0
LINE
  8
_e-0_
  6
CONTINUOUS
 62
    7
 10
71.386669690284918
 20
111.05576553089792
 11
73.532504023941044
 21
114.77248168502196
  0
TEXT
  8
_e-0_
 62
    7
 10
75.943123821920821
 20
112.59330693754721
 40
4
 41
1
 50
0
  1
FLシール
  0
LINE
  8
_e-0_
  6
CONTINUOUS
 62
    7
 10
71.714609074446088
 20
119.90441744259772
 11
74.024009074446084
 21
119.90441744259772
  0
LINE
  8
_e-0_
  6
CONTINUOUS
 62
    7
 10
66.421735587808286
 20
110.73677228843597
 11
71.714609074446088
 21
119.90441744259772
  0
TEXT
  8
_e-0_
 62
    7
 10
228.6077702865673
 20
74.949872594112861
 40
4
 41
1
 50
0
  1
C型鋼
  0
LINE
  8
_1-0_芯__寸法線
  6
CONTINUOUS
 62
    7
 10
227.62595210474913
 20
77.16805441229468
 11
224.46231574111277
 21
77.16805441229468
  0
LINE
  8
_1-0_芯__寸法線
  6
CONTINUOUS
 62
    7
 10
224.46231574111277
 20
77.16805441229468
 11
220.93366249345041
 21
83.422857827883519
  0
TEXT
  8
_e-0_
 62
    7
 10
90.601379215361405
 20
74.130612188868014
 40
4
 41
1
 50
0
  1
575㎜
  0
TEXT
  8
_e-0_
 62
    7
 10
148.96501557899776
 20
73.912430370686195
 40
4
 41
1
 50
0
  1
575㎜
  0
TEXT
  8
_e-0_
 62
    7
 10
114.0996894784865
 20
89.051892796133089
 40
4
 41
1
 50
0
  1
50㎜程度
  0
TEXT
  8
_e-0_
 62
    7
 10
169.15423493303194
 20
89.19734734158763
 40
4
 41
1
 50
0
  1
50㎜程度
  0
TEXT
  8
_e-0_
 62
    7
 10
74.213830892627897
 20
117.95896350320379
 40
4
 41
1
 50
0
  1
溶融着
  0
TEXT
  8
_e-0_
 62
    7
 10
186.01181069060772
 20
115.32596687020714
 40
4
 41
1
 50
0
  1
溶融着
  0
LINE
  8
_1-4_リベットル__フ
  6
CONTINUOUS
 62
    3
 10
71.10936680348162
 20
110.75513047701138
 11
71.118460583417317
 21
110.76158004944666
  0
LINE
  8
_1-4_リベットル__フ
  6
CONTINUOUS
 62
    3
 10
71.118460583417317
 20
110.76158004944666
 11
71.134193774369564
 21
110.7725827244163
  0
LINE
  8
_1-4_リベットル__フ
  6
CONTINUOUS
 62
    3
 10
71.134193774369564
 20
110.7725827244163
 11
71.150077687623565
 21
110.78325962853867
  0
LINE
  8
_1-4_リベットル__フ
  6
CONTINUOUS
 62
    3
 10
71.150077687623565
 20
110.78325962853867
 11
71.166207717041175
 21
110.79340457773327
  0
LINE
  8
_1-4_リベットル__フ
  6
CONTINUOUS
 62
    3
 10
71.166207717041175
 20
110.79340457773327
 11
71.182679256484249
 21
110.80281138791955
  0
LINE
  8
_1-4_リベットル__フ
  6
CONTINUOUS
 62
    3
 10
71.182679256484249
 20
110.80281138791955
 11
71.199587699814657
 21
110.81127387501695
  0
LINE
  8
_1-4_リベットル__フ
  6
CONTINUOUS
 62
    3
 10
71.199587699814657
 20
110.81127387501695
 11
71.209632376449534
 21
110.81566818144482
  0
LINE
  8
_1-4_リベットル__フ
  6
CONTINUOUS
 62
    3
 10
71.209632376449534
 20
110.81566818144482
 11
71.222499759337666
 21
110.82058468099584
  0
LINE
  8
_1-4_リベットル__フ
  6
CONTINUOUS
 62
    3
 10
71.222499759337666
 20
110.82058468099584
 11
71.245313786894087
 21
110.82749843375682
  0
LINE
  8
_1-4_リベットル__フ
  6
CONTINUOUS
 62
    3
 10
71.245313786894087
 20
110.82749843375682
 11
71.268770704833074
 21
110.8324568093154
  0
LINE
  8
_1-4_リベットル__フ
  6
CONTINUOUS
 62
    3
 10
71.268770704833074
 20
110.8324568093154
 11
71.292692413002158
 21
110.8354866292979
  0
LINE
  8
_1-4_リベットル__フ
  6
CONTINUOUS
 62
    3
 10
71.292692413002158
 20
110.8354866292979
 11
71.3169008112488
 21
110.83661471533067
  0
LINE
  8
_1-4_リベットル__フ
  6
CONTINUOUS
 62
    3
 10
71.3169008112488
 20
110.83661471533067
 11
71.341217799420548
 21
110.83586788903997
  0
LINE
  8
_1-4_リベットル__フ
  6
CONTINUOUS
 62
    3
 10
71.341217799420548
 20
110.83586788903997
 11
71.35530122774253
 21
110.83458621408028
  0
LINE
  8
_1-4_リベットル__フ
  6
CONTINUOUS
 62
    3
 10
71.35530122774253
 20
110.83458621408028
 11
71.376195585607149
 21
110.83153226452541
  0
LINE
  8
_1-4_リベットル__フ
  6
CONTINUOUS
 62
    3
 10
71.376195585607149
 20
110.83153226452541
 11
71.411643185945408
 21
110.82313410326161
  0
LINE
  8
_1-4_リベットル__フ
  6
CONTINUOUS
 62
    3
 10
71.411643185945408
 20
110.82313410326161
 11
71.445946925894518
 21
110.81090502404555
  0
LINE
  8
_1-4_リベットル__フ
  6
CONTINUOUS
 62
    3
 10
71.445946925894518
 20
110.81090502404555
 11
71.478626241564697
 21
110.79500149701923
  0
LINE
  8
_1-4_リベットル__フ
  6
CONTINUOUS
 62
    3
 10
71.478626241564697
 20
110.79500149701923
 11
71.509200569066209
 21
110.77557999232462
  0
LINE
  8
_1-4_リベットル__フ
  6
CONTINUOUS
 62
    3
 10
71.509200569066209
 20
110.77557999232462
 11
71.537189344509301
 21
110.75279698010372
  0
LINE
  8
_1-4_リベットル__フ
  6
CONTINUOUS
 62
    3
 10
71.537189344509301
 20
110.75279698010372
 11
71.552048767151248
 21
110.73810424763947
  0
LINE
  8
_1-4_リベットル__フ
  6
CONTINUOUS
 62
    3
 10
71.552048767151248
 20
110.73810424763947
 11
71.569166707429545
 21
110.71826111339749
  0
LINE
  8
_1-4_リベットル__フ
  6
CONTINUOUS
 62
    3
 10
71.569166707429545
 20
110.71826111339749
 11
71.595577094343241
 21
110.68126546601438
  0
LINE
  8
_1-4_リベットル__フ
  6
CONTINUOUS
 62
    3
 10
71.595577094343241
 20
110.68126546601438
 11
71.61964575207007
 21
110.64238407908911
  0
LINE
  8
_1-4_リベットル__フ
  6
CONTINUOUS
 62
    3
 10
71.61964575207007
 20
110.64238407908911
 11
71.643217451236552
 21
110.60352100432559
  0
LINE
  8
_1-4_リベットル__フ
  6
CONTINUOUS
 62
    3
 10
71.643217451236552
 20
110.60352100432559
 11
71.668136962469248
 21
110.56658029342765
  0
LINE
  8
_1-4_リベットル__フ
  6
CONTINUOUS
 62
    3
 10
71.668136962469248
 20
110.56658029342765
 11
71.696249056394663
 21
110.5334659980992
  0
LINE
  8
_1-4_リベットル__フ
  6
CONTINUOUS
 62
    3
 10
71.696249056394663
 20
110.5334659980992
 11
71.714743847816138
 21
110.51676326580466
  0
LINE
  8
_1-4_リベットル__フ
  6
CONTINUOUS
 62
    3
 10
71.714743847816138
 20
110.51676326580466
 11
71.725017238208295
 21
110.50902637361332
  0
LINE
  8
_1-4_リベットル__フ
  6
CONTINUOUS
 62
    3
 10
71.725017238208295
 20
110.50902637361332
 11
71.743857180002507
 21
110.49694837479521
  0
LINE
  8
_1-4_リベットル__フ
  6
CONTINUOUS
 62
    3
 10
71.743857180002507
 20
110.49694837479521
 11
71.763898391064103
 21
110.48621473906016
  0
LINE
  8
_1-4_リベットル__フ
  6
CONTINUOUS
 62
    3
 10
71.763898391064103
 20
110.48621473906016
 11
71.78487858552684
 21
110.47653193735077
  0
LINE
  8
_1-4_リベットル__フ
  6
CONTINUOUS
 62
    3
 10
71.78487858552684
 20
110.47653193735077
 11
71.806535477524491
 21
110.46760644060957
  0
LINE
  8
_1-4_リベットル__フ
  6
CONTINUOUS
 62
    3
 10
71.806535477524491
 20
110.46760644060957
 11
71.8286067811908
 21
110.45914471977915
  0
LINE
  8
_1-4_リベットル__フ
  6
CONTINUOUS
 62
    3
 10
71.8286067811908
 20
110.45914471977915
 11
71.841494666473679
 21
110.45433375810765
  0
LINE
  8
_1-4_リベットル__フ
  6
CONTINUOUS
 62
    3
 10
181.07274169088123
 20
110.75115799575941
 11
181.08183547081691
 21
110.7576075681947
  0
LINE
  8
_1-4_リベットル__フ
  6
CONTINUOUS
 62
    3
 10
181.08183547081691
 20
110.7576075681947
 11
181.09756866176917
 21
110.76861024316433
  0
LINE
  8
_1-4_リベットル__フ
  6
CONTINUOUS
 62
    3
 10
181.09756866176917
 20
110.76861024316433
 11
181.11345257502316
 21
110.77928714728672
  0
LINE
  8
_1-4_リベットル__フ
  6
CONTINUOUS
 62
    3
 10
181.11345257502316
 20
110.77928714728672
 11
181.12958260444077
 21
110.78943209648131
  0
LINE
  8
_1-4_リベットル__フ
  6
CONTINUOUS
 62
    3
 10
181.12958260444077
 20
110.78943209648131
 11
181.14605414388384
 21
110.79883890666758
  0
LINE
  8
_1-4_リベットル__フ
  6
CONTINUOUS
 62
    3
 10
181.14605414388384
 20
110.79883890666758
 11
181.16296258721425
 21
110.80730139376499
  0
LINE
  8
_1-4_リベットル__フ
  6
CONTINUOUS
 62
    3
 10
181.16296258721425
 20
110.80730139376499
 11
181.17300726384912
 21
110.81169570019287
  0
LINE
  8
_1-4_リベットル__フ
  6
CONTINUOUS
 62
    3
 10
181.17300726384912
 20
110.81169570019287
 11
181.18587464673726
 21
110.81661219974387
  0
LINE
  8
_1-4_リベットル__フ
  6
CONTINUOUS
 62
    3
 10
181.18587464673726
 20
110.81661219974387
 11
181.20868867429368
 21
110.82352595250485
  0
LINE
  8
_1-4_リベットル__フ
  6
CONTINUOUS
 62
    3
 10
181.20868867429368
 20
110.82352595250485
 11
181.23214559223265
 21
110.82848432806344
  0
LINE
  8
_1-4_リベットル__フ
  6
CONTINUOUS
 62
    3
 10
181.23214559223265
 20
110.82848432806344
 11
181.25606730040175
 21
110.83151414804595
  0
LINE
  8
_1-4_リベットル__フ
  6
CONTINUOUS
 62
    3
 10
181.25606730040175
 20
110.83151414804595
 11
181.28027569864838
 21
110.8326422340787
  0
LINE
  8
_1-4_リベットル__フ
  6
CONTINUOUS
 62
    3
 10
181.28027569864838
 20
110.8326422340787
 11
181.30459268682014
 21
110.83189540778802
  0
LINE
  8
_1-4_リベットル__フ
  6
CONTINUOUS
 62
    3
 10
181.30459268682014
 20
110.83189540778802
 11
181.31867611514213
 21
110.83061373282833
  0
LINE
  8
_1-4_リベットル__フ
  6
CONTINUOUS
 62
    3
 10
181.31867611514213
 20
110.83061373282833
 11
181.33957047300675
 21
110.82755978327344
  0
LINE
  8
_1-4_リベットル__フ
  6
CONTINUOUS
 62
    3
 10
181.33957047300675
 20
110.82755978327344
 11
181.37501807334502
 21
110.81916162200964
  0
LINE
  8
_1-4_リベットル__フ
  6
CONTINUOUS
 62
    3
 10
181.37501807334502
 20
110.81916162200964
 11
181.40932181329413
 21
110.80693254279359
  0
LINE
  8
_1-4_リベットル__フ
  6
CONTINUOUS
 62
    3
 10
181.40932181329413
 20
110.80693254279359
 11
181.44200112896431
 21
110.79102901576726
  0
LINE
  8
_1-4_リベットル__フ
  6
CONTINUOUS
 62
    3
 10
181.44200112896431
 20
110.79102901576726
 11
181.47257545646579
 21
110.77160751107266
  0
LINE
  8
_1-4_リベットル__フ
  6
CONTINUOUS
 62
    3
 10
181.47257545646579
 20
110.77160751107266
 11
181.5005642319089
 21
110.74882449885177
  0
LINE
  8
_1-4_リベットル__フ
  6
CONTINUOUS
 62
    3
 10
181.5005642319089
 20
110.74882449885177
 11
181.51542365455083
 21
110.73413176638751
  0
LINE
  8
_1-4_リベットル__フ
  6
CONTINUOUS
 62
    3
 10
181.51542365455083
 20
110.73413176638751
 11
181.53254159482913
 21
110.71428863214553
  0
LINE
  8
_1-4_リベットル__フ
  6
CONTINUOUS
 62
    3
 10
181.53254159482913
 20
110.71428863214553
 11
181.55895198174284
 21
110.67729298476242
  0
LINE
  8
_1-4_リベットル__フ
  6
CONTINUOUS
 62
    3
 10
181.55895198174284
 20
110.67729298476242
 11
181.58302063946968
 21
110.63841159783715
  0
LINE
  8
_1-4_リベットル__フ
  6
CONTINUOUS
 62
    3
 10
181.58302063946968
 20
110.63841159783715
 11
181.60659233863615
 21
110.59954852307362
  0
LINE
  8
_1-4_リベットル__フ
  6
CONTINUOUS
 62
    3
 10
181.60659233863615
 20
110.59954852307362
 11
181.63151184986884
 21
110.56260781217568
  0
LINE
  8
_1-4_リベットル__フ
  6
CONTINUOUS
 62
    3
 10
181.63151184986884
 20
110.56260781217568
 11
181.65962394379426
 21
110.52949351684724
  0
LINE
  8
_1-4_リベットル__フ
  6
CONTINUOUS
 62
    3
 10
181.65962394379426
 20
110.52949351684724
 11
181.67811873521572
 21
110.51279078455269
  0
LINE
  8
_1-4_リベットル__フ
  6
CONTINUOUS
 62
    3
 10
181.67811873521572
 20
110.51279078455269
 11
181.68839212560789
 21
110.50505389236137
  0
LINE
  8
_1-4_リベットル__フ
  6
CONTINUOUS
 62
    3
 10
181.68839212560789
 20
110.50505389236137
 11
181.70723206740212
 21
110.49297589354325
  0
LINE
  8
_1-4_リベットル__フ
  6
CONTINUOUS
 62
    3
 10
181.70723206740212
 20
110.49297589354325
 11
181.72727327846371
 21
110.48224225780821
  0
LINE
  8
_1-4_リベットル__フ
  6
CONTINUOUS
 62
    3
 10
181.72727327846371
 20
110.48224225780821
 11
181.74825347292642
 21
110.47255945609881
  0
LINE
  8
_1-4_リベットル__フ
  6
CONTINUOUS
 62
    3
 10
181.74825347292642
 20
110.47255945609881
 11
181.7699103649241
 21
110.46363395935762
  0
LINE
  8
_1-4_リベットル__フ
  6
CONTINUOUS
 62
    3
 10
181.7699103649241
 20
110.46363395935762
 11
181.79198166859038
 21
110.45517223852718
  0
LINE
  8
_1-4_リベットル__フ
  6
CONTINUOUS
 62
    3
 10
181.79198166859038
 20
110.45517223852718
 11
181.80486955387329
 21
110.4503612768557
  0
LINE
  8
_1-2_ハッチング
  6
CONTINUOUS
 62
    1
 10
171.31205011699421
 20
110.15044460897803
 11
181.31205011699421
 21
110.15044460897803
  0
LINE
  8
_1-2_ハッチング
  6
CONTINUOUS
 62
    1
 10
171.31205011699421
 20
110.25044460897803
 11
171.31205011699421
 21
110.15044460897803
  0
LINE
  8
_1-2_ハッチング
  6
CONTINUOUS
 62
    1
 10
181.31205011699421
 20
110.25044460897803
 11
181.31205011699421
 21
110.15044460897803
  0
LINE
  8
_1-2_ハッチング
  6
CONTINUOUS
 62
    1
 10
171.31205011699421
 20
110.25044460897803
 11
181.31205011699421
 21
110.25044460897803
  0
SOLID
  8
_1-2_ハッチング
  6
CONTINUOUS
 62
    1
 10
171.31205011699421
 20
110.25044460897803
 11
171.31205011699421
 21
110.15044460897803
 12
181.31205011699421
 22
110.25044460897803
 13
181.31205011699421
 23
110.15044460897803
  0
LINE
  8
_1-2_ハッチング
  6
CONTINUOUS
 62
    1
 10
171.31205011699421
 20
110.45044460897803
 11
181.31205011699421
 21
110.45044460897803
  0
LINE
  8
_1-2_ハッチング
  6
CONTINUOUS
 62
    1
 10
171.31205011699421
 20
110.55044460897803
 11
171.31205011699421
 21
110.45044460897803
  0
LINE
  8
_1-2_ハッチング
  6
CONTINUOUS
 62
    1
 10
181.31205011699421
 20
110.55044460897803
 11
181.31205011699421
 21
110.45044460897803
  0
LINE
  8
_1-2_ハッチング
  6
CONTINUOUS
 62
    1
 10
171.31205011699421
 20
110.55044460897803
 11
181.31205011699421
 21
110.55044460897803
  0
SOLID
  8
_1-2_ハッチング
  6
CONTINUOUS
 62
    1
 10
171.31205011699421
 20
110.55044460897803
 11
171.31205011699421
 21
110.45044460897803
 12
181.31205011699421
 22
110.55044460897803
 13
181.31205011699421
 23
110.45044460897803
  0
LINE
  8
_1-2_ハッチング
  6
CONTINUOUS
 62
    1
 10
61.3120501169942
 20
110.15044460897803
 11
71.3120501169942
 21
110.15044460897803
  0
LINE
  8
_1-2_ハッチング
  6
CONTINUOUS
 62
    1
 10
61.3120501169942
 20
110.25044460897803
 11
61.3120501169942
 21
110.15044460897803
  0
LINE
  8
_1-2_ハッチング
  6
CONTINUOUS
 62
    1
 10
71.3120501169942
 20
110.25044460897803
 11
71.3120501169942
 21
110.15044460897803
  0
LINE
  8
_1-2_ハッチング
  6
CONTINUOUS
 62
    1
 10
61.3120501169942
 20
110.25044460897803
 11
71.3120501169942
 21
110.25044460897803
  0
SOLID
  8
_1-2_ハッチング
  6
CONTINUOUS
 62
    1
 10
61.3120501169942
 20
110.25044460897803
 11
61.3120501169942
 21
110.15044460897803
 12
71.3120501169942
 22
110.25044460897803
 13
71.3120501169942
 23
110.15044460897803
  0
LINE
  8
_1-2_ハッチング
  6
CONTINUOUS
 62
    1
 10
61.3120501169942
 20
110.45044460897803
 11
71.3120501169942
 21
110.45044460897803
  0
LINE
  8
_1-2_ハッチング
  6
CONTINUOUS
 62
    1
 10
61.3120501169942
 20
110.55044460897803
 11
61.3120501169942
 21
110.45044460897803
  0
LINE
  8
_1-2_ハッチング
  6
CONTINUOUS
 62
    1
 10
71.3120501169942
 20
110.55044460897803
 11
71.3120501169942
 21
110.45044460897803
  0
LINE
  8
_1-2_ハッチング
  6
CONTINUOUS
 62
    1
 10
61.3120501169942
 20
110.55044460897803
 11
71.3120501169942
 21
110.55044460897803
  0
SOLID
  8
_1-2_ハッチング
  6
CONTINUOUS
 62
    1
 10
61.3120501169942
 20
110.55044460897803
 11
61.3120501169942
 21
110.45044460897803
 12
71.3120501169942
 22
110.55044460897803
 13
71.3120501169942
 23
110.45044460897803
  0
LINE
  8
_1-2_ハッチング
  6
CONTINUOUS
 62
    1
 10
116.3120501169942
 20
110.15044460897803
 11
126.3120501169942
 21
110.15044460897803
  0
LINE
  8
_1-2_ハッチング
  6
CONTINUOUS
 62
    1
 10
116.3120501169942
 20
110.25044460897803
 11
116.3120501169942
 21
110.15044460897803
  0
LINE
  8
_1-2_ハッチング
  6
CONTINUOUS
 62
    1
 10
126.3120501169942
 20
110.25044460897803
 11
126.3120501169942
 21
110.15044460897803
  0
LINE
  8
_1-2_ハッチング
  6
CONTINUOUS
 62
    1
 10
116.3120501169942
 20
110.25044460897803
 11
126.3120501169942
 21
110.25044460897803
  0
SOLID
  8
_1-2_ハッチング
  6
CONTINUOUS
 62
    1
 10
116.3120501169942
 20
110.25044460897803
 11
116.3120501169942
 21
110.15044460897803
 12
126.3120501169942
 22
110.25044460897803
 13
126.3120501169942
 23
110.15044460897803
  0
TEXT
  8
_e-e_
 62
    7
 10
255
 20
190
 40
4
 41
1
 50
0
  1
Ａ４：１/５
  0
TEXT
  8
_e-e_
 62
    7
 10
258.5
 20
20
 40
4
 41
1
 50
0
  1
2020.03.18
  0
TEXT
  8
_1-4_リベットル__フ
 62
    7
 10
188.5
 20
22.5
 40
4
 41
1
 50
0
  1
アンカーレス固定工法
  0
TEXT
  8
_1-4_リベットル__フ
 62
    7
 10
188.5
 20
17.5
 40
4
 41
1
 50
0
  1
納まりイメージ
  0
ENDSEC
  0
EOF
