  0
SECTION
  2
HEADER
  9
$ACADVER
  1
AC1009
  9
$INSBASE
 10
0
 20
0
 30
0
  9
$EXTMIN
 10
0
 20
0
  9
$EXTMAX
 10
297
 20
210
  9
$LIMMIN
 10
0
 20
0
  9
$LIMMAX
 10
297
 20
210
  9
$LTSCALE
 40
1
  0
ENDSEC
  0
SECTION
  2
TABLES
  0
TABLE
  2
LTYPE
 70
     9
  0
LTYPE
  2
CONTINUOUS
 70
    64
  3
実線
 72
    65
 73
     0
 40
0.0
  0
LTYPE
  2
DASHED1
 70
    64
  3
--  --  --  --  --  --  --  --  
 72
    65
 73
     2
 40
2.5
 49
1.25
 49
-1.25
  0
LTYPE
  2
DASHED2
 70
    64
  3
----    ----    ----    ----    
 72
    65
 73
     2
 40
5.0
 49
2.5
 49
-2.5
  0
LTYPE
  2
DASHED3
 70
    64
  3
------  ------  ------  ------  
 72
    65
 73
     2
 40
5.0
 49
3.75
 49
-1.25
  0
LTYPE
  2
CENTER1
 70
    64
  3
----- - ----- - ----- - ----- - 
 72
    65
 73
     4
 40
10.0
 49
6.25
 49
-1.25
 49
1.25
 49
-1.25
  0
LTYPE
  2
CENTER2
 70
    64
  3
----------  --  ----------  --  
 72
    65
 73
     4
 40
20.0
 49
12.5
 49
-2.5
 49
2.5
 49
-2.5
  0
LTYPE
  2
PHANTOM1
 70
    64
  3
--- - - --- - - --- - - --- - - 
 72
    65
 73
     6
 40
10.0
 49
3.25
 49
-1.25
 49
1.25
 49
-1.25
 49
1.25
 49
-1.25
  0
LTYPE
  2
PHANTOM2
 70
    64
  3
--------  -  -  --------  -  -  
 72
    65
 73
     6
 40
20.0
 49
10.0
 49
-2.5
 49
1.25
 49
-2.5
 49
1.25
 49
-2.5
  0
LTYPE
  2
DOT
 70
    64
  3
-   -   -   -   -   -   -   -   
 72
    65
 73
     2
 40
2.5
 49
0.625
 49
-1.875
  0
LTYPE
  2
DUMMY
 70
    64
  3
ダミー
 72
    65
 73
     0
 40
0.0
  0
LTYPE
  2
RAND1
 70
    64
  3
ランダム線1
 72
    65
 73
     4
 40
10.0
 49
1.0
 49
-2.0
 49
3.0
 49
-4.0
  0
LTYPE
  2
RAND2
 70
    64
  3
ランダム線2
 72
    65
 73
     4
 40
14.0
 49
2.0
 49
-3.0
 49
4.0
 49
-5.0
  0
LTYPE
  2
RAND3
 70
    64
  3
ランダム線3
 72
    65
 73
     4
 40
18.0
 49
3.0
 49
-4.0
 49
5.0
 49
-6.0
  0
LTYPE
  2
RAND4
 70
    64
  3
ランダム線4
 72
    65
 73
     4
 40
22.0
 49
4.0
 49
-5.0
 49
6.0
 49
-7.0
  0
LTYPE
  2
RAND5
 70
    64
  3
ランダム線5
 72
    65
 73
     4
 40
26.0
 49
5.0
 49
-6.0
 49
7.0
 49
-8.0
  0
LTYPE
  2
LONG1
 70
    64
  3
----------  --  ----------  --  
 72
    65
 73
     4
 40
40.0
 49
32.5
 49
-2.5
 49
2.5
 49
-2.5
  0
LTYPE
  2
LONG2
 70
    64
  3
--------  -  -  --------  -  -  
 72
    65
 73
     6
 40
40.0
 49
30.0
 49
-2.5
 49
1.25
 49
-2.5
 49
1.25
 49
-2.5
  0
LTYPE
  2
LONG3
 70
    64
  3
+++++++++++++++..+++++++++++++++
 72
    65
 73
     2
 40
40.0
 49
37.5
 49
-2.5
  0
LTYPE
  2
LONG4
 70
    64
  3
+++++++++++++++..+++++++++++++++
 72
    65
 73
     2
 40
80.0
 49
75.0
 49
-5.0
  0
LTYPE
  2
LONG5
 70
    64
  3
----------  --  ----------  --  
 72
    65
 73
     4
 40
60.0
 49
37.5
 49
-7.5
 49
7.5
 49
-7.5
  0
LTYPE
  2
dashed
 70
   64
  3
-------   -------------   ------
 72
   65
 73
    2
 40
7.5
 49
6
 49
-1.5
  0
LTYPE
  2
dashed_spaced
 70
   64
  3
----        --------        ----
 72
   65
 73
    2
 40
12
 49
6
 49
-6
  0
LTYPE
  2
long_dashed_dotted
 70
   64
  3
------------- --- --------------
 72
   65
 73
    4
 40
15.25
 49
12
 49
-1.5
 49
0.25
 49
-1.5
  0
LTYPE
  2
long_dashed_double-dotted
 70
   64
  3
----------- --- --- ------------
 72
   65
 73
    6
 40
17
 49
12
 49
-1.5
 49
0.25
 49
-1.5
 49
0.25
 49
-1.5
  0
LTYPE
  2
long_dashed_triplicate-dotted
 70
   64
  3
--------- --- --- --- ----------
 72
   65
 73
    8
 40
18.75
 49
12
 49
-1.5
 49
0.25
 49
-1.5
 49
0.25
 49
-1.5
 49
0.25
 49
-1.5
  0
LTYPE
  2
dotted
 70
   64
  3
   -       -       -       -    
 72
   65
 73
    2
 40
1.75
 49
0.25
 49
-1.5
  0
LTYPE
  2
chain
 70
   64
  3
-------------- -- --------------
 72
   65
 73
    4
 40
18.5
 49
12
 49
-1.5
 49
3.5
 49
-1.5
  0
LTYPE
  2
chain_double_dash
 70
   64
  3
------------ -- -- -------------
 72
   65
 73
    6
 40
23.5
 49
12
 49
-1.5
 49
3.5
 49
-1.5
 49
3.5
 49
-1.5
  0
LTYPE
  2
dashed_dotted
 70
   64
  3
-----------     -     ----------
 72
   65
 73
    4
 40
9.25
 49
6
 49
-1.5
 49
0.25
 49
-1.5
  0
LTYPE
  2
double-dashed_dotted
 70
   64
  3
------   -----------   -   -----
 72
   65
 73
    6
 40
16.75
 49
6
 49
-1.5
 49
6
 49
-1.5
 49
0.25
 49
-1.5
  0
LTYPE
  2
dashed_double-dotted
 70
   64
  3
---------    -    -    ---------
 72
   65
 73
    6
 40
11
 49
6
 49
-1.5
 49
0.25
 49
-1.5
 49
0.25
 49
-1.5
  0
LTYPE
  2
double-dashed_double-dotted
 70
   64
  3
-----   ---------   -   -   ----
 72
   65
 73
    8
 40
18.5
 49
6
 49
-1.5
 49
6
 49
-1.5
 49
0.25
 49
-1.5
 49
0.25
 49
-1.5
  0
LTYPE
  2
dashed_triplicate-dotted
 70
   64
  3
-------    -    -    -    ------
 72
   65
 73
    8
 40
12.75
 49
6
 49
-1.5
 49
0.25
 49
-1.5
 49
0.25
 49
-1.5
 49
0.25
 49
-1.5
  0
LTYPE
  2
double-dashed_triplicate-dotted
 70
   64
  3
-----  ---------  -  -  -  -----
 72
   65
 73
   10
 40
20.25
 49
6
 49
-1.5
 49
6
 49
-1.5
 49
0.25
 49
-1.5
 49
0.25
 49
-1.5
 49
0.25
 49
-1.5
  0
LTYPE
  2
undefined
 70
   64
  3
--------------------------------
 72
   65
 73
    0
 40
0
  0
LTYPE
  2
AIGENLINE001
 70
   64
  3
                                
 72
   65
 73
    4
 40
4.2333600000000002
 49
2.1166800000000001
 49
-0.7055599999999999
 49
0.7055599999999999
 49
-0.7055599999999999
  0
LTYPE
  2
2-AXIS
 70
   64
  3
                                
 72
   65
 73
    0
 40
0
  0
LTYPE
  2
BORDER
 70
   64
  3
                                
 72
   65
 73
    0
 40
0
  0
LTYPE
  2
BORDER2
 70
   64
  3
                                
 72
   65
 73
    0
 40
0
  0
LTYPE
  2
BORDERX2
 70
   64
  3
                                
 72
   65
 73
    0
 40
0
  0
LTYPE
  2
CENTER
 70
   64
  3
                                
 72
   65
 73
    0
 40
0
  0
LTYPE
  2
CENTER2_23
 70
   64
  3
                                
 72
   65
 73
    0
 40
0
  0
LTYPE
  2
CENTERX2
 70
   64
  3
                                
 72
   65
 73
    0
 40
0
  0
LTYPE
  2
DASHDOT
 70
   64
  3
                                
 72
   65
 73
    0
 40
0
  0
LTYPE
  2
DASHDOT2
 70
   64
  3
                                
 72
   65
 73
    0
 40
0
  0
LTYPE
  2
DASHDOTX2
 70
   64
  3
                                
 72
   65
 73
    0
 40
0
  0
LTYPE
  2
DASHED
 70
   64
  3
                                
 72
   65
 73
    0
 40
0
  0
LTYPE
  2
DASHED2_29
 70
   64
  3
                                
 72
   65
 73
    0
 40
0
  0
LTYPE
  2
DASHEDX2
 70
   64
  3
                                
 72
   65
 73
    0
 40
0
  0
LTYPE
  2
DIVIDE
 70
   64
  3
                                
 72
   65
 73
    0
 40
0
  0
LTYPE
  2
DIVIDE2
 70
   64
  3
                                
 72
   65
 73
    0
 40
0
  0
ENDTAB
  0
TABLE
  2
STYLE
  5
3
100
AcDbSymbolTable
 70
     1
  0
STYLE
  5
10
100
AcDbSymbolTableRecord
100
AcDbTextStyleTableRecord
  2
STANDARD
 70
     0
 40
0.0
 41
1.0
 50
0.0
 71
     0
 42
0.2
  3
txt
  4
bigfont.shx
  0
STYLE
  5
26
100
AcDbSymbolTableRecord
100
AcDbTextStyleTableRecord
  2
TATEGAKI
 70
    68
 40
0.0
 41
1.0
 50
0.0
 71
     0
 42
1.0
  3
txt
  4
bigfont.shx
  0
ENDTAB
  0
TABLE
  2
LAYER
 70
   11
  0
LAYER
  2
_1-2_ハッチング
 70
   64
 62
    7
  6
CONTINUOUS
  0
LAYER
  2
_1-4_リベットル__フ
 70
   64
 62
    7
  6
CONTINUOUS
  0
LAYER
  2
_1-6_アンカ__類
 70
   64
 62
    7
  6
CONTINUOUS
  0
LAYER
  2
_1-7_設備
 70
   64
 62
    7
  6
CONTINUOUS
  0
LAYER
  2
_1-a_元図__躯体
 70
   64
 62
    7
  6
CONTINUOUS
  0
LAYER
  2
_1-b_その他
 70
   64
 62
    7
  6
CONTINUOUS
  0
LAYER
  2
_1-c_アンカ__類②
 70
   64
 62
    7
  6
CONTINUOUS
  0
LAYER
  2
_e-0_
 70
   64
 62
    7
  6
CONTINUOUS
  0
LAYER
  2
_e-e_
 70
   64
 62
    7
  6
CONTINUOUS
  0
LAYER
  2
_f-f_
 70
   64
 62
    7
  6
CONTINUOUS
  0
LAYER
  2
ADD_LINE
 70
   64
 62
    7
  6
CONTINUOUS
  0
ENDTAB
  0
ENDSEC
  0
SECTION
  2
BLOCKS
  0
ENDSEC
  0
SECTION
  2
ENTITIES
  0
LINE
  8
_f-f_
  6
CONTINUOUS
 62
    7
 10
13.5
 20
197
 11
13.5
 21
17
  0
LINE
  8
_f-f_
  6
CONTINUOUS
 62
    7
 10
13.5
 20
197
 11
283.5
 21
197
  0
LINE
  8
_f-f_
  6
CONTINUOUS
 62
    7
 10
283.5
 20
197
 11
283.5
 21
17
  0
LINE
  8
_f-f_
  6
CONTINUOUS
 62
    7
 10
283.5
 20
17
 11
13.5
 21
17
  0
SOLID
  8
_f-f_
  6
CONTINUOUS
 62
    5
 10
236.97536482015869
 20
15.135014055698207
 11
235.41260194015859
 21
14.597233959698244
 12
233.7490795136022
 22
12.030232905347191
 13
233.7490795136022
 23
12.030232905347191
  0
SOLID
  8
_f-f_
  6
CONTINUOUS
 62
    5
 10
236.97536482015869
 20
15.135014055698207
 11
235.44783384279719
 21
14.653922266010412
 12
235.41260194015859
 22
14.597233959698244
 13
235.41260194015859
 23
14.597233959698244
  0
SOLID
  8
_f-f_
  6
CONTINUOUS
 62
    5
 10
236.97536482015869
 20
15.135014055698207
 11
235.44348964523115
 21
14.814711211354776
 12
235.44783384279719
 22
14.653922266010412
 13
235.44783384279719
 23
14.653922266010412
  0
SOLID
  8
_f-f_
  6
CONTINUOUS
 62
    5
 10
236.97536482015869
 20
15.135014055698207
 11
235.37802752940809
 21
14.882325091646777
 12
235.44348964523115
 22
14.814711211354776
 13
235.44348964523115
 23
14.814711211354776
  0
SOLID
  8
_f-f_
  6
CONTINUOUS
 62
    5
 10
236.97536482015869
 20
15.135014055698207
 11
235.23671672676957
 21
14.943561152901822
 12
235.37802752940809
 22
14.882325091646777
 13
235.37802752940809
 23
14.882325091646777
  0
SOLID
  8
_f-f_
  6
CONTINUOUS
 62
    5
 10
236.97536482015869
 20
15.135014055698207
 11
231.75858153825016
 21
14.827104307519747
 12
235.23671672676957
 22
14.943561152901822
 13
235.23671672676957
 23
14.943561152901822
  0
SOLID
  8
_f-f_
  6
CONTINUOUS
 62
    5
 10
236.97536482015869
 20
15.135014055698207
 11
232.06580002015863
 21
15.134816487698203
 12
231.75858153825016
 22
14.827104307519747
 13
231.75858153825016
 23
14.827104307519747
  0
SOLID
  8
_f-f_
  6
CONTINUOUS
 62
    5
 10
233.7490795136022
 20
12.030232905347191
 11
237.28752157062101
 21
14.827697368205875
 12
236.97536482015869
 22
15.135014055698207
 13
236.97536482015869
 23
15.135014055698207
  0
SOLID
  8
_f-f_
  6
CONTINUOUS
 62
    5
 10
233.7490795136022
 20
12.030232905347191
 11
237.23911742342443
 21
14.662629348534509
 12
237.28752157062101
 22
14.827697368205875
 13
237.28752157062101
 23
14.827697368205875
  0
SOLID
  8
_f-f_
  6
CONTINUOUS
 62
    5
 10
233.7490795136022
 20
12.030232905347191
 11
234.52749735533226
 21
10.733752628573797
 12
234.7892749001586
 22
10.88042668929819
 13
234.7892749001586
 23
10.88042668929819
  0
SOLID
  8
_f-f_
  6
CONTINUOUS
 62
    5
 10
233.7490795136022
 20
12.030232905347191
 11
234.31609954015863
 21
10.81863729729821
 12
234.52749735533226
 22
10.733752628573797
 13
234.52749735533226
 23
10.733752628573797
  0
SOLID
  8
_f-f_
  6
CONTINUOUS
 62
    5
 10
233.7490795136022
 20
12.030232905347191
 11
233.74611586015862
 21
11.682740458898223
 12
234.31609954015863
 22
10.81863729729821
 13
234.31609954015863
 23
10.81863729729821
  0
SOLID
  8
_f-f_
  6
CONTINUOUS
 62
    5
 10
233.7490795136022
 20
12.030232905347191
 11
233.69277264325217
 21
11.856303946266479
 12
233.74611586015862
 22
11.682740458898223
 13
233.74611586015862
 23
11.682740458898223
  0
SOLID
  8
_f-f_
  6
CONTINUOUS
 62
    5
 10
231.75858153825016
 20
14.827104307519747
 11
235.08661474015867
 21
14.909095047698244
 12
235.23671672676957
 22
14.943561152901822
 13
235.23671672676957
 23
14.943561152901822
  0
SOLID
  8
_f-f_
  6
CONTINUOUS
 62
    5
 10
231.75858153825016
 20
14.827104307519747
 11
233.61868450015868
 21
12.669167847698219
 12
235.08661474015867
 22
14.909095047698244
 13
235.08661474015867
 23
14.909095047698244
  0
SOLID
  8
_f-f_
  6
CONTINUOUS
 62
    5
 10
231.75858153825016
 20
14.827104307519747
 11
233.36184569383056
 21
12.528992955061909
 12
233.61868450015868
 22
12.669167847698219
 13
233.61868450015868
 23
12.669167847698219
  0
SOLID
  8
_f-f_
  6
CONTINUOUS
 62
    5
 10
231.75858153825016
 20
14.827104307519747
 11
233.14254562015859
 21
12.622541799698183
 12
233.36184569383056
 22
12.528992955061909
 13
233.36184569383056
 23
12.528992955061909
  0
SOLID
  8
_f-f_
  6
CONTINUOUS
 62
    5
 10
231.75858153825016
 20
14.827104307519747
 11
231.79611970015864
 21
14.683571175698262
 12
233.14254562015859
 22
12.622541799698183
 13
233.14254562015859
 23
12.622541799698183
  0
ARC
  8
_f-f_
  6
CONTINUOUS
 62
    1
 10
235.22789232415863
 20
14.712033315698221
 40
0.217477092
 50
328.13846999999998
 51
2.2615330000000116
  0
ARC
  8
_f-f_
  6
CONTINUOUS
 62
    1
 10
235.20651958255868
 20
14.716275265298208
 40
0.2387205912
 50
1.0417719999999999
 51
44.073639999999997
  0
ARC
  8
_f-f_
  6
CONTINUOUS
 62
    1
 10
235.19156286175863
 20
14.452033827698216
 40
0.4689556368
 50
66.570734999999999
 51
102.931843
  0
ARC
  8
_f-f_
  6
CONTINUOUS
 62
    1
 10
237.02758780495867
 20
14.814288750098285
 40
0.260279376
 50
324.36078900000001
 51
2.9529709999999993
  0
ARC
  8
_f-f_
  6
CONTINUOUS
 62
    1
 10
232.07207198095867
 20
14.832415614098267
 40
0.3135354768
 50
180.97063600000004
 51
208.34173000000004
  0
ARC
  8
_f-f_
  6
CONTINUOUS
 62
    1
 10
233.98573291615867
 20
11.857541216498191
 40
0.2929628856
 50
143.88086999999999
 51
180.24197799999999
  0
ARC
  8
_f-f_
  6
CONTINUOUS
 62
    1
 10
234.52945733935863
 20
11.04430852209822
 40
0.3105620784
 50
226.60652999999999
 51
269.63839899999999
  0
ARC
  8
_f-f_
  6
CONTINUOUS
 62
    1
 10
234.52688648575864
 20
11.041782944498237
 40
0.3080315616
 50
270.11356000000001
 51
328.41042499999998
  0
ARC
  8
_f-f_
  6
CONTINUOUS
 62
    1
 10
234.00220761775864
 20
11.856427426898193
 40
0.3094359408
 50
180.022864
 51
214.145926
  0
ARC
  8
_f-f_
  6
CONTINUOUS
 62
    1
 10
233.36445399775863
 20
12.838928151698155
 40
0.3099455016
 50
224.27817500000003
 51
269.51790500000004
  0
ARC
  8
_f-f_
  6
CONTINUOUS
 62
    1
 10
233.35885129855865
 20
12.839866599698212
 40
0.3108880655999999
 50
270.55186700000002
 51
326.69684100000006
  0
ARC
  8
_f-f_
  6
CONTINUOUS
 62
    1
 10
236.97555497935861
 20
14.823012200498198
 40
0.3120026784
 50
0.860427
 51
90.034943999999982
  0
ARC
  8
_f-f_
  6
CONTINUOUS
 62
    1
 10
232.06827949855861
 20
14.825122062098245
 40
0.309704304
 50
90.458761999999993
 51
179.63327899999999
  0
SOLID
  8
_f-f_
  6
CONTINUOUS
 62
   70
 10
235.3592583789839
 20
15.664101361536453
 11
236.00431761052957
 21
15.467422329706778
 12
236.2927671804093
 22
15.73818913178016
 13
236.2927671804093
 23
15.73818913178016
  0
SOLID
  8
_f-f_
  6
CONTINUOUS
 62
   70
 10
235.60029133369804
 20
16.279624399265259
 11
235.3592583789839
 21
15.664101361536453
 12
236.5328128054206
 22
16.353613516858246
 13
236.2927671804093
 23
15.73818913178016
  0
SOLID
  8
_f-f_
  6
CONTINUOUS
 62
   70
 10
236.19101981268187
 20
16.670512794070959
 11
235.60029133369804
 21
16.279624399265259
 12
236.42019869045436
 22
16.615391008345767
 13
236.5328128054206
 23
16.353613516858246
  0
ARC
  8
_f-f_
  6
CONTINUOUS
 62
    1
 10
236.00221070815871
 20
16.616671155698256
 40
1.1492505864
 50
235.98198100000002
 51
270.10504300000002
  0
ARC
  8
_f-f_
  6
CONTINUOUS
 62
    1
 10
235.63663664335866
 20
16.148141113298266
 40
0.7736713488000001
 50
298.37509499999999
 51
328.00274300000001
  0
ARC
  8
_f-f_
  6
CONTINUOUS
 62
    1
 10
234.71712471295865
 20
16.707292304498239
 40
1.8498135431999998
 50
328.40629300000006
 51
348.97735100000006
  0
ARC
  8
_f-f_
  6
CONTINUOUS
 62
    1
 10
237.17571194335866
 20
15.307750227698264
 40
1.8510779783999998
 50
148.329635
 51
168.90069299999999
  0
ARC
  8
_f-f_
  6
CONTINUOUS
 62
    1
 10
236.05002628015859
 20
16.301035695698289
 40
0.4856410776
 50
6.2152969999999996
 51
40.338358999999997
  0
SOLID
  8
_f-f_
  6
CONTINUOUS
 62
    5
 10
233.7490795136022
 20
12.030232905347191
 11
234.7892749001586
 21
10.88042668929819
 12
237.23911742342443
 22
14.662629348534509
 13
237.23911742342443
 23
14.662629348534509
  0
ARC
  8
_f-f_
  6
CONTINUOUS
 62
    1
 10
236.23946353375865
 20
16.367937159698243
 40
0.3064287911999999
 50
53.856383000000008
 51
99.096113000000003
  0
ARC
  8
_f-f_
  6
CONTINUOUS
 62
    1
 10
236.36472164575864
 20
15.766194423698238
 40
0.9208496303999999
 50
100.872968
 51
146.11269799999999
  0
LINE
  8
_f-f_
  6
CONTINUOUS
 62
    7
 10
267.37625600000001
 20
14.687935999999993
 11
267.06892800000003
 21
14.687935999999993
  0
LINE
  8
_f-f_
  6
CONTINUOUS
 62
    7
 10
267.06892800000003
 20
14.687935999999993
 11
267.06892800000003
 21
13.853760000000037
  0
LINE
  8
_f-f_
  6
CONTINUOUS
 62
    7
 10
267.04697599999997
 20
13.458624000000043
 11
267.02502399999992
 21
13.370815999999991
  0
LINE
  8
_f-f_
  6
CONTINUOUS
 62
    7
 10
267.02502399999992
 20
13.370815999999991
 11
267.02502399999992
 21
13.326912000000021
  0
LINE
  8
_f-f_
  6
CONTINUOUS
 62
    7
 10
267.02502399999992
 20
13.326912000000021
 11
266.99209599999995
 21
13.195199999999971
  0
LINE
  8
_f-f_
  6
CONTINUOUS
 62
    7
 10
266.99209599999995
 20
13.195199999999971
 11
266.97014399999995
 21
13.151296000000031
  0
LINE
  8
_f-f_
  6
CONTINUOUS
 62
    7
 10
266.97014399999995
 20
13.151296000000031
 11
266.93721599999992
 21
13.019583999999952
  0
LINE
  8
_f-f_
  6
CONTINUOUS
 62
    7
 10
266.93721599999992
 20
13.019583999999952
 11
266.91526399999998
 21
12.975680000000011
  0
LINE
  8
_f-f_
  6
CONTINUOUS
 62
    7
 10
266.91526399999998
 20
12.975680000000011
 11
266.90428799999995
 21
12.931776000000013
  0
LINE
  8
_f-f_
  6
CONTINUOUS
 62
    7
 10
266.90428799999995
 20
12.931776000000013
 11
266.88233600000001
 21
12.887871999999987
  0
LINE
  8
_f-f_
  6
CONTINUOUS
 62
    7
 10
266.88233600000001
 20
12.887871999999987
 11
266.87135999999998
 21
12.84396799999999
  0
LINE
  8
_f-f_
  6
CONTINUOUS
 62
    7
 10
266.87135999999998
 20
12.84396799999999
 11
266.82745599999998
 21
12.756160000000023
  0
LINE
  8
_f-f_
  6
CONTINUOUS
 62
    7
 10
266.82745599999998
 20
12.756160000000023
 11
266.81647999999996
 21
12.712256000000025
  0
LINE
  8
_f-f_
  6
CONTINUOUS
 62
    7
 10
266.81647999999996
 20
12.712256000000025
 11
266.7506239999999
 21
12.580544000000003
  0
LINE
  8
_f-f_
  6
CONTINUOUS
 62
    7
 10
266.7506239999999
 20
12.580544000000003
 11
266.71769599999999
 21
12.536639999999977
  0
LINE
  8
_f-f_
  6
CONTINUOUS
 62
    7
 10
266.71769599999999
 20
12.536639999999977
 11
266.67379199999993
 21
12.448831999999982
  0
LINE
  8
_f-f_
  6
CONTINUOUS
 62
    7
 10
266.67379199999993
 20
12.448831999999982
 11
266.64086399999997
 21
12.404927999999984
  0
LINE
  8
_f-f_
  6
CONTINUOUS
 62
    7
 10
266.64086399999997
 20
12.404927999999984
 11
266.61891199999997
 21
12.361024000000015
  0
LINE
  8
_f-f_
  6
CONTINUOUS
 62
    7
 10
266.61891199999997
 20
12.361024000000015
 11
266.48719999999992
 21
12.185407999999995
  0
LINE
  8
_f-f_
  6
CONTINUOUS
 62
    7
 10
266.48719999999992
 20
12.185407999999995
 11
266.44329599999992
 21
12.141503999999998
  0
LINE
  8
_f-f_
  6
CONTINUOUS
 62
    7
 10
266.44329599999992
 20
12.141503999999998
 11
266.41036799999995
 21
12.0976
  0
LINE
  8
_f-f_
  6
CONTINUOUS
 62
    7
 10
266.41036799999995
 20
12.0976
 11
266.36646399999995
 21
12.053696000000031
  0
LINE
  8
_f-f_
  6
CONTINUOUS
 62
    7
 10
266.36646399999995
 20
12.053696000000031
 11
266.36646399999995
 21
12.009792000000004
  0
LINE
  8
_f-f_
  6
CONTINUOUS
 62
    7
 10
266.36646399999995
 20
12.009792000000004
 11
266.38841599999989
 21
11.965888000000007
  0
LINE
  8
_f-f_
  6
CONTINUOUS
 62
    7
 10
266.38841599999989
 20
11.965888000000007
 11
266.42134399999998
 21
11.921984000000009
  0
LINE
  8
_f-f_
  6
CONTINUOUS
 62
    7
 10
266.42134399999998
 20
11.921984000000009
 11
266.44329599999992
 21
11.878080000000011
  0
LINE
  8
_f-f_
  6
CONTINUOUS
 62
    7
 10
266.44329599999992
 20
11.878080000000011
 11
266.476224
 21
11.834176000000014
  0
LINE
  8
_f-f_
  6
CONTINUOUS
 62
    7
 10
266.476224
 20
11.834176000000014
 11
266.49817599999994
 21
11.790272000000016
  0
LINE
  8
_f-f_
  6
CONTINUOUS
 62
    7
 10
266.49817599999994
 20
11.790272000000016
 11
266.53110399999997
 21
11.746368000000018
  0
LINE
  8
_f-f_
  6
CONTINUOUS
 62
    7
 10
266.53110399999997
 20
11.746368000000018
 11
266.55305599999997
 21
11.70246400000002
  0
LINE
  8
_f-f_
  6
CONTINUOUS
 62
    7
 10
269.22022399999992
 20
14.687935999999993
 11
268.9019199999999
 21
14.687935999999993
  0
LINE
  8
_f-f_
  6
CONTINUOUS
 62
    7
 10
268.9019199999999
 20
14.687935999999993
 11
268.9019199999999
 21
13.941568000000032
  0
LINE
  8
_f-f_
  6
CONTINUOUS
 62
    7
 10
268.9019199999999
 20
13.941568000000032
 11
268.56166399999995
 21
13.941568000000032
  0
LINE
  8
_f-f_
  6
CONTINUOUS
 62
    7
 10
268.37507199999993
 20
14.336704000000026
 11
268.35311999999999
 21
14.336704000000026
  0
LINE
  8
_f-f_
  6
CONTINUOUS
 62
    7
 10
268.35311999999999
 20
14.336704000000026
 11
268.34214399999996
 21
14.292800000000028
  0
LINE
  8
_f-f_
  6
CONTINUOUS
 62
    7
 10
268.34214399999996
 20
14.292800000000028
 11
268.32019199999996
 21
14.248896000000016
  0
LINE
  8
_f-f_
  6
CONTINUOUS
 62
    7
 10
268.32019199999996
 20
14.248896000000016
 11
268.29823999999996
 21
14.161087999999992
  0
LINE
  8
_f-f_
  6
CONTINUOUS
 62
    7
 10
268.29823999999996
 20
14.161087999999992
 11
268.27628800000002
 21
14.117184000000023
  0
LINE
  8
_f-f_
  6
CONTINUOUS
 62
    7
 10
268.27628800000002
 20
14.117184000000023
 11
268.26531199999999
 21
14.073279999999997
  0
LINE
  8
_f-f_
  6
CONTINUOUS
 62
    7
 10
268.26531199999999
 20
14.073279999999997
 11
268.24335999999994
 21
14.029375999999999
  0
LINE
  8
_f-f_
  6
CONTINUOUS
 62
    7
 10
268.24335999999994
 20
14.029375999999999
 11
268.23238399999997
 21
13.985471999999987
  0
LINE
  8
_f-f_
  6
CONTINUOUS
 62
    7
 10
268.23238399999997
 20
13.985471999999987
 11
268.18847999999991
 21
13.897663999999992
  0
LINE
  8
_f-f_
  6
CONTINUOUS
 62
    7
 10
268.18847999999991
 20
13.897663999999992
 11
268.17750399999989
 21
13.853760000000037
  0
LINE
  8
_f-f_
  6
CONTINUOUS
 62
    7
 10
268.17750399999989
 20
13.853760000000037
 11
268.11164799999995
 21
13.722048000000001
  0
LINE
  8
_f-f_
  6
CONTINUOUS
 62
    7
 10
268.11164799999995
 20
13.722048000000001
 11
268.07871999999998
 21
13.678143999999975
  0
LINE
  8
_f-f_
  6
CONTINUOUS
 62
    7
 10
268.07871999999998
 20
13.678143999999975
 11
268.03481599999992
 21
13.590336000000008
  0
LINE
  8
_f-f_
  6
CONTINUOUS
 62
    7
 10
268.03481599999992
 20
13.590336000000008
 11
267.90310399999998
 21
13.414720000000017
  0
LINE
  8
_f-f_
  6
CONTINUOUS
 62
    7
 10
267.90310399999998
 20
13.414720000000017
 11
267.85919999999999
 21
13.370815999999991
  0
LINE
  8
_f-f_
  6
CONTINUOUS
 62
    7
 10
267.85919999999999
 20
13.370815999999991
 11
267.99091199999998
 21
13.239103999999998
  0
LINE
  8
_f-f_
  6
CONTINUOUS
 62
    7
 10
267.99091199999998
 20
13.239103999999998
 11
268.02383999999995
 21
13.195199999999971
  0
LINE
  8
_f-f_
  6
CONTINUOUS
 62
    7
 10
268.02383999999995
 20
13.195199999999971
 11
268.11164799999995
 21
13.107392000000061
  0
LINE
  8
_f-f_
  6
CONTINUOUS
 62
    7
 10
268.9019199999999
 20
13.546432000000038
 11
268.9019199999999
 21
13.019583999999952
  0
LINE
  8
_f-f_
  6
CONTINUOUS
 62
    7
 10
268.87996799999996
 20
12.624447999999973
 11
268.85801599999996
 21
12.580544000000003
  0
LINE
  8
_f-f_
  6
CONTINUOUS
 62
    7
 10
268.85801599999996
 20
12.580544000000003
 11
268.82508799999994
 21
12.536639999999977
  0
LINE
  8
_f-f_
  6
CONTINUOUS
 62
    7
 10
268.82508799999994
 20
12.536639999999977
 11
268.80313599999999
 21
12.492735999999979
  0
LINE
  8
_f-f_
  6
CONTINUOUS
 62
    7
 10
268.80313599999999
 20
12.492735999999979
 11
268.70435199999997
 21
12.361024000000015
  0
LINE
  8
_f-f_
  6
CONTINUOUS
 62
    7
 10
268.70435199999997
 20
12.361024000000015
 11
268.68239999999997
 21
12.317120000000017
  0
LINE
  8
_f-f_
  6
CONTINUOUS
 62
    7
 10
268.68239999999997
 20
12.317120000000017
 11
268.64947199999995
 21
12.273216000000019
  0
LINE
  8
_f-f_
  6
CONTINUOUS
 62
    7
 10
268.64947199999995
 20
12.273216000000019
 11
268.60556799999995
 21
12.229311999999993
  0
LINE
  8
_f-f_
  6
CONTINUOUS
 62
    7
 10
268.60556799999995
 20
12.229311999999993
 11
268.50678399999998
 21
12.0976
  0
LINE
  8
_f-f_
  6
CONTINUOUS
 62
    7
 10
268.50678399999998
 20
12.0976
 11
268.41897599999993
 21
12.009792000000004
  0
LINE
  8
_f-f_
  6
CONTINUOUS
 62
    7
 10
268.41897599999993
 20
12.009792000000004
 11
268.38604799999996
 21
11.965888000000007
  0
LINE
  8
_f-f_
  6
CONTINUOUS
 62
    7
 10
268.38604799999996
 20
11.965888000000007
 11
268.21043199999997
 21
11.790272000000016
  0
LINE
  8
_f-f_
  6
CONTINUOUS
 62
    7
 10
268.21043199999997
 20
11.790272000000016
 11
268.15555199999994
 21
11.746368000000018
  0
LINE
  8
_f-f_
  6
CONTINUOUS
 62
    7
 10
268.15555199999994
 20
11.746368000000018
 11
268.11164799999995
 21
11.70246400000002
  0
LINE
  8
_f-f_
  6
CONTINUOUS
 62
    7
 10
268.11164799999995
 20
11.70246400000002
 11
268.05676799999998
 21
11.658559999999994
  0
LINE
  8
_f-f_
  6
CONTINUOUS
 62
    7
 10
268.05676799999998
 20
11.658559999999994
 11
268.01286399999992
 21
11.614655999999997
  0
LINE
  8
_f-f_
  6
CONTINUOUS
 62
    7
 10
268.01286399999992
 20
11.614655999999997
 11
267.95798399999995
 21
11.570752000000027
  0
LINE
  8
_f-f_
  6
CONTINUOUS
 62
    7
 10
267.95798399999995
 20
11.570752000000027
 11
267.89212799999996
 21
11.52684800000003
  0
LINE
  8
_f-f_
  6
CONTINUOUS
 62
    7
 10
267.89212799999996
 20
11.52684800000003
 11
267.72748799999999
 21
11.395136000000008
  0
LINE
  8
_f-f_
  6
CONTINUOUS
 62
    7
 10
267.72748799999999
 20
11.395136000000008
 11
267.79334399999999
 21
11.263423999999986
  0
LINE
  8
_f-f_
  6
CONTINUOUS
 62
    7
 10
267.79334399999999
 20
11.263423999999986
 11
267.8262719999999
 21
11.219519999999989
  0
LINE
  8
_f-f_
  6
CONTINUOUS
 62
    7
 10
267.8262719999999
 20
11.219519999999989
 11
267.89212799999996
 21
11.087808000000024
  0
LINE
  8
_f-f_
  6
CONTINUOUS
 62
    7
 10
267.44211199999995
 20
12.536639999999977
 11
267.48601599999995
 21
12.492735999999979
  0
LINE
  8
_f-f_
  6
CONTINUOUS
 62
    7
 10
267.48601599999995
 20
12.492735999999979
 11
267.61772799999994
 21
12.317120000000017
  0
LINE
  8
_f-f_
  6
CONTINUOUS
 62
    7
 10
267.61772799999994
 20
12.317120000000017
 11
267.63968
 21
12.273216000000019
  0
LINE
  8
_f-f_
  6
CONTINUOUS
 62
    7
 10
267.63968
 20
12.273216000000019
 11
267.67260799999997
 21
12.229311999999993
  0
LINE
  8
_f-f_
  6
CONTINUOUS
 62
    7
 10
267.67260799999997
 20
12.229311999999993
 11
267.69455999999997
 21
12.185407999999995
  0
LINE
  8
_f-f_
  6
CONTINUOUS
 62
    7
 10
267.69455999999997
 20
12.185407999999995
 11
267.72748799999999
 21
12.141503999999998
  0
LINE
  8
_f-f_
  6
CONTINUOUS
 62
    7
 10
267.06892800000003
 20
12.448831999999982
 11
267.06892800000003
 21
10.736576000000014
  0
LINE
  8
_f-f_
  6
CONTINUOUS
 62
    7
 10
268.9019199999999
 20
12.0976
 11
268.9019199999999
 21
10.736576000000014
  0
LINE
  8
_f-f_
  6
CONTINUOUS
 62
    7
 10
269.27510399999994
 20
12.0976
 11
269.37388799999991
 21
11.965888000000007
  0
LINE
  8
_f-f_
  6
CONTINUOUS
 62
    7
 10
269.37388799999991
 20
11.965888000000007
 11
269.41779199999996
 21
11.921984000000009
  0
LINE
  8
_f-f_
  6
CONTINUOUS
 62
    7
 10
269.41779199999996
 20
11.921984000000009
 11
269.45071999999993
 21
11.878080000000011
  0
LINE
  8
_f-f_
  6
CONTINUOUS
 62
    7
 10
269.45071999999993
 20
11.878080000000011
 11
269.49462399999999
 21
11.834176000000014
  0
LINE
  8
_f-f_
  6
CONTINUOUS
 62
    7
 10
269.49462399999999
 20
11.834176000000014
 11
269.5275519999999
 21
11.790272000000016
  0
LINE
  8
_f-f_
  6
CONTINUOUS
 62
    7
 10
269.5275519999999
 20
11.790272000000016
 11
269.70316800000001
 21
11.614655999999997
  0
LINE
  8
_f-f_
  6
CONTINUOUS
 62
    7
 10
269.70316800000001
 20
11.614655999999997
 11
269.75804799999997
 21
11.570752000000027
  0
LINE
  8
_f-f_
  6
CONTINUOUS
 62
    7
 10
269.75804799999997
 20
11.570752000000027
 11
269.80195199999991
 21
11.52684800000003
  0
LINE
  8
_f-f_
  6
CONTINUOUS
 62
    7
 10
269.80195199999991
 20
11.52684800000003
 11
269.91171199999997
 21
11.439040000000034
  0
LINE
  8
_f-f_
  6
CONTINUOUS
 62
    7
 10
269.91171199999997
 20
11.439040000000034
 11
269.95561599999996
 21
11.395136000000008
  0
LINE
  8
_f-f_
  6
CONTINUOUS
 62
    7
 10
269.95561599999996
 20
11.395136000000008
 11
270.01049599999999
 21
11.35123200000001
  0
LINE
  8
_f-f_
  6
CONTINUOUS
 62
    7
 10
270.01049599999999
 20
11.35123200000001
 11
270.07635199999993
 21
11.307327999999984
  0
LINE
  8
_f-f_
  6
CONTINUOUS
 62
    7
 10
270.07635199999993
 20
11.307327999999984
 11
270.18611199999998
 21
11.219519999999989
  0
LINE
  8
_f-f_
  6
CONTINUOUS
 62
    7
 10
267.37625600000001
 20
14.687935999999993
 11
267.44211199999995
 21
14.644031999999967
  0
LINE
  8
_f-f_
  6
CONTINUOUS
 62
    7
 10
267.44211199999995
 20
14.644031999999967
 11
267.39820799999995
 21
14.600128000000012
  0
LINE
  8
_f-f_
  6
CONTINUOUS
 62
    7
 10
267.39820799999995
 20
14.600128000000012
 11
267.38723200000004
 21
14.556224000000014
  0
LINE
  8
_f-f_
  6
CONTINUOUS
 62
    7
 10
267.38723200000004
 20
14.556224000000014
 11
267.38723200000004
 21
13.853760000000037
  0
LINE
  8
_f-f_
  6
CONTINUOUS
 62
    7
 10
267.38723200000004
 20
13.458624000000043
 11
267.38723200000004
 21
12.975680000000011
  0
LINE
  8
_f-f_
  6
CONTINUOUS
 62
    7
 10
267.38723200000004
 20
12.975680000000011
 11
267.51894399999992
 21
12.887871999999987
  0
LINE
  8
_f-f_
  6
CONTINUOUS
 62
    7
 10
267.51894399999992
 20
12.887871999999987
 11
267.683584
 21
12.756160000000023
  0
LINE
  8
_f-f_
  6
CONTINUOUS
 62
    7
 10
267.683584
 20
12.756160000000023
 11
267.90310399999998
 21
12.536639999999977
  0
LINE
  8
_f-f_
  6
CONTINUOUS
 62
    7
 10
267.90310399999998
 20
12.536639999999977
 11
267.96895999999992
 21
12.448831999999982
  0
LINE
  8
_f-f_
  6
CONTINUOUS
 62
    7
 10
267.96895999999992
 20
12.448831999999982
 11
267.80431999999996
 21
12.229311999999993
  0
LINE
  8
_f-f_
  6
CONTINUOUS
 62
    7
 10
267.80431999999996
 20
12.229311999999993
 11
267.76041599999996
 21
12.185407999999995
  0
LINE
  8
_f-f_
  6
CONTINUOUS
 62
    7
 10
267.76041599999996
 20
12.185407999999995
 11
267.72748799999999
 21
12.141503999999998
  0
LINE
  8
_f-f_
  6
CONTINUOUS
 62
    7
 10
269.22022399999992
 20
14.687935999999993
 11
269.27510399999994
 21
14.644031999999967
  0
LINE
  8
_f-f_
  6
CONTINUOUS
 62
    7
 10
269.27510399999994
 20
14.644031999999967
 11
269.23119999999994
 21
14.600128000000012
  0
LINE
  8
_f-f_
  6
CONTINUOUS
 62
    7
 10
269.23119999999994
 20
14.600128000000012
 11
269.23119999999994
 21
13.941568000000032
  0
LINE
  8
_f-f_
  6
CONTINUOUS
 62
    7
 10
269.23119999999994
 20
13.546432000000038
 11
269.23119999999994
 21
13.019583999999952
  0
LINE
  8
_f-f_
  6
CONTINUOUS
 62
    7
 10
269.26412799999991
 20
12.624447999999973
 11
269.28607999999997
 21
12.580544000000003
  0
LINE
  8
_f-f_
  6
CONTINUOUS
 62
    7
 10
269.28607999999997
 20
12.580544000000003
 11
269.48364800000002
 21
12.317120000000017
  0
LINE
  8
_f-f_
  6
CONTINUOUS
 62
    7
 10
269.48364800000002
 20
12.317120000000017
 11
269.5275519999999
 21
12.273216000000019
  0
LINE
  8
_f-f_
  6
CONTINUOUS
 62
    7
 10
269.5275519999999
 20
12.273216000000019
 11
269.56047999999998
 21
12.229311999999993
  0
LINE
  8
_f-f_
  6
CONTINUOUS
 62
    7
 10
269.56047999999998
 20
12.229311999999993
 11
269.64828799999998
 21
12.141503999999998
  0
LINE
  8
_f-f_
  6
CONTINUOUS
 62
    7
 10
269.64828799999998
 20
12.141503999999998
 11
269.70316800000001
 21
12.0976
  0
LINE
  8
_f-f_
  6
CONTINUOUS
 62
    7
 10
269.70316800000001
 20
12.0976
 11
269.74707199999995
 21
12.053696000000031
  0
LINE
  8
_f-f_
  6
CONTINUOUS
 62
    7
 10
269.74707199999995
 20
12.053696000000031
 11
270.02147199999996
 21
11.834176000000014
  0
LINE
  8
_f-f_
  6
CONTINUOUS
 62
    7
 10
270.02147199999996
 20
11.834176000000014
 11
270.35075199999994
 21
11.614655999999997
  0
LINE
  8
_f-f_
  6
CONTINUOUS
 62
    7
 10
270.35075199999994
 20
11.614655999999997
 11
270.42758399999991
 21
11.570752000000027
  0
LINE
  8
_f-f_
  6
CONTINUOUS
 62
    7
 10
270.42758399999991
 20
11.570752000000027
 11
270.38367999999997
 21
11.482944000000003
  0
LINE
  8
_f-f_
  6
CONTINUOUS
 62
    7
 10
270.38367999999997
 20
11.482944000000003
 11
270.35075199999994
 21
11.439040000000034
  0
LINE
  8
_f-f_
  6
CONTINUOUS
 62
    7
 10
270.35075199999994
 20
11.439040000000034
 11
270.24099199999989
 21
11.219519999999989
  0
LINE
  8
_f-f_
  6
CONTINUOUS
 62
    7
 10
270.24099199999989
 20
11.219519999999989
 11
270.18611199999998
 21
11.219519999999989
  0
LINE
  8
_f-f_
  6
CONTINUOUS
 62
    7
 10
268.37507199999993
 20
14.336704000000026
 11
268.55068799999992
 21
14.292800000000028
  0
LINE
  8
_f-f_
  6
CONTINUOUS
 62
    7
 10
268.55068799999992
 20
14.292800000000028
 11
268.70435199999997
 21
14.248896000000016
  0
LINE
  8
_f-f_
  6
CONTINUOUS
 62
    7
 10
268.70435199999997
 20
14.248896000000016
 11
268.70435199999997
 21
14.204992000000018
  0
LINE
  8
_f-f_
  6
CONTINUOUS
 62
    7
 10
268.70435199999997
 20
14.204992000000018
 11
268.63849599999992
 21
14.161087999999992
  0
LINE
  8
_f-f_
  6
CONTINUOUS
 62
    7
 10
268.63849599999992
 20
14.161087999999992
 11
268.62752
 21
14.117184000000023
  0
LINE
  8
_f-f_
  6
CONTINUOUS
 62
    7
 10
268.62752
 20
14.117184000000023
 11
268.60556799999995
 21
14.073279999999997
  0
LINE
  8
_f-f_
  6
CONTINUOUS
 62
    7
 10
268.60556799999995
 20
14.073279999999997
 11
268.58361600000001
 21
13.985471999999987
  0
LINE
  8
_f-f_
  6
CONTINUOUS
 62
    7
 10
268.58361600000001
 20
13.985471999999987
 11
268.56166399999995
 21
13.941568000000032
  0
LINE
  8
_f-f_
  6
CONTINUOUS
 62
    7
 10
268.9019199999999
 20
13.546432000000038
 11
268.40799999999996
 21
13.546432000000038
  0
LINE
  8
_f-f_
  6
CONTINUOUS
 62
    7
 10
268.40799999999996
 20
13.546432000000038
 11
268.34214399999996
 21
13.414720000000017
  0
LINE
  8
_f-f_
  6
CONTINUOUS
 62
    7
 10
268.34214399999996
 20
13.414720000000017
 11
268.30921599999999
 21
13.370815999999991
  0
LINE
  8
_f-f_
  6
CONTINUOUS
 62
    7
 10
268.30921599999999
 20
13.370815999999991
 11
268.26531199999999
 21
13.283008000000024
  0
LINE
  8
_f-f_
  6
CONTINUOUS
 62
    7
 10
268.26531199999999
 20
13.283008000000024
 11
268.13359999999994
 21
13.107392000000061
  0
LINE
  8
_f-f_
  6
CONTINUOUS
 62
    7
 10
268.13359999999994
 20
13.107392000000061
 11
268.11164799999995
 21
13.107392000000061
  0
LINE
  8
_f-f_
  6
CONTINUOUS
 62
    7
 10
267.44211199999995
 20
12.536639999999977
 11
267.38723200000004
 21
12.536639999999977
  0
LINE
  8
_f-f_
  6
CONTINUOUS
 62
    7
 10
267.38723200000004
 20
12.536639999999977
 11
267.38723200000004
 21
10.736576000000014
  0
LINE
  8
_f-f_
  6
CONTINUOUS
 62
    7
 10
267.38723200000004
 20
10.736576000000014
 11
267.06892800000003
 21
10.736576000000014
  0
LINE
  8
_f-f_
  6
CONTINUOUS
 62
    7
 10
267.06892800000003
 20
12.448831999999982
 11
267.03599999999994
 21
12.448831999999982
  0
LINE
  8
_f-f_
  6
CONTINUOUS
 62
    7
 10
267.03599999999994
 20
12.448831999999982
 11
266.99209599999995
 21
12.361024000000015
  0
LINE
  8
_f-f_
  6
CONTINUOUS
 62
    7
 10
266.99209599999995
 20
12.361024000000015
 11
266.98111999999998
 21
12.317120000000017
  0
LINE
  8
_f-f_
  6
CONTINUOUS
 62
    7
 10
266.98111999999998
 20
12.317120000000017
 11
266.91526399999998
 21
12.185407999999995
  0
LINE
  8
_f-f_
  6
CONTINUOUS
 62
    7
 10
266.91526399999998
 20
12.185407999999995
 11
266.88233600000001
 21
12.141503999999998
  0
LINE
  8
_f-f_
  6
CONTINUOUS
 62
    7
 10
266.88233600000001
 20
12.141503999999998
 11
266.8384319999999
 21
12.053696000000031
  0
LINE
  8
_f-f_
  6
CONTINUOUS
 62
    7
 10
266.8384319999999
 20
12.053696000000031
 11
266.77257599999996
 21
11.965888000000007
  0
LINE
  8
_f-f_
  6
CONTINUOUS
 62
    7
 10
266.77257599999996
 20
11.965888000000007
 11
266.7506239999999
 21
11.921984000000009
  0
LINE
  8
_f-f_
  6
CONTINUOUS
 62
    7
 10
266.7506239999999
 20
11.921984000000009
 11
266.65183999999999
 21
11.790272000000016
  0
LINE
  8
_f-f_
  6
CONTINUOUS
 62
    7
 10
266.65183999999999
 20
11.790272000000016
 11
266.607936
 21
11.746368000000018
  0
LINE
  8
_f-f_
  6
CONTINUOUS
 62
    7
 10
266.607936
 20
11.746368000000018
 11
266.57500799999991
 21
11.70246400000002
  0
LINE
  8
_f-f_
  6
CONTINUOUS
 62
    7
 10
266.57500799999991
 20
11.70246400000002
 11
266.55305599999997
 21
11.70246400000002
  0
LINE
  8
_f-f_
  6
CONTINUOUS
 62
    7
 10
268.9019199999999
 20
12.0976
 11
268.87996799999996
 21
12.0976
  0
LINE
  8
_f-f_
  6
CONTINUOUS
 62
    7
 10
268.87996799999996
 20
12.0976
 11
268.84703999999994
 21
12.053696000000031
  0
LINE
  8
_f-f_
  6
CONTINUOUS
 62
    7
 10
268.84703999999994
 20
12.053696000000031
 11
268.82508799999994
 21
12.009792000000004
  0
LINE
  8
_f-f_
  6
CONTINUOUS
 62
    7
 10
268.82508799999994
 20
12.009792000000004
 11
268.79215999999997
 21
11.965888000000007
  0
LINE
  8
_f-f_
  6
CONTINUOUS
 62
    7
 10
268.79215999999997
 20
11.965888000000007
 11
268.77020799999997
 21
11.921984000000009
  0
LINE
  8
_f-f_
  6
CONTINUOUS
 62
    7
 10
268.77020799999997
 20
11.921984000000009
 11
268.60556799999995
 21
11.70246400000002
  0
LINE
  8
_f-f_
  6
CONTINUOUS
 62
    7
 10
268.60556799999995
 20
11.70246400000002
 11
268.56166399999995
 21
11.658559999999994
  0
LINE
  8
_f-f_
  6
CONTINUOUS
 62
    7
 10
268.56166399999995
 20
11.658559999999994
 11
268.52873599999998
 21
11.614655999999997
  0
LINE
  8
_f-f_
  6
CONTINUOUS
 62
    7
 10
268.52873599999998
 20
11.614655999999997
 11
268.26531199999999
 21
11.35123200000001
  0
LINE
  8
_f-f_
  6
CONTINUOUS
 62
    7
 10
268.26531199999999
 20
11.35123200000001
 11
267.99091199999998
 21
11.131712000000022
  0
LINE
  8
_f-f_
  6
CONTINUOUS
 62
    7
 10
267.99091199999998
 20
11.131712000000022
 11
267.92505599999993
 21
11.087808000000024
  0
LINE
  8
_f-f_
  6
CONTINUOUS
 62
    7
 10
267.92505599999993
 20
11.087808000000024
 11
267.89212799999996
 21
11.087808000000024
  0
LINE
  8
_f-f_
  6
CONTINUOUS
 62
    7
 10
269.27510399999994
 20
12.0976
 11
269.23119999999994
 21
12.0976
  0
LINE
  8
_f-f_
  6
CONTINUOUS
 62
    7
 10
269.23119999999994
 20
12.0976
 11
269.23119999999994
 21
10.736576000000014
  0
LINE
  8
_f-f_
  6
CONTINUOUS
 62
    7
 10
269.23119999999994
 20
10.736576000000014
 11
268.9019199999999
 21
10.736576000000014
  0
LINE
  8
_f-f_
  6
CONTINUOUS
 62
    7
 10
273.48988799999995
 20
14.600128000000012
 11
273.07279999999992
 21
14.600128000000012
  0
LINE
  8
_f-f_
  6
CONTINUOUS
 62
    7
 10
273.07279999999992
 20
14.600128000000012
 11
273.07279999999992
 21
13.853760000000037
  0
LINE
  8
_f-f_
  6
CONTINUOUS
 62
    7
 10
273.083776
 20
13.458624000000043
 11
273.083776
 21
13.414720000000017
  0
LINE
  8
_f-f_
  6
CONTINUOUS
 62
    7
 10
273.083776
 20
13.414720000000017
 11
273.09475199999997
 21
13.370815999999991
  0
LINE
  8
_f-f_
  6
CONTINUOUS
 62
    7
 10
273.09475199999997
 20
13.370815999999991
 11
273.09475199999997
 21
13.151296000000031
  0
LINE
  8
_f-f_
  6
CONTINUOUS
 62
    7
 10
273.09475199999997
 20
13.151296000000031
 11
273.105728
 21
13.107392000000061
  0
LINE
  8
_f-f_
  6
CONTINUOUS
 62
    7
 10
273.105728
 20
13.107392000000061
 11
273.105728
 21
12.975680000000011
  0
LINE
  8
_f-f_
  6
CONTINUOUS
 62
    7
 10
273.105728
 20
12.975680000000011
 11
273.11670399999991
 21
12.931776000000013
  0
LINE
  8
_f-f_
  6
CONTINUOUS
 62
    7
 10
273.11670399999991
 20
12.931776000000013
 11
273.11670399999991
 21
12.84396799999999
  0
LINE
  8
_f-f_
  6
CONTINUOUS
 62
    7
 10
273.11670399999991
 20
12.84396799999999
 11
273.12767999999994
 21
12.800064000000049
  0
LINE
  8
_f-f_
  6
CONTINUOUS
 62
    7
 10
273.12767999999994
 20
12.800064000000049
 11
273.12767999999994
 21
12.756160000000023
  0
LINE
  8
_f-f_
  6
CONTINUOUS
 62
    7
 10
273.12767999999994
 20
12.756160000000023
 11
273.13865599999997
 21
12.712256000000025
  0
LINE
  8
_f-f_
  6
CONTINUOUS
 62
    7
 10
273.13865599999997
 20
12.712256000000025
 11
273.13865599999997
 21
12.668351999999999
  0
LINE
  8
_f-f_
  6
CONTINUOUS
 62
    7
 10
273.13865599999997
 20
12.668351999999999
 11
273.149632
 21
12.624447999999973
  0
LINE
  8
_f-f_
  6
CONTINUOUS
 62
    7
 10
273.149632
 20
12.624447999999973
 11
273.149632
 21
12.580544000000003
  0
LINE
  8
_f-f_
  6
CONTINUOUS
 62
    7
 10
273.149632
 20
12.580544000000003
 11
273.17158399999994
 21
12.492735999999979
  0
LINE
  8
_f-f_
  6
CONTINUOUS
 62
    7
 10
273.17158399999994
 20
12.492735999999979
 11
273.17158399999994
 21
12.448831999999982
  0
LINE
  8
_f-f_
  6
CONTINUOUS
 62
    7
 10
273.17158399999994
 20
12.448831999999982
 11
273.20451199999991
 21
12.317120000000017
  0
LINE
  8
_f-f_
  6
CONTINUOUS
 62
    7
 10
273.20451199999991
 20
12.317120000000017
 11
273.20451199999991
 21
12.273216000000019
  0
LINE
  8
_f-f_
  6
CONTINUOUS
 62
    7
 10
273.20451199999991
 20
12.273216000000019
 11
273.25939199999999
 21
12.053696000000031
  0
LINE
  8
_f-f_
  6
CONTINUOUS
 62
    7
 10
273.25939199999999
 20
12.053696000000031
 11
273.28134399999999
 21
12.009792000000004
  0
LINE
  8
_f-f_
  6
CONTINUOUS
 62
    7
 10
273.28134399999999
 20
12.009792000000004
 11
273.31427199999996
 21
11.878080000000011
  0
LINE
  8
_f-f_
  6
CONTINUOUS
 62
    7
 10
273.31427199999996
 20
11.878080000000011
 11
273.3362239999999
 21
11.834176000000014
  0
LINE
  8
_f-f_
  6
CONTINUOUS
 62
    7
 10
273.3362239999999
 20
11.834176000000014
 11
273.34719999999999
 21
11.790272000000016
  0
LINE
  8
_f-f_
  6
CONTINUOUS
 62
    7
 10
273.34719999999999
 20
11.790272000000016
 11
273.41305599999998
 21
11.658559999999994
  0
LINE
  8
_f-f_
  6
CONTINUOUS
 62
    7
 10
273.41305599999998
 20
11.658559999999994
 11
273.42403199999995
 21
11.614655999999997
  0
LINE
  8
_f-f_
  6
CONTINUOUS
 62
    7
 10
273.42403199999995
 20
11.614655999999997
 11
273.44598400000001
 21
11.570752000000027
  0
LINE
  8
_f-f_
  6
CONTINUOUS
 62
    7
 10
273.44598400000001
 20
11.570752000000027
 11
273.47891199999992
 21
11.52684800000003
  0
LINE
  8
_f-f_
  6
CONTINUOUS
 62
    7
 10
273.47891199999992
 20
11.52684800000003
 11
273.52281599999992
 21
11.439040000000034
  0
LINE
  8
_f-f_
  6
CONTINUOUS
 62
    7
 10
273.52281599999992
 20
11.439040000000034
 11
273.555744
 21
11.395136000000008
  0
LINE
  8
_f-f_
  6
CONTINUOUS
 62
    7
 10
273.555744
 20
11.395136000000008
 11
273.57769599999995
 21
11.35123200000001
  0
LINE
  8
_f-f_
  6
CONTINUOUS
 62
    7
 10
273.57769599999995
 20
11.35123200000001
 11
273.70940799999994
 21
11.175616000000019
  0
LINE
  8
_f-f_
  6
CONTINUOUS
 62
    7
 10
273.70940799999994
 20
11.175616000000019
 11
273.79721599999993
 21
11.087808000000024
  0
LINE
  8
_f-f_
  6
CONTINUOUS
 62
    7
 10
273.79721599999993
 20
11.087808000000024
 11
273.85209599999996
 21
11.043903999999998
  0
LINE
  8
_f-f_
  6
CONTINUOUS
 62
    7
 10
273.85209599999996
 20
11.043903999999998
 11
273.98380799999995
 21
10.956095999999974
  0
LINE
  8
_f-f_
  6
CONTINUOUS
 62
    7
 10
273.98380799999995
 20
10.956095999999974
 11
274.093568
 21
10.912192000000005
  0
LINE
  8
_f-f_
  6
CONTINUOUS
 62
    7
 10
273.95087999999998
 20
14.512320000000003
 11
273.90697599999999
 21
14.512320000000003
  0
LINE
  8
_f-f_
  6
CONTINUOUS
 62
    7
 10
273.90697599999999
 20
14.512320000000003
 11
273.85209599999996
 21
14.468416000000005
  0
LINE
  8
_f-f_
  6
CONTINUOUS
 62
    7
 10
273.85209599999996
 20
14.468416000000005
 11
273.80819200000002
 21
14.424512000000007
  0
LINE
  8
_f-f_
  6
CONTINUOUS
 62
    7
 10
273.80819200000002
 20
14.424512000000007
 11
273.69843199999997
 21
14.336704000000026
  0
LINE
  8
_f-f_
  6
CONTINUOUS
 62
    7
 10
273.69843199999997
 20
14.336704000000026
 11
273.65452800000003
 21
14.292800000000028
  0
LINE
  8
_f-f_
  6
CONTINUOUS
 62
    7
 10
273.65452800000003
 20
14.292800000000028
 11
273.69843199999997
 21
14.248896000000016
  0
LINE
  8
_f-f_
  6
CONTINUOUS
 62
    7
 10
273.69843199999997
 20
14.248896000000016
 11
273.77526399999999
 21
14.204992000000018
  0
LINE
  8
_f-f_
  6
CONTINUOUS
 62
    7
 10
273.77526399999999
 20
14.204992000000018
 11
273.84111999999993
 21
14.161087999999992
  0
LINE
  8
_f-f_
  6
CONTINUOUS
 62
    7
 10
273.84111999999993
 20
14.161087999999992
 11
274.06063999999998
 21
13.985471999999987
  0
LINE
  8
_f-f_
  6
CONTINUOUS
 62
    7
 10
272.83132799999998
 20
12.84396799999999
 11
271.15199999999993
 21
12.84396799999999
  0
LINE
  8
_f-f_
  6
CONTINUOUS
 62
    7
 10
271.83251199999995
 20
12.536639999999977
 11
271.83251199999995
 21
11.570752000000027
  0
LINE
  8
_f-f_
  6
CONTINUOUS
 62
    7
 10
271.83251199999995
 20
11.570752000000027
 11
271.56908799999997
 21
11.52684800000003
  0
LINE
  8
_f-f_
  6
CONTINUOUS
 62
    7
 10
271.56908799999997
 20
11.52684800000003
 11
271.19590399999998
 21
11.482944000000003
  0
LINE
  8
_f-f_
  6
CONTINUOUS
 62
    7
 10
271.19590399999998
 20
11.482944000000003
 11
270.99833599999994
 21
11.439040000000034
  0
LINE
  8
_f-f_
  6
CONTINUOUS
 62
    7
 10
270.99833599999994
 20
11.439040000000034
 11
271.04223999999999
 21
11.263423999999986
  0
LINE
  8
_f-f_
  6
CONTINUOUS
 62
    7
 10
271.04223999999999
 20
11.263423999999986
 11
271.04223999999999
 21
11.219519999999989
  0
LINE
  8
_f-f_
  6
CONTINUOUS
 62
    7
 10
271.04223999999999
 20
11.219519999999989
 11
271.08614399999999
 21
11.043903999999998
  0
LINE
  8
_f-f_
  6
CONTINUOUS
 62
    7
 10
271.08614399999999
 20
11.043903999999998
 11
271.11907199999996
 21
11
  0
LINE
  8
_f-f_
  6
CONTINUOUS
 62
    7
 10
273.07279999999992
 20
11.746368000000018
 11
272.95206399999995
 21
11.746368000000018
  0
LINE
  8
_f-f_
  6
CONTINUOUS
 62
    7
 10
272.95206399999995
 20
11.746368000000018
 11
272.71059199999996
 21
11.70246400000002
  0
LINE
  8
_f-f_
  6
CONTINUOUS
 62
    7
 10
272.71059199999996
 20
11.70246400000002
 11
272.44716799999998
 21
11.658559999999994
  0
LINE
  8
_f-f_
  6
CONTINUOUS
 62
    7
 10
272.44716799999998
 20
11.658559999999994
 11
272.16179199999999
 21
11.658559999999994
  0
LINE
  8
_f-f_
  6
CONTINUOUS
 62
    7
 10
274.38991999999996
 20
11.70246400000002
 11
274.31308799999994
 21
11.70246400000002
  0
LINE
  8
_f-f_
  6
CONTINUOUS
 62
    7
 10
274.31308799999994
 20
11.70246400000002
 11
274.31308799999994
 21
11.614655999999997
  0
LINE
  8
_f-f_
  6
CONTINUOUS
 62
    7
 10
274.31308799999994
 20
11.614655999999997
 11
274.30211199999997
 21
11.570752000000027
  0
LINE
  8
_f-f_
  6
CONTINUOUS
 62
    7
 10
274.30211199999997
 20
11.570752000000027
 11
274.30211199999997
 21
11.52684800000003
  0
LINE
  8
_f-f_
  6
CONTINUOUS
 62
    7
 10
274.30211199999997
 20
11.52684800000003
 11
274.29113599999994
 21
11.482944000000003
  0
LINE
  8
_f-f_
  6
CONTINUOUS
 62
    7
 10
274.29113599999994
 20
11.482944000000003
 11
274.29113599999994
 21
11.439040000000034
  0
LINE
  8
_f-f_
  6
CONTINUOUS
 62
    7
 10
274.29113599999994
 20
11.439040000000034
 11
274.269184
 21
11.395136000000008
  0
LINE
  8
_f-f_
  6
CONTINUOUS
 62
    7
 10
274.269184
 20
11.395136000000008
 11
274.23625599999997
 21
11.35123200000001
  0
LINE
  8
_f-f_
  6
CONTINUOUS
 62
    7
 10
274.23625599999997
 20
11.35123200000001
 11
274.137472
 21
11.35123200000001
  0
LINE
  8
_f-f_
  6
CONTINUOUS
 62
    7
 10
273.48988799999995
 20
14.600128000000012
 11
273.51183999999995
 21
14.556224000000014
  0
LINE
  8
_f-f_
  6
CONTINUOUS
 62
    7
 10
273.51183999999995
 20
14.556224000000014
 11
273.44598400000001
 21
14.468416000000005
  0
LINE
  8
_f-f_
  6
CONTINUOUS
 62
    7
 10
273.44598400000001
 20
14.468416000000005
 11
273.44598400000001
 21
13.853760000000037
  0
LINE
  8
_f-f_
  6
CONTINUOUS
 62
    7
 10
273.44598400000001
 20
13.458624000000043
 11
273.44598400000001
 21
13.370815999999991
  0
LINE
  8
_f-f_
  6
CONTINUOUS
 62
    7
 10
273.44598400000001
 20
13.370815999999991
 11
273.45695999999998
 21
13.326912000000021
  0
LINE
  8
_f-f_
  6
CONTINUOUS
 62
    7
 10
273.45695999999998
 20
13.326912000000021
 11
273.45695999999998
 21
13.239103999999998
  0
LINE
  8
_f-f_
  6
CONTINUOUS
 62
    7
 10
273.45695999999998
 20
13.239103999999998
 11
273.46793600000001
 21
13.195199999999971
  0
LINE
  8
_f-f_
  6
CONTINUOUS
 62
    7
 10
273.46793600000001
 20
13.195199999999971
 11
273.46793600000001
 21
13.107392000000061
  0
LINE
  8
_f-f_
  6
CONTINUOUS
 62
    7
 10
273.46793600000001
 20
13.107392000000061
 11
273.47891199999992
 21
13.063488000000007
  0
LINE
  8
_f-f_
  6
CONTINUOUS
 62
    7
 10
273.47891199999992
 20
13.063488000000007
 11
273.47891199999992
 21
13.019583999999952
  0
LINE
  8
_f-f_
  6
CONTINUOUS
 62
    7
 10
273.47891199999992
 20
13.019583999999952
 11
273.48988799999995
 21
12.975680000000011
  0
LINE
  8
_f-f_
  6
CONTINUOUS
 62
    7
 10
273.48988799999995
 20
12.975680000000011
 11
273.48988799999995
 21
12.887871999999987
  0
LINE
  8
_f-f_
  6
CONTINUOUS
 62
    7
 10
273.48988799999995
 20
12.887871999999987
 11
273.50086399999998
 21
12.84396799999999
  0
LINE
  8
_f-f_
  6
CONTINUOUS
 62
    7
 10
273.50086399999998
 20
12.84396799999999
 11
273.50086399999998
 21
12.800064000000049
  0
LINE
  8
_f-f_
  6
CONTINUOUS
 62
    7
 10
273.50086399999998
 20
12.800064000000049
 11
273.52281599999992
 21
12.712256000000025
  0
LINE
  8
_f-f_
  6
CONTINUOUS
 62
    7
 10
273.52281599999992
 20
12.712256000000025
 11
273.52281599999992
 21
12.668351999999999
  0
LINE
  8
_f-f_
  6
CONTINUOUS
 62
    7
 10
273.52281599999992
 20
12.668351999999999
 11
273.53379199999995
 21
12.624447999999973
  0
LINE
  8
_f-f_
  6
CONTINUOUS
 62
    7
 10
273.53379199999995
 20
12.624447999999973
 11
273.53379199999995
 21
12.580544000000003
  0
LINE
  8
_f-f_
  6
CONTINUOUS
 62
    7
 10
273.53379199999995
 20
12.580544000000003
 11
273.56671999999992
 21
12.448831999999982
  0
LINE
  8
_f-f_
  6
CONTINUOUS
 62
    7
 10
273.56671999999992
 20
12.448831999999982
 11
273.56671999999992
 21
12.404927999999984
  0
LINE
  8
_f-f_
  6
CONTINUOUS
 62
    7
 10
273.56671999999992
 20
12.404927999999984
 11
273.63257599999997
 21
12.141503999999998
  0
LINE
  8
_f-f_
  6
CONTINUOUS
 62
    7
 10
273.63257599999997
 20
12.141503999999998
 11
273.65452800000003
 21
12.0976
  0
LINE
  8
_f-f_
  6
CONTINUOUS
 62
    7
 10
273.65452800000003
 20
12.0976
 11
273.67647999999997
 21
12.009792000000004
  0
LINE
  8
_f-f_
  6
CONTINUOUS
 62
    7
 10
273.67647999999997
 20
12.009792000000004
 11
273.69843199999997
 21
11.965888000000007
  0
LINE
  8
_f-f_
  6
CONTINUOUS
 62
    7
 10
273.69843199999997
 20
11.965888000000007
 11
273.70940799999994
 21
11.921984000000009
  0
LINE
  8
_f-f_
  6
CONTINUOUS
 62
    7
 10
273.70940799999994
 20
11.921984000000009
 11
273.84111999999993
 21
11.658559999999994
  0
LINE
  8
_f-f_
  6
CONTINUOUS
 62
    7
 10
273.84111999999993
 20
11.658559999999994
 11
273.87404799999996
 21
11.614655999999997
  0
LINE
  8
_f-f_
  6
CONTINUOUS
 62
    7
 10
273.87404799999996
 20
11.614655999999997
 11
273.89599999999996
 21
11.570752000000027
  0
LINE
  8
_f-f_
  6
CONTINUOUS
 62
    7
 10
273.89599999999996
 20
11.570752000000027
 11
273.92892799999993
 21
11.52684800000003
  0
LINE
  8
_f-f_
  6
CONTINUOUS
 62
    7
 10
273.92892799999993
 20
11.52684800000003
 11
273.97283199999998
 21
11.482944000000003
  0
LINE
  8
_f-f_
  6
CONTINUOUS
 62
    7
 10
273.97283199999998
 20
11.482944000000003
 11
274.0057599999999
 21
11.439040000000034
  0
LINE
  8
_f-f_
  6
CONTINUOUS
 62
    7
 10
274.0057599999999
 20
11.439040000000034
 11
274.06063999999998
 21
11.395136000000008
  0
LINE
  8
_f-f_
  6
CONTINUOUS
 62
    7
 10
274.06063999999998
 20
11.395136000000008
 11
274.137472
 21
11.35123200000001
  0
LINE
  8
_f-f_
  6
CONTINUOUS
 62
    7
 10
273.95087999999998
 20
14.512320000000003
 11
274.10454399999992
 21
14.424512000000007
  0
LINE
  8
_f-f_
  6
CONTINUOUS
 62
    7
 10
274.10454399999992
 20
14.424512000000007
 11
274.15942399999994
 21
14.380608000000009
  0
LINE
  8
_f-f_
  6
CONTINUOUS
 62
    7
 10
274.15942399999994
 20
14.380608000000009
 11
274.22528
 21
14.336704000000026
  0
LINE
  8
_f-f_
  6
CONTINUOUS
 62
    7
 10
274.22528
 20
14.336704000000026
 11
274.28016000000002
 21
14.292800000000028
  0
LINE
  8
_f-f_
  6
CONTINUOUS
 62
    7
 10
274.28016000000002
 20
14.292800000000028
 11
274.32406400000002
 21
14.248896000000016
  0
LINE
  8
_f-f_
  6
CONTINUOUS
 62
    7
 10
274.32406400000002
 20
14.248896000000016
 11
274.35699199999999
 21
14.204992000000018
  0
LINE
  8
_f-f_
  6
CONTINUOUS
 62
    7
 10
274.35699199999999
 20
14.204992000000018
 11
274.24723199999994
 21
14.117184000000023
  0
LINE
  8
_f-f_
  6
CONTINUOUS
 62
    7
 10
274.24723199999994
 20
14.117184000000023
 11
274.20332799999994
 21
14.073279999999997
  0
LINE
  8
_f-f_
  6
CONTINUOUS
 62
    7
 10
274.20332799999994
 20
14.073279999999997
 11
274.093568
 21
13.985471999999987
  0
LINE
  8
_f-f_
  6
CONTINUOUS
 62
    7
 10
274.093568
 20
13.985471999999987
 11
274.06063999999998
 21
13.985471999999987
  0
LINE
  8
_f-f_
  6
CONTINUOUS
 62
    7
 10
273.07279999999992
 20
11.746368000000018
 11
273.083776
 21
11.70246400000002
  0
LINE
  8
_f-f_
  6
CONTINUOUS
 62
    7
 10
273.083776
 20
11.70246400000002
 11
273.083776
 21
11.658559999999994
  0
LINE
  8
_f-f_
  6
CONTINUOUS
 62
    7
 10
273.083776
 20
11.658559999999994
 11
273.105728
 21
11.570752000000027
  0
LINE
  8
_f-f_
  6
CONTINUOUS
 62
    7
 10
273.105728
 20
11.570752000000027
 11
273.105728
 21
11.52684800000003
  0
LINE
  8
_f-f_
  6
CONTINUOUS
 62
    7
 10
273.105728
 20
11.52684800000003
 11
273.11670399999991
 21
11.482944000000003
  0
LINE
  8
_f-f_
  6
CONTINUOUS
 62
    7
 10
273.11670399999991
 20
11.482944000000003
 11
273.03987199999995
 21
11.439040000000034
  0
LINE
  8
_f-f_
  6
CONTINUOUS
 62
    7
 10
273.03987199999995
 20
11.439040000000034
 11
272.62278400000002
 21
11.35123200000001
  0
LINE
  8
_f-f_
  6
CONTINUOUS
 62
    7
 10
272.62278400000002
 20
11.35123200000001
 11
272.18374399999993
 21
11.263423999999986
  0
LINE
  8
_f-f_
  6
CONTINUOUS
 62
    7
 10
272.18374399999993
 20
11.263423999999986
 11
271.72275199999996
 21
11.175616000000019
  0
LINE
  8
_f-f_
  6
CONTINUOUS
 62
    7
 10
271.72275199999996
 20
11.175616000000019
 11
271.48127999999997
 21
11.131712000000022
  0
LINE
  8
_f-f_
  6
CONTINUOUS
 62
    7
 10
271.48127999999997
 20
11.131712000000022
 11
271.2288319999999
 21
11.087808000000024
  0
LINE
  8
_f-f_
  6
CONTINUOUS
 62
    7
 10
271.2288319999999
 20
11.087808000000024
 11
271.17395199999999
 21
11.043903999999998
  0
LINE
  8
_f-f_
  6
CONTINUOUS
 62
    7
 10
271.17395199999999
 20
11.043903999999998
 11
271.15199999999993
 21
11
  0
LINE
  8
_f-f_
  6
CONTINUOUS
 62
    7
 10
271.15199999999993
 20
11
 11
271.11907199999996
 21
11
  0
LINE
  8
_f-f_
  6
CONTINUOUS
 62
    7
 10
274.38991999999996
 20
11.70246400000002
 11
274.47772799999996
 21
11.658559999999994
  0
LINE
  8
_f-f_
  6
CONTINUOUS
 62
    7
 10
274.47772799999996
 20
11.658559999999994
 11
274.67529599999995
 21
11.570752000000027
  0
LINE
  8
_f-f_
  6
CONTINUOUS
 62
    7
 10
274.67529599999995
 20
11.570752000000027
 11
274.67529599999995
 21
11.52684800000003
  0
LINE
  8
_f-f_
  6
CONTINUOUS
 62
    7
 10
274.67529599999995
 20
11.52684800000003
 11
274.65334399999995
 21
11.439040000000034
  0
LINE
  8
_f-f_
  6
CONTINUOUS
 62
    7
 10
274.65334399999995
 20
11.439040000000034
 11
274.65334399999995
 21
11.395136000000008
  0
LINE
  8
_f-f_
  6
CONTINUOUS
 62
    7
 10
274.65334399999995
 20
11.395136000000008
 11
274.63139200000001
 21
11.307327999999984
  0
LINE
  8
_f-f_
  6
CONTINUOUS
 62
    7
 10
274.63139200000001
 20
11.307327999999984
 11
274.63139200000001
 21
11.263423999999986
  0
LINE
  8
_f-f_
  6
CONTINUOUS
 62
    7
 10
274.63139200000001
 20
11.263423999999986
 11
274.60943999999995
 21
11.175616000000019
  0
LINE
  8
_f-f_
  6
CONTINUOUS
 62
    7
 10
274.60943999999995
 20
11.175616000000019
 11
274.60943999999995
 21
11.131712000000022
  0
LINE
  8
_f-f_
  6
CONTINUOUS
 62
    7
 10
274.60943999999995
 20
11.131712000000022
 11
274.59846399999998
 21
11.087808000000024
  0
LINE
  8
_f-f_
  6
CONTINUOUS
 62
    7
 10
274.59846399999998
 20
11.087808000000024
 11
274.55455999999992
 21
11
  0
LINE
  8
_f-f_
  6
CONTINUOUS
 62
    7
 10
274.55455999999992
 20
11
 11
274.52163199999995
 21
10.956095999999974
  0
LINE
  8
_f-f_
  6
CONTINUOUS
 62
    7
 10
274.52163199999995
 20
10.956095999999974
 11
274.46675199999993
 21
10.912192000000005
  0
LINE
  8
_f-f_
  6
CONTINUOUS
 62
    7
 10
274.46675199999993
 20
10.912192000000005
 11
274.093568
 21
10.912192000000005
  0
LINE
  8
_f-f_
  6
CONTINUOUS
 62
    7
 10
277.05708800000002
 20
14.644031999999967
 11
276.99123199999997
 21
14.644031999999967
  0
LINE
  8
_f-f_
  6
CONTINUOUS
 62
    7
 10
276.99123199999997
 20
14.644031999999967
 11
276.94732799999997
 21
14.556224000000014
  0
LINE
  8
_f-f_
  6
CONTINUOUS
 62
    7
 10
276.94732799999997
 20
14.556224000000014
 11
276.9144
 21
14.512320000000003
  0
LINE
  8
_f-f_
  6
CONTINUOUS
 62
    7
 10
276.9144
 20
14.512320000000003
 11
276.89244799999994
 21
14.468416000000005
  0
LINE
  8
_f-f_
  6
CONTINUOUS
 62
    7
 10
276.89244799999994
 20
14.468416000000005
 11
276.82659199999995
 21
14.380608000000009
  0
LINE
  8
_f-f_
  6
CONTINUOUS
 62
    7
 10
276.82659199999995
 20
14.380608000000009
 11
276.80463999999995
 21
14.336704000000026
  0
LINE
  8
_f-f_
  6
CONTINUOUS
 62
    7
 10
276.80463999999995
 20
14.336704000000026
 11
276.70585599999993
 21
14.204992000000018
  0
LINE
  8
_f-f_
  6
CONTINUOUS
 62
    7
 10
276.70585599999993
 20
14.204992000000018
 11
276.66195199999999
 21
14.161087999999992
  0
LINE
  8
_f-f_
  6
CONTINUOUS
 62
    7
 10
276.66195199999999
 20
14.161087999999992
 11
276.59609599999999
 21
14.073279999999997
  0
LINE
  8
_f-f_
  6
CONTINUOUS
 62
    7
 10
276.59609599999999
 20
14.073279999999997
 11
276.42048
 21
13.897663999999992
  0
LINE
  8
_f-f_
  6
CONTINUOUS
 62
    7
 10
276.42048
 20
13.897663999999992
 11
276.36559999999997
 21
13.853760000000037
  0
LINE
  8
_f-f_
  6
CONTINUOUS
 62
    7
 10
276.36559999999997
 20
13.853760000000037
 11
276.32169599999997
 21
13.809856000000011
  0
LINE
  8
_f-f_
  6
CONTINUOUS
 62
    7
 10
276.32169599999997
 20
13.809856000000011
 11
276.21193599999998
 21
13.722048000000001
  0
LINE
  8
_f-f_
  6
CONTINUOUS
 62
    7
 10
276.21193599999998
 20
13.722048000000001
 11
276.01436799999999
 21
13.590336000000008
  0
LINE
  8
_f-f_
  6
CONTINUOUS
 62
    7
 10
276.01436799999999
 20
13.590336000000008
 11
275.860704
 21
13.502527999999984
  0
LINE
  8
_f-f_
  6
CONTINUOUS
 62
    7
 10
275.860704
 20
13.502527999999984
 11
275.68508799999995
 21
13.414720000000017
  0
LINE
  8
_f-f_
  6
CONTINUOUS
 62
    7
 10
275.68508799999995
 20
13.414720000000017
 11
275.46556799999996
 21
13.326912000000021
  0
LINE
  8
_f-f_
  6
CONTINUOUS
 62
    7
 10
275.46556799999996
 20
13.326912000000021
 11
275.33385599999997
 21
13.283008000000024
  0
LINE
  8
_f-f_
  6
CONTINUOUS
 62
    7
 10
275.33385599999997
 20
13.283008000000024
 11
275.22409599999997
 21
13.239103999999998
  0
LINE
  8
_f-f_
  6
CONTINUOUS
 62
    7
 10
275.22409599999997
 20
13.239103999999998
 11
275.23507199999995
 21
13.195199999999971
  0
LINE
  8
_f-f_
  6
CONTINUOUS
 62
    7
 10
275.23507199999995
 20
13.195199999999971
 11
275.257024
 21
13.151296000000031
  0
LINE
  8
_f-f_
  6
CONTINUOUS
 62
    7
 10
275.257024
 20
13.151296000000031
 11
275.26800000000003
 21
13.107392000000061
  0
LINE
  8
_f-f_
  6
CONTINUOUS
 62
    7
 10
275.26800000000003
 20
13.107392000000061
 11
275.28995199999997
 21
13.063488000000007
  0
LINE
  8
_f-f_
  6
CONTINUOUS
 62
    7
 10
275.28995199999997
 20
13.063488000000007
 11
275.300928
 21
13.019583999999952
  0
LINE
  8
_f-f_
  6
CONTINUOUS
 62
    7
 10
275.300928
 20
13.019583999999952
 11
275.32287999999994
 21
12.975680000000011
  0
LINE
  8
_f-f_
  6
CONTINUOUS
 62
    7
 10
275.32287999999994
 20
12.975680000000011
 11
275.33385599999997
 21
12.931776000000013
  0
LINE
  8
_f-f_
  6
CONTINUOUS
 62
    7
 10
275.33385599999997
 20
12.931776000000013
 11
275.35580800000002
 21
12.887871999999987
  0
LINE
  8
_f-f_
  6
CONTINUOUS
 62
    7
 10
277.17782399999993
 20
14.292800000000028
 11
277.19977599999999
 21
14.248896000000016
  0
LINE
  8
_f-f_
  6
CONTINUOUS
 62
    7
 10
277.19977599999999
 20
14.248896000000016
 11
277.2327039999999
 21
14.204992000000018
  0
LINE
  8
_f-f_
  6
CONTINUOUS
 62
    7
 10
277.2327039999999
 20
14.204992000000018
 11
277.25465599999995
 21
14.161087999999992
  0
LINE
  8
_f-f_
  6
CONTINUOUS
 62
    7
 10
277.25465599999995
 20
14.161087999999992
 11
277.48515199999997
 21
13.853760000000037
  0
LINE
  8
_f-f_
  6
CONTINUOUS
 62
    7
 10
277.48515199999997
 20
13.853760000000037
 11
277.70467199999996
 21
13.634240000000005
  0
LINE
  8
_f-f_
  6
CONTINUOUS
 62
    7
 10
277.70467199999996
 20
13.634240000000005
 11
277.86931199999992
 21
13.502527999999984
  0
LINE
  8
_f-f_
  6
CONTINUOUS
 62
    7
 10
277.86931199999992
 20
13.502527999999984
 11
278.06687999999991
 21
13.370815999999991
  0
LINE
  8
_f-f_
  6
CONTINUOUS
 62
    7
 10
278.06687999999991
 20
13.370815999999991
 11
278.14371199999994
 21
13.326912000000021
  0
LINE
  8
_f-f_
  6
CONTINUOUS
 62
    7
 10
278.14371199999994
 20
13.326912000000021
 11
276.27779199999998
 21
13.326912000000021
  0
LINE
  8
_f-f_
  6
CONTINUOUS
 62
    7
 10
276.24486400000001
 20
13.283008000000024
 11
276.24486400000001
 21
12.975680000000011
  0
LINE
  8
_f-f_
  6
CONTINUOUS
 62
    7
 10
278.23151999999993
 20
13.283008000000024
 11
278.38518399999998
 21
13.195199999999971
  0
LINE
  8
_f-f_
  6
CONTINUOUS
 62
    7
 10
278.38518399999998
 20
13.195199999999971
 11
278.56079999999997
 21
13.107392000000061
  0
LINE
  8
_f-f_
  6
CONTINUOUS
 62
    7
 10
278.56079999999997
 20
13.107392000000061
 11
278.78031999999996
 21
13.019583999999952
  0
LINE
  8
_f-f_
  6
CONTINUOUS
 62
    7
 10
278.78031999999996
 20
13.019583999999952
 11
278.91203199999995
 21
12.975680000000011
  0
LINE
  8
_f-f_
  6
CONTINUOUS
 62
    7
 10
278.9339839999999
 20
12.536639999999977
 11
275.43263999999999
 21
12.536639999999977
  0
LINE
  8
_f-f_
  6
CONTINUOUS
 62
    7
 10
276.66195199999999
 20
12.141503999999998
 11
276.6290239999999
 21
12.0976
  0
LINE
  8
_f-f_
  6
CONTINUOUS
 62
    7
 10
276.6290239999999
 20
12.0976
 11
276.54121599999996
 21
11.921984000000009
  0
LINE
  8
_f-f_
  6
CONTINUOUS
 62
    7
 10
276.54121599999996
 20
11.921984000000009
 11
276.50828799999999
 21
11.878080000000011
  0
LINE
  8
_f-f_
  6
CONTINUOUS
 62
    7
 10
276.50828799999999
 20
11.878080000000011
 11
276.42048
 21
11.70246400000002
  0
LINE
  8
_f-f_
  6
CONTINUOUS
 62
    7
 10
276.42048
 20
11.70246400000002
 11
276.38755199999997
 21
11.658559999999994
  0
LINE
  8
_f-f_
  6
CONTINUOUS
 62
    7
 10
276.38755199999997
 20
11.658559999999994
 11
276.29974399999992
 21
11.482944000000003
  0
LINE
  8
_f-f_
  6
CONTINUOUS
 62
    7
 10
276.29974399999992
 20
11.482944000000003
 11
276.26681599999995
 21
11.439040000000034
  0
LINE
  8
_f-f_
  6
CONTINUOUS
 62
    7
 10
276.26681599999995
 20
11.439040000000034
 11
276.20096000000001
 21
11.307327999999984
  0
LINE
  8
_f-f_
  6
CONTINUOUS
 62
    7
 10
276.20096000000001
 20
11.307327999999984
 11
275.57532799999996
 21
11.263423999999986
  0
LINE
  8
_f-f_
  6
CONTINUOUS
 62
    7
 10
275.57532799999996
 20
11.263423999999986
 11
275.49849599999993
 21
11.219519999999989
  0
LINE
  8
_f-f_
  6
CONTINUOUS
 62
    7
 10
275.49849599999993
 20
11.219519999999989
 11
275.50947199999996
 21
11.175616000000019
  0
LINE
  8
_f-f_
  6
CONTINUOUS
 62
    7
 10
275.50947199999996
 20
11.175616000000019
 11
275.53142400000002
 21
11.131712000000022
  0
LINE
  8
_f-f_
  6
CONTINUOUS
 62
    7
 10
275.53142400000002
 20
11.131712000000022
 11
275.59727999999996
 21
10.868288000000035
  0
LINE
  8
_f-f_
  6
CONTINUOUS
 62
    7
 10
275.59727999999996
 20
10.868288000000035
 11
275.63020799999993
 21
10.824384000000038
  0
LINE
  8
_f-f_
  6
CONTINUOUS
 62
    7
 10
277.81443200000001
 20
12.009792000000004
 11
277.77052800000001
 21
12.009792000000004
  0
LINE
  8
_f-f_
  6
CONTINUOUS
 62
    7
 10
277.77052800000001
 20
12.009792000000004
 11
277.50710400000003
 21
11.834176000000014
  0
LINE
  8
_f-f_
  6
CONTINUOUS
 62
    7
 10
277.50710400000003
 20
11.834176000000014
 11
277.55100799999997
 21
11.790272000000016
  0
LINE
  8
_f-f_
  6
CONTINUOUS
 62
    7
 10
277.55100799999997
 20
11.790272000000016
 11
277.88028799999995
 21
11.52684800000003
  0
LINE
  8
_f-f_
  6
CONTINUOUS
 62
    7
 10
277.88028799999995
 20
11.52684800000003
 11
277.92419200000001
 21
11.482944000000003
  0
LINE
  8
_f-f_
  6
CONTINUOUS
 62
    7
 10
277.92419200000001
 20
11.482944000000003
 11
277.97907199999997
 21
11.439040000000034
  0
LINE
  8
_f-f_
  6
CONTINUOUS
 62
    7
 10
277.97907199999997
 20
11.439040000000034
 11
277.73759999999999
 21
11.395136000000008
  0
LINE
  8
_f-f_
  6
CONTINUOUS
 62
    7
 10
277.73759999999999
 20
11.395136000000008
 11
277.14489600000002
 21
11.35123200000001
  0
LINE
  8
_f-f_
  6
CONTINUOUS
 62
    7
 10
277.14489600000002
 20
11.35123200000001
 11
276.58511999999996
 21
11.35123200000001
  0
LINE
  8
_f-f_
  6
CONTINUOUS
 62
    7
 10
278.26444799999996
 20
11.131712000000022
 11
278.30835200000001
 21
11.087808000000024
  0
LINE
  8
_f-f_
  6
CONTINUOUS
 62
    7
 10
278.30835200000001
 20
11.087808000000024
 11
278.36323199999993
 21
11.043903999999998
  0
LINE
  8
_f-f_
  6
CONTINUOUS
 62
    7
 10
278.36323199999993
 20
11.043903999999998
 11
278.3961599999999
 21
11
  0
LINE
  8
_f-f_
  6
CONTINUOUS
 62
    7
 10
278.3961599999999
 20
11
 11
278.44006399999995
 21
10.956095999999974
  0
LINE
  8
_f-f_
  6
CONTINUOUS
 62
    7
 10
278.44006399999995
 20
10.956095999999974
 11
278.47299199999998
 21
10.912192000000005
  0
LINE
  8
_f-f_
  6
CONTINUOUS
 62
    7
 10
278.47299199999998
 20
10.912192000000005
 11
278.51689599999997
 21
10.868288000000035
  0
LINE
  8
_f-f_
  6
CONTINUOUS
 62
    7
 10
278.51689599999997
 20
10.868288000000035
 11
278.54982399999994
 21
10.824384000000038
  0
LINE
  8
_f-f_
  6
CONTINUOUS
 62
    7
 10
277.05708800000002
 20
14.644031999999967
 11
277.36441599999995
 21
14.600128000000012
  0
LINE
  8
_f-f_
  6
CONTINUOUS
 62
    7
 10
277.36441599999995
 20
14.600128000000012
 11
277.40832
 21
14.556224000000014
  0
LINE
  8
_f-f_
  6
CONTINUOUS
 62
    7
 10
277.40832
 20
14.556224000000014
 11
277.36441599999995
 21
14.512320000000003
  0
LINE
  8
_f-f_
  6
CONTINUOUS
 62
    7
 10
277.36441599999995
 20
14.512320000000003
 11
277.37539199999998
 21
14.468416000000005
  0
LINE
  8
_f-f_
  6
CONTINUOUS
 62
    7
 10
277.37539199999998
 20
14.468416000000005
 11
277.50710400000003
 21
14.292800000000028
  0
LINE
  8
_f-f_
  6
CONTINUOUS
 62
    7
 10
277.50710400000003
 20
14.292800000000028
 11
277.59491200000002
 21
14.204992000000018
  0
LINE
  8
_f-f_
  6
CONTINUOUS
 62
    7
 10
277.59491200000002
 20
14.204992000000018
 11
277.62783999999999
 21
14.161087999999992
  0
LINE
  8
_f-f_
  6
CONTINUOUS
 62
    7
 10
277.62783999999999
 20
14.161087999999992
 11
277.67174399999999
 21
14.117184000000023
  0
LINE
  8
_f-f_
  6
CONTINUOUS
 62
    7
 10
277.67174399999999
 20
14.117184000000023
 11
277.72662399999996
 21
14.073279999999997
  0
LINE
  8
_f-f_
  6
CONTINUOUS
 62
    7
 10
277.72662399999996
 20
14.073279999999997
 11
277.77052800000001
 21
14.029375999999999
  0
LINE
  8
_f-f_
  6
CONTINUOUS
 62
    7
 10
277.77052800000001
 20
14.029375999999999
 11
277.93516799999998
 21
13.897663999999992
  0
LINE
  8
_f-f_
  6
CONTINUOUS
 62
    7
 10
277.93516799999998
 20
13.897663999999992
 11
278.13273600000002
 21
13.765952000000013
  0
LINE
  8
_f-f_
  6
CONTINUOUS
 62
    7
 10
278.13273600000002
 20
13.765952000000013
 11
278.28639999999996
 21
13.678143999999975
  0
LINE
  8
_f-f_
  6
CONTINUOUS
 62
    7
 10
278.28639999999996
 20
13.678143999999975
 11
278.46201599999995
 21
13.590336000000008
  0
LINE
  8
_f-f_
  6
CONTINUOUS
 62
    7
 10
278.46201599999995
 20
13.590336000000008
 11
278.68153599999994
 21
13.502527999999984
  0
LINE
  8
_f-f_
  6
CONTINUOUS
 62
    7
 10
278.68153599999994
 20
13.502527999999984
 11
278.80227199999996
 21
13.458624000000043
  0
LINE
  8
_f-f_
  6
CONTINUOUS
 62
    7
 10
278.80227199999996
 20
13.458624000000043
 11
278.94495999999992
 21
13.414720000000017
  0
LINE
  8
_f-f_
  6
CONTINUOUS
 62
    7
 10
278.94495999999992
 20
13.414720000000017
 11
279.09862399999997
 21
13.370815999999991
  0
LINE
  8
_f-f_
  6
CONTINUOUS
 62
    7
 10
279.09862399999997
 20
13.370815999999991
 11
279.08764799999994
 21
13.326912000000021
  0
LINE
  8
_f-f_
  6
CONTINUOUS
 62
    7
 10
279.08764799999994
 20
13.326912000000021
 11
279.04374399999995
 21
13.239103999999998
  0
LINE
  8
_f-f_
  6
CONTINUOUS
 62
    7
 10
279.04374399999995
 20
13.239103999999998
 11
279.03276799999992
 21
13.195199999999971
  0
LINE
  8
_f-f_
  6
CONTINUOUS
 62
    7
 10
279.03276799999992
 20
13.195199999999971
 11
278.98886399999998
 21
13.107392000000061
  0
LINE
  8
_f-f_
  6
CONTINUOUS
 62
    7
 10
278.98886399999998
 20
13.107392000000061
 11
278.97788799999995
 21
13.063488000000007
  0
LINE
  8
_f-f_
  6
CONTINUOUS
 62
    7
 10
278.97788799999995
 20
13.063488000000007
 11
278.9339839999999
 21
12.975680000000011
  0
LINE
  8
_f-f_
  6
CONTINUOUS
 62
    7
 10
278.9339839999999
 20
12.975680000000011
 11
278.91203199999995
 21
12.975680000000011
  0
LINE
  8
_f-f_
  6
CONTINUOUS
 62
    7
 10
277.17782399999993
 20
14.292800000000028
 11
277.14489600000002
 21
14.292800000000028
  0
LINE
  8
_f-f_
  6
CONTINUOUS
 62
    7
 10
277.14489600000002
 20
14.292800000000028
 11
277.11196799999999
 21
14.248896000000016
  0
LINE
  8
_f-f_
  6
CONTINUOUS
 62
    7
 10
277.11196799999999
 20
14.248896000000016
 11
277.09001599999993
 21
14.204992000000018
  0
LINE
  8
_f-f_
  6
CONTINUOUS
 62
    7
 10
277.09001599999993
 20
14.204992000000018
 11
277.05708800000002
 21
14.161087999999992
  0
LINE
  8
_f-f_
  6
CONTINUOUS
 62
    7
 10
277.05708800000002
 20
14.161087999999992
 11
277.03513599999997
 21
14.117184000000023
  0
LINE
  8
_f-f_
  6
CONTINUOUS
 62
    7
 10
277.03513599999997
 20
14.117184000000023
 11
276.83756799999998
 21
13.853760000000037
  0
LINE
  8
_f-f_
  6
CONTINUOUS
 62
    7
 10
276.83756799999998
 20
13.853760000000037
 11
276.79366399999992
 21
13.809856000000011
  0
LINE
  8
_f-f_
  6
CONTINUOUS
 62
    7
 10
276.79366399999992
 20
13.809856000000011
 11
276.76073599999995
 21
13.765952000000013
  0
LINE
  8
_f-f_
  6
CONTINUOUS
 62
    7
 10
276.76073599999995
 20
13.765952000000013
 11
276.49731199999997
 21
13.502527999999984
  0
LINE
  8
_f-f_
  6
CONTINUOUS
 62
    7
 10
276.49731199999997
 20
13.502527999999984
 11
276.27779199999998
 21
13.326912000000021
  0
LINE
  8
_f-f_
  6
CONTINUOUS
 62
    7
 10
276.24486400000001
 20
13.283008000000024
 11
276.21193599999998
 21
13.283008000000024
  0
LINE
  8
_f-f_
  6
CONTINUOUS
 62
    7
 10
276.21193599999998
 20
13.283008000000024
 11
276.01436799999999
 21
13.151296000000031
  0
LINE
  8
_f-f_
  6
CONTINUOUS
 62
    7
 10
276.01436799999999
 20
13.151296000000031
 11
275.78387199999997
 21
13.019583999999952
  0
LINE
  8
_f-f_
  6
CONTINUOUS
 62
    7
 10
275.78387199999997
 20
13.019583999999952
 11
275.58630399999993
 21
12.931776000000013
  0
LINE
  8
_f-f_
  6
CONTINUOUS
 62
    7
 10
275.58630399999993
 20
12.931776000000013
 11
275.47654399999999
 21
12.887871999999987
  0
LINE
  8
_f-f_
  6
CONTINUOUS
 62
    7
 10
275.47654399999999
 20
12.887871999999987
 11
275.35580800000002
 21
12.887871999999987
  0
LINE
  8
_f-f_
  6
CONTINUOUS
 62
    7
 10
278.23151999999993
 20
13.283008000000024
 11
278.16566399999994
 21
13.283008000000024
  0
LINE
  8
_f-f_
  6
CONTINUOUS
 62
    7
 10
278.16566399999994
 20
13.283008000000024
 11
278.16566399999994
 21
12.975680000000011
  0
LINE
  8
_f-f_
  6
CONTINUOUS
 62
    7
 10
278.16566399999994
 20
12.975680000000011
 11
276.24486400000001
 21
12.975680000000011
  0
LINE
  8
_f-f_
  6
CONTINUOUS
 62
    7
 10
277.05708800000002
 20
12.141503999999998
 11
277.01318399999997
 21
12.053696000000031
  0
LINE
  8
_f-f_
  6
CONTINUOUS
 62
    7
 10
277.01318399999997
 20
12.053696000000031
 11
276.98025599999994
 21
12.009792000000004
  0
LINE
  8
_f-f_
  6
CONTINUOUS
 62
    7
 10
276.98025599999994
 20
12.009792000000004
 11
276.958304
 21
11.965888000000007
  0
LINE
  8
_f-f_
  6
CONTINUOUS
 62
    7
 10
276.958304
 20
11.965888000000007
 11
276.92537599999997
 21
11.921984000000009
  0
LINE
  8
_f-f_
  6
CONTINUOUS
 62
    7
 10
276.92537599999997
 20
11.921984000000009
 11
276.88147199999992
 21
11.834176000000014
  0
LINE
  8
_f-f_
  6
CONTINUOUS
 62
    7
 10
276.88147199999992
 20
11.834176000000014
 11
276.84854399999995
 21
11.790272000000016
  0
LINE
  8
_f-f_
  6
CONTINUOUS
 62
    7
 10
276.84854399999995
 20
11.790272000000016
 11
276.82659199999995
 21
11.746368000000018
  0
LINE
  8
_f-f_
  6
CONTINUOUS
 62
    7
 10
276.82659199999995
 20
11.746368000000018
 11
276.79366399999992
 21
11.70246400000002
  0
LINE
  8
_f-f_
  6
CONTINUOUS
 62
    7
 10
276.79366399999992
 20
11.70246400000002
 11
276.74975999999998
 21
11.614655999999997
  0
LINE
  8
_f-f_
  6
CONTINUOUS
 62
    7
 10
276.74975999999998
 20
11.614655999999997
 11
276.71683199999995
 21
11.570752000000027
  0
LINE
  8
_f-f_
  6
CONTINUOUS
 62
    7
 10
276.71683199999995
 20
11.570752000000027
 11
276.69488000000001
 21
11.52684800000003
  0
LINE
  8
_f-f_
  6
CONTINUOUS
 62
    7
 10
276.69488000000001
 20
11.52684800000003
 11
276.66195199999999
 21
11.482944000000003
  0
LINE
  8
_f-f_
  6
CONTINUOUS
 62
    7
 10
276.66195199999999
 20
11.482944000000003
 11
276.61804799999993
 21
11.395136000000008
  0
LINE
  8
_f-f_
  6
CONTINUOUS
 62
    7
 10
276.61804799999993
 20
11.395136000000008
 11
276.58511999999996
 21
11.35123200000001
  0
LINE
  8
_f-f_
  6
CONTINUOUS
 62
    7
 10
277.81443200000001
 20
12.009792000000004
 11
277.92419200000001
 21
11.921984000000009
  0
LINE
  8
_f-f_
  6
CONTINUOUS
 62
    7
 10
277.92419200000001
 20
11.921984000000009
 11
277.990048
 21
11.878080000000011
  0
LINE
  8
_f-f_
  6
CONTINUOUS
 62
    7
 10
277.990048
 20
11.878080000000011
 11
278.20956799999988
 21
11.70246400000002
  0
LINE
  8
_f-f_
  6
CONTINUOUS
 62
    7
 10
278.20956799999988
 20
11.70246400000002
 11
278.25347199999993
 21
11.658559999999994
  0
LINE
  8
_f-f_
  6
CONTINUOUS
 62
    7
 10
278.25347199999993
 20
11.658559999999994
 11
278.36323199999993
 21
11.570752000000027
  0
LINE
  8
_f-f_
  6
CONTINUOUS
 62
    7
 10
278.36323199999993
 20
11.570752000000027
 11
278.40713599999992
 21
11.52684800000003
  0
LINE
  8
_f-f_
  6
CONTINUOUS
 62
    7
 10
278.40713599999992
 20
11.52684800000003
 11
278.46201599999995
 21
11.482944000000003
  0
LINE
  8
_f-f_
  6
CONTINUOUS
 62
    7
 10
278.46201599999995
 20
11.482944000000003
 11
278.54982399999994
 21
11.395136000000008
  0
LINE
  8
_f-f_
  6
CONTINUOUS
 62
    7
 10
278.54982399999994
 20
11.395136000000008
 11
278.60470399999997
 21
11.35123200000001
  0
LINE
  8
_f-f_
  6
CONTINUOUS
 62
    7
 10
278.60470399999997
 20
11.35123200000001
 11
278.73641599999996
 21
11.219519999999989
  0
LINE
  8
_f-f_
  6
CONTINUOUS
 62
    7
 10
278.73641599999996
 20
11.219519999999989
 11
278.76934399999993
 21
11.175616000000019
  0
LINE
  8
_f-f_
  6
CONTINUOUS
 62
    7
 10
278.76934399999993
 20
11.175616000000019
 11
278.81324799999999
 21
11.131712000000022
  0
LINE
  8
_f-f_
  6
CONTINUOUS
 62
    7
 10
278.81324799999999
 20
11.131712000000022
 11
278.87910399999993
 21
11.043903999999998
  0
LINE
  8
_f-f_
  6
CONTINUOUS
 62
    7
 10
278.87910399999993
 20
11.043903999999998
 11
278.90105599999998
 21
11
  0
LINE
  8
_f-f_
  6
CONTINUOUS
 62
    7
 10
278.90105599999998
 20
11
 11
278.82422399999996
 21
10.956095999999974
  0
LINE
  8
_f-f_
  6
CONTINUOUS
 62
    7
 10
278.82422399999996
 20
10.956095999999974
 11
278.69251199999997
 21
10.868288000000035
  0
LINE
  8
_f-f_
  6
CONTINUOUS
 62
    7
 10
278.69251199999997
 20
10.868288000000035
 11
278.61567999999994
 21
10.824384000000038
  0
LINE
  8
_f-f_
  6
CONTINUOUS
 62
    7
 10
278.61567999999994
 20
10.824384000000038
 11
278.54982399999994
 21
10.824384000000038
  0
LINE
  8
_f-f_
  6
CONTINUOUS
 62
    7
 10
278.26444799999996
 20
11.131712000000022
 11
278.08883199999997
 21
11.131712000000022
  0
LINE
  8
_f-f_
  6
CONTINUOUS
 62
    7
 10
278.08883199999997
 20
11.131712000000022
 11
277.69369599999993
 21
11.087808000000024
  0
LINE
  8
_f-f_
  6
CONTINUOUS
 62
    7
 10
277.69369599999993
 20
11.087808000000024
 11
277.28758399999992
 21
11.043903999999998
  0
LINE
  8
_f-f_
  6
CONTINUOUS
 62
    7
 10
277.28758399999992
 20
11.043903999999998
 11
276.10217599999993
 21
10.912192000000005
  0
LINE
  8
_f-f_
  6
CONTINUOUS
 62
    7
 10
276.10217599999993
 20
10.912192000000005
 11
275.73996799999998
 21
10.868288000000035
  0
LINE
  8
_f-f_
  6
CONTINUOUS
 62
    7
 10
275.73996799999998
 20
10.868288000000035
 11
275.67411199999998
 21
10.824384000000038
  0
LINE
  8
_f-f_
  6
CONTINUOUS
 62
    7
 10
275.67411199999998
 20
10.824384000000038
 11
275.63020799999993
 21
10.824384000000038
  0
LINE
  8
_f-f_
  6
CONTINUOUS
 62
    7
 10
280.723072
 20
14.600128000000012
 11
280.33891199999999
 21
14.600128000000012
  0
LINE
  8
_f-f_
  6
CONTINUOUS
 62
    7
 10
280.82185599999991
 20
13.546432000000038
 11
280.79990399999997
 21
13.502527999999984
  0
LINE
  8
_f-f_
  6
CONTINUOUS
 62
    7
 10
280.79990399999997
 20
13.502527999999984
 11
280.76697599999994
 21
13.458624000000043
  0
LINE
  8
_f-f_
  6
CONTINUOUS
 62
    7
 10
280.76697599999994
 20
13.458624000000043
 11
280.74502399999994
 21
13.414720000000017
  0
LINE
  8
_f-f_
  6
CONTINUOUS
 62
    7
 10
280.74502399999994
 20
13.414720000000017
 11
280.67916799999995
 21
13.326912000000021
  0
LINE
  8
_f-f_
  6
CONTINUOUS
 62
    7
 10
280.67916799999995
 20
13.326912000000021
 11
280.65721599999995
 21
13.283008000000024
  0
LINE
  8
_f-f_
  6
CONTINUOUS
 62
    7
 10
280.65721599999995
 20
13.283008000000024
 11
280.59135999999995
 21
13.195199999999971
  0
LINE
  8
_f-f_
  6
CONTINUOUS
 62
    7
 10
280.59135999999995
 20
13.195199999999971
 11
280.54745600000001
 21
13.151296000000031
  0
LINE
  8
_f-f_
  6
CONTINUOUS
 62
    7
 10
280.54745600000001
 20
13.151296000000031
 11
280.48159999999996
 21
13.063488000000007
  0
LINE
  8
_f-f_
  6
CONTINUOUS
 62
    7
 10
280.48159999999996
 20
13.063488000000007
 11
280.43769599999996
 21
13.019583999999952
  0
LINE
  8
_f-f_
  6
CONTINUOUS
 62
    7
 10
280.43769599999996
 20
13.019583999999952
 11
280.40476799999999
 21
12.975680000000011
  0
LINE
  8
_f-f_
  6
CONTINUOUS
 62
    7
 10
280.40476799999999
 20
12.975680000000011
 11
280.22915199999994
 21
12.800064000000049
  0
LINE
  8
_f-f_
  6
CONTINUOUS
 62
    7
 10
280.22915199999994
 20
12.800064000000049
 11
280.17427199999997
 21
12.756160000000023
  0
LINE
  8
_f-f_
  6
CONTINUOUS
 62
    7
 10
280.17427199999997
 20
12.756160000000023
 11
280.13036799999998
 21
12.712256000000025
  0
LINE
  8
_f-f_
  6
CONTINUOUS
 62
    7
 10
280.13036799999998
 20
12.712256000000025
 11
280.02060799999992
 21
12.624447999999973
  0
LINE
  8
_f-f_
  6
CONTINUOUS
 62
    7
 10
280.02060799999992
 20
12.624447999999973
 11
279.95475199999993
 21
12.580544000000003
  0
LINE
  8
_f-f_
  6
CONTINUOUS
 62
    7
 10
279.95475199999993
 20
12.580544000000003
 11
279.89987199999996
 21
12.536639999999977
  0
LINE
  8
_f-f_
  6
CONTINUOUS
 62
    7
 10
279.89987199999996
 20
12.536639999999977
 11
279.70230399999997
 21
12.404927999999984
  0
LINE
  8
_f-f_
  6
CONTINUOUS
 62
    7
 10
279.70230399999997
 20
12.404927999999984
 11
279.62547199999995
 21
12.361024000000015
  0
LINE
  8
_f-f_
  6
CONTINUOUS
 62
    7
 10
279.62547199999995
 20
12.361024000000015
 11
279.55961599999989
 21
12.317120000000017
  0
LINE
  8
_f-f_
  6
CONTINUOUS
 62
    7
 10
279.55961599999989
 20
12.317120000000017
 11
279.60351999999995
 21
12.229311999999993
  0
LINE
  8
_f-f_
  6
CONTINUOUS
 62
    7
 10
279.60351999999995
 20
12.229311999999993
 11
279.61449599999997
 21
12.185407999999995
  0
LINE
  8
_f-f_
  6
CONTINUOUS
 62
    7
 10
279.61449599999997
 20
12.185407999999995
 11
279.70230399999997
 21
12.009792000000004
  0
LINE
  8
_f-f_
  6
CONTINUOUS
 62
    7
 10
282.59996799999999
 20
14.512320000000003
 11
282.17190399999993
 21
14.512320000000003
  0
LINE
  8
_f-f_
  6
CONTINUOUS
 62
    7
 10
282.17190399999993
 20
14.512320000000003
 11
282.17190399999993
 21
13.502527999999984
  0
LINE
  8
_f-f_
  6
CONTINUOUS
 62
    7
 10
282.17190399999993
 20
13.107392000000061
 11
282.17190399999993
 21
11.35123200000001
  0
LINE
  8
_f-f_
  6
CONTINUOUS
 62
    7
 10
281.11820799999992
 20
13.941568000000032
 11
281.08528000000001
 21
13.941568000000032
  0
LINE
  8
_f-f_
  6
CONTINUOUS
 62
    7
 10
281.08528000000001
 20
13.941568000000032
 11
281.06332799999996
 21
13.897663999999992
  0
LINE
  8
_f-f_
  6
CONTINUOUS
 62
    7
 10
281.06332799999996
 20
13.897663999999992
 11
280.69014399999992
 21
13.897663999999992
  0
LINE
  8
_f-f_
  6
CONTINUOUS
 62
    7
 10
280.33891199999999
 20
12.448831999999982
 11
280.33891199999999
 21
10.78048000000004
  0
LINE
  8
_f-f_
  6
CONTINUOUS
 62
    7
 10
280.69014399999992
 20
12.448831999999982
 11
280.76697599999994
 21
12.404927999999984
  0
LINE
  8
_f-f_
  6
CONTINUOUS
 62
    7
 10
280.76697599999994
 20
12.404927999999984
 11
281.03039999999999
 21
12.229311999999993
  0
LINE
  8
_f-f_
  6
CONTINUOUS
 62
    7
 10
281.03039999999999
 20
12.229311999999993
 11
281.14015999999992
 21
12.141503999999998
  0
LINE
  8
_f-f_
  6
CONTINUOUS
 62
    7
 10
281.14015999999992
 20
12.141503999999998
 11
281.20601599999998
 21
12.0976
  0
LINE
  8
_f-f_
  6
CONTINUOUS
 62
    7
 10
280.723072
 20
14.600128000000012
 11
280.67916799999995
 21
14.556224000000014
  0
LINE
  8
_f-f_
  6
CONTINUOUS
 62
    7
 10
280.67916799999995
 20
14.556224000000014
 11
280.66819199999998
 21
14.512320000000003
  0
LINE
  8
_f-f_
  6
CONTINUOUS
 62
    7
 10
280.66819199999998
 20
14.512320000000003
 11
280.66819199999998
 21
13.941568000000032
  0
LINE
  8
_f-f_
  6
CONTINUOUS
 62
    7
 10
280.66819199999998
 20
13.941568000000032
 11
280.69014399999992
 21
13.897663999999992
  0
LINE
  8
_f-f_
  6
CONTINUOUS
 62
    7
 10
282.59996799999999
 20
14.512320000000003
 11
282.62191999999993
 21
14.468416000000005
  0
LINE
  8
_f-f_
  6
CONTINUOUS
 62
    7
 10
282.62191999999993
 20
14.468416000000005
 11
282.57801599999993
 21
14.424512000000007
  0
LINE
  8
_f-f_
  6
CONTINUOUS
 62
    7
 10
282.57801599999993
 20
14.424512000000007
 11
282.55606399999994
 21
14.380608000000009
  0
LINE
  8
_f-f_
  6
CONTINUOUS
 62
    7
 10
282.55606399999994
 20
14.380608000000009
 11
282.55606399999994
 21
13.502527999999984
  0
LINE
  8
_f-f_
  6
CONTINUOUS
 62
    7
 10
282.55606399999994
 20
13.107392000000061
 11
282.55606399999994
 21
11.35123200000001
  0
LINE
  8
_f-f_
  6
CONTINUOUS
 62
    7
 10
283.5
 20
11
 11
281.16211199999998
 21
11
  0
LINE
  8
_f-f_
  6
CONTINUOUS
 62
    7
 10
281.11820799999992
 20
13.941568000000032
 11
281.33772799999997
 21
13.722048000000001
  0
LINE
  8
_f-f_
  6
CONTINUOUS
 62
    7
 10
281.33772799999997
 20
13.722048000000001
 11
281.29382399999997
 21
13.678143999999975
  0
LINE
  8
_f-f_
  6
CONTINUOUS
 62
    7
 10
281.29382399999997
 20
13.678143999999975
 11
281.22796799999992
 21
13.634240000000005
  0
LINE
  8
_f-f_
  6
CONTINUOUS
 62
    7
 10
281.22796799999992
 20
13.634240000000005
 11
281.16211199999998
 21
13.502527999999984
  0
LINE
  8
_f-f_
  6
CONTINUOUS
 62
    7
 10
281.16211199999998
 20
13.502527999999984
 11
281.12918399999995
 21
13.458624000000043
  0
LINE
  8
_f-f_
  6
CONTINUOUS
 62
    7
 10
281.12918399999995
 20
13.458624000000043
 11
281.08528000000001
 21
13.370815999999991
  0
LINE
  8
_f-f_
  6
CONTINUOUS
 62
    7
 10
281.08528000000001
 20
13.370815999999991
 11
281.05235199999998
 21
13.326912000000021
  0
LINE
  8
_f-f_
  6
CONTINUOUS
 62
    7
 10
281.05235199999998
 20
13.326912000000021
 11
281.03039999999999
 21
13.283008000000024
  0
LINE
  8
_f-f_
  6
CONTINUOUS
 62
    7
 10
281.03039999999999
 20
13.283008000000024
 11
280.93161599999996
 21
13.151296000000031
  0
LINE
  8
_f-f_
  6
CONTINUOUS
 62
    7
 10
280.93161599999996
 20
13.151296000000031
 11
280.90966400000002
 21
13.107392000000061
  0
LINE
  8
_f-f_
  6
CONTINUOUS
 62
    7
 10
280.90966400000002
 20
13.107392000000061
 11
280.74502399999994
 21
12.887871999999987
  0
LINE
  8
_f-f_
  6
CONTINUOUS
 62
    7
 10
280.74502399999994
 20
12.887871999999987
 11
280.70111999999995
 21
12.84396799999999
  0
LINE
  8
_f-f_
  6
CONTINUOUS
 62
    7
 10
280.70111999999995
 20
12.84396799999999
 11
280.66819199999998
 21
12.800064000000049
  0
LINE
  8
_f-f_
  6
CONTINUOUS
 62
    7
 10
280.66819199999998
 20
12.800064000000049
 11
280.75599999999997
 21
12.756160000000023
  0
LINE
  8
_f-f_
  6
CONTINUOUS
 62
    7
 10
280.75599999999997
 20
12.756160000000023
 11
280.87673599999994
 21
12.712256000000025
  0
LINE
  8
_f-f_
  6
CONTINUOUS
 62
    7
 10
280.87673599999994
 20
12.712256000000025
 11
281.07430399999998
 21
12.624447999999973
  0
LINE
  8
_f-f_
  6
CONTINUOUS
 62
    7
 10
281.07430399999998
 20
12.624447999999973
 11
281.16211199999998
 21
12.580544000000003
  0
LINE
  8
_f-f_
  6
CONTINUOUS
 62
    7
 10
281.16211199999998
 20
12.580544000000003
 11
281.31577599999991
 21
12.492735999999979
  0
LINE
  8
_f-f_
  6
CONTINUOUS
 62
    7
 10
281.31577599999991
 20
12.492735999999979
 11
281.38163199999997
 21
12.448831999999982
  0
LINE
  8
_f-f_
  6
CONTINUOUS
 62
    7
 10
281.38163199999997
 20
12.448831999999982
 11
281.40358399999991
 21
12.404927999999984
  0
LINE
  8
_f-f_
  6
CONTINUOUS
 62
    7
 10
281.40358399999991
 20
12.404927999999984
 11
281.24991999999997
 21
12.0976
  0
LINE
  8
_f-f_
  6
CONTINUOUS
 62
    7
 10
281.24991999999997
 20
12.0976
 11
281.20601599999998
 21
12.0976
  0
LINE
  8
_f-f_
  6
CONTINUOUS
 62
    7
 10
280.33891199999999
 20
12.448831999999982
 11
280.31695999999999
 21
12.448831999999982
  0
LINE
  8
_f-f_
  6
CONTINUOUS
 62
    7
 10
280.31695999999999
 20
12.448831999999982
 11
280.27305599999988
 21
12.404927999999984
  0
LINE
  8
_f-f_
  6
CONTINUOUS
 62
    7
 10
280.27305599999988
 20
12.404927999999984
 11
280.05353599999995
 21
12.229311999999993
  0
LINE
  8
_f-f_
  6
CONTINUOUS
 62
    7
 10
280.05353599999995
 20
12.229311999999993
 11
279.98767999999995
 21
12.185407999999995
  0
LINE
  8
_f-f_
  6
CONTINUOUS
 62
    7
 10
279.98767999999995
 20
12.185407999999995
 11
279.93279999999993
 21
12.141503999999998
  0
LINE
  8
_f-f_
  6
CONTINUOUS
 62
    7
 10
279.93279999999993
 20
12.141503999999998
 11
279.80108799999994
 21
12.053696000000031
  0
LINE
  8
_f-f_
  6
CONTINUOUS
 62
    7
 10
279.80108799999994
 20
12.053696000000031
 11
279.72425599999997
 21
12.009792000000004
  0
LINE
  8
_f-f_
  6
CONTINUOUS
 62
    7
 10
279.72425599999997
 20
12.009792000000004
 11
279.70230399999997
 21
12.009792000000004
  0
LINE
  8
_f-f_
  6
CONTINUOUS
 62
    7
 10
280.69014399999992
 20
12.448831999999982
 11
280.66819199999998
 21
12.448831999999982
  0
LINE
  8
_f-f_
  6
CONTINUOUS
 62
    7
 10
280.66819199999998
 20
12.448831999999982
 11
280.66819199999998
 21
10.78048000000004
  0
LINE
  8
_f-f_
  6
CONTINUOUS
 62
    7
 10
280.66819199999998
 20
10.78048000000004
 11
280.33891199999999
 21
10.78048000000004
  0
LINE
  8
_f-f_
  6
CONTINUOUS
 62
    7
 10
261.69803650015848
 20
10.818143377298185
 11
261.46786978015854
 21
11.320637828498263
  0
ARC
  8
_f-f_
  6
CONTINUOUS
 62
    7
 10
261.14397350815852
 20
13.801814490098195
 40
2.5022283551999998
 50
277.43740700000006
 51
318.25330200000008
  0
LINE
  8
_f-f_
  6
CONTINUOUS
 62
    7
 10
259.91794882015853
 20
11.278091559698225
 11
259.38451522015851
 21
10.85915849409821
  0
ARC
  8
_f-f_
  6
CONTINUOUS
 62
    7
 10
248.43833509135854
 20
2.5524020556982236
 40
13.741217431199997
 50
37.193868000000002
 51
44.067300000000003
  0
ARC
  8
_f-f_
  6
CONTINUOUS
 62
    7
 10
251.63328789295852
 20
5.1972563964982612
 40
9.6114510576000001
 50
45.985430000000001
 51
52.858862000000002
  0
LINE
  8
_f-f_
  6
CONTINUOUS
 62
    7
 10
257.43649474015854
 20
12.859030695698209
 11
257.84546050015854
 21
13.256932647698193
  0
ARC
  8
_f-f_
  6
CONTINUOUS
 62
    7
 10
259.60822146655852
 20
14.802502172498251
 40
1.5138771480000004
 50
335.50113199999998
 51
353.79681699999998
  0
ARC
  8
_f-f_
  6
CONTINUOUS
 62
    7
 10
255.5557247609585
 20
17.049016618898278
 40
6.1438791120000014
 50
318.37204700000001
 51
332.10656799999998
  0
ARC
  8
_f-f_
  6
CONTINUOUS
 62
    7
 10
253.24143214255852
 20
15.569703169298236
 40
3.3701116512000007
 50
327.63748900000002
 51
343.65418099999999
  0
ARC
  8
_f-f_
  6
CONTINUOUS
 62
    7
 10
253.40907764575854
 20
15.622958446898267
 40
3.2597962655999995
 50
295.64126099999999
 51
325.26891000000001
  0
LINE
  8
_f-f_
  6
CONTINUOUS
 62
    7
 10
254.81970658015848
 20
12.68418301569821
 11
254.54706274015854
 21
13.113498279698177
  0
LINE
  8
_f-f_
  6
CONTINUOUS
 62
    7
 10
253.63923778015851
 20
15.293364807698225
 11
253.08308386015847
 21
15.228364935698238
  0
LINE
  8
_f-f_
  6
CONTINUOUS
 62
    7
 10
253.74691234015856
 20
10.796371383698215
 11
254.30800546015854
 21
10.877532318098247
  0
LINE
  8
_f-f_
  6
CONTINUOUS
 62
    7
 10
251.82161218015855
 20
14.621238471698234
 11
251.82161218015855
 21
14.055798855698214
  0
LINE
  8
_f-f_
  6
CONTINUOUS
 62
    7
 10
265.43503522015851
 20
13.13197088769823
 11
265.43799874015849
 21
13.697410503698194
  0
LINE
  8
_f-f_
  6
CONTINUOUS
 62
    7
 10
265.43799874015849
 20
13.697410503698194
 11
261.28709506015849
 21
13.697410503698194
  0
LINE
  8
_f-f_
  6
CONTINUOUS
 62
    7
 10
261.28709506015849
 20
13.697410503698194
 11
261.28709506015849
 21
13.13197088769823
  0
LINE
  8
_f-f_
  6
CONTINUOUS
 62
    7
 10
261.62197282015848
 20
14.929049415698273
 11
261.62197282015848
 21
14.363609799698224
  0
LINE
  8
_f-f_
  6
CONTINUOUS
 62
    7
 10
261.62197282015848
 20
14.363609799698224
 11
264.40866946015854
 21
14.363609799698224
  0
LINE
  8
_f-f_
  6
CONTINUOUS
 62
    7
 10
261.11323522015851
 20
14.63892080769827
 11
256.72228642015853
 21
14.63892080769827
  0
LINE
  8
_f-f_
  6
CONTINUOUS
 62
    7
 10
256.72228642015853
 20
14.63892080769827
 11
256.72228642015853
 21
14.073678759698211
  0
LINE
  8
_f-f_
  6
CONTINUOUS
 62
    7
 10
248.28712066015856
 20
15.250196199698237
 11
247.73096674015852
 21
15.185295111698224
  0
LINE
  8
_f-f_
  6
CONTINUOUS
 62
    7
 10
248.17648258015853
 20
10.813381988498236
 11
248.73757570015857
 21
10.894552801298175
  0
LINE
  8
_f-f_
  6
CONTINUOUS
 62
    7
 10
240.27079906015857
 20
13.902288519698203
 11
240.87041794015852
 21
13.944370503698195
  0
ARC
  8
_f-f_
  6
CONTINUOUS
 62
    7
 10
236.74753516495866
 20
13.76305823409821
 40
4.1268670632000006
 50
321.70218699999998
 51
2.5180820000000264
  0
ARC
  8
_f-f_
  6
CONTINUOUS
 62
    7
 10
238.33115299375856
 20
13.078716433298212
 40
2.4997389984000002
 50
293.16671400000001
 51
311.462399
  0
LINE
  8
_f-f_
  6
CONTINUOUS
 62
    7
 10
239.31456994015855
 20
10.780546186898221
 11
238.93326370015848
 21
11.179910142098237
  0
ARC
  8
_f-f_
  6
CONTINUOUS
 62
    7
 10
237.93835982095854
 20
13.317551449298207
 40
2.3578267271999995
 50
294.95826699999998
 51
355.396568
  0
ARC
  8
_f-f_
  6
CONTINUOUS
 62
    7
 10
236.41950066655863
 20
13.426618863698252
 40
3.8805615072000004
 50
355.59126199999997
 51
7.040883000000008
  0
LINE
  8
_f-f_
  6
CONTINUOUS
 62
    7
 10
250.53149314015846
 20
12.585794151698195
 11
250.53346882015853
 21
13.151233767698216
  0
LINE
  8
_f-f_
  6
CONTINUOUS
 62
    7
 10
246.08917666015856
 20
13.151233767698216
 11
246.08917666015856
 21
12.585794151698195
  0
LINE
  8
_f-f_
  6
CONTINUOUS
 62
    7
 10
250.33491298015849
 20
14.089879335698242
 11
250.33787650015853
 21
14.65531895169822
  0
LINE
  8
_f-f_
  6
CONTINUOUS
 62
    7
 10
246.3025501001585
 20
14.65531895169822
 11
246.3025501001585
 21
14.089879335698242
  0
LINE
  8
_f-f_
  6
CONTINUOUS
 62
    7
 10
245.69107714015851
 20
12.768050631698202
 11
245.69305282015858
 21
13.333292679698218
  0
LINE
  8
_f-f_
  6
CONTINUOUS
 62
    7
 10
245.69305282015858
 20
13.333292679698218
 11
242.56061218015859
 21
13.333292679698218
  0
LINE
  8
_f-f_
  6
CONTINUOUS
 62
    7
 10
242.56061218015859
 20
13.333292679698218
 11
242.56061218015859
 21
12.768050631698202
  0
LINE
  8
_f-f_
  6
CONTINUOUS
 62
    7
 10
242.56061218015859
 20
12.768050631698202
 11
245.69107714015851
 21
12.768050631698202
  0
LINE
  8
_f-f_
  6
CONTINUOUS
 62
    7
 10
242.94685762015857
 20
15.086511111698243
 11
238.61320354015854
 21
15.086511111698243
  0
LINE
  8
_f-f_
  6
CONTINUOUS
 62
    7
 10
238.61320354015854
 20
15.086511111698243
 11
238.61320354015854
 21
14.526603399698274
  0
LINE
  8
_f-f_
  6
CONTINUOUS
 62
    7
 10
241.43249890015855
 20
12.940725063698153
 11
241.04921698015858
 21
13.386537255698215
  0
LINE
  8
_f-f_
  6
CONTINUOUS
 62
    7
 10
264.40866946015854
 20
14.363609799698224
 11
264.41163298015852
 21
14.929049415698273
  0
LINE
  8
_f-f_
  6
CONTINUOUS
 62
    7
 10
264.41163298015852
 20
14.929049415698273
 11
261.62197282015848
 21
14.929049415698273
  0
LINE
  8
_f-f_
  6
CONTINUOUS
 62
    7
 10
264.76923106015852
 20
15.129383367698281
 11
264.76923106015852
 21
14.298116007698198
  0
LINE
  8
_f-f_
  6
CONTINUOUS
 62
    7
 10
264.76923106015852
 20
14.298116007698198
 11
265.18906306015845
 21
14.298116007698198
  0
LINE
  8
_f-f_
  6
CONTINUOUS
 62
    7
 10
265.18906306015845
 20
14.298116007698198
 11
265.18906306015845
 21
15.129383367698281
  0
LINE
  8
_f-f_
  6
CONTINUOUS
 62
    7
 10
265.18906306015845
 20
15.129383367698281
 11
264.76923106015852
 21
15.129383367698281
  0
LINE
  8
_f-f_
  6
CONTINUOUS
 62
    7
 10
265.35403234015854
 20
15.129383367698281
 11
265.35403234015854
 21
14.298116007698198
  0
LINE
  8
_f-f_
  6
CONTINUOUS
 62
    7
 10
265.35403234015854
 20
14.298116007698198
 11
265.77386434015853
 21
14.298116007698198
  0
LINE
  8
_f-f_
  6
CONTINUOUS
 62
    7
 10
265.77386434015853
 20
14.298116007698198
 11
265.77386434015853
 21
15.129383367698281
  0
LINE
  8
_f-f_
  6
CONTINUOUS
 62
    7
 10
265.77386434015853
 20
15.129383367698281
 11
265.35403234015854
 21
15.129383367698281
  0
ARC
  8
_f-f_
  6
CONTINUOUS
 62
    7
 10
240.40335977935854
 20
15.112665822098251
 40
1.8430007399999995
 50
290.51408900000007
 51
341.45836900000006
  0
ARC
  8
_f-f_
  6
CONTINUOUS
 62
    7
 10
240.32372670415859
 20
15.330920014898268
 40
2.6348450520000002
 50
294.88580100000001
 51
354.697475
  0
LINE
  8
_f-f_
  6
CONTINUOUS
 62
    7
 10
250.33787650015853
 20
14.65531895169822
 11
248.34864168895854
 21
14.65531895169822
  0
LINE
  8
_f-f_
  6
CONTINUOUS
 62
    7
 10
247.78497359935855
 20
14.65531895169822
 11
246.3025501001585
 21
14.65531895169822
  0
LINE
  8
_f-f_
  6
CONTINUOUS
 62
    7
 10
246.3025501001585
 20
14.089879335698242
 11
247.84259348335851
 21
14.089879335698242
  0
LINE
  8
_f-f_
  6
CONTINUOUS
 62
    7
 10
248.40711852415853
 20
14.089879335698242
 11
250.33491298015849
 21
14.089879335698242
  0
LINE
  8
_f-f_
  6
CONTINUOUS
 62
    7
 10
250.53346882015853
 20
13.151233767698216
 11
248.50419273775856
 21
13.151233767698216
  0
LINE
  8
_f-f_
  6
CONTINUOUS
 62
    7
 10
247.93824603055856
 20
13.151233767698216
 11
246.08917666015856
 21
13.151233767698216
  0
LINE
  8
_f-f_
  6
CONTINUOUS
 62
    7
 10
246.08917666015856
 20
12.585794151698195
 11
247.99586591455852
 21
12.585794151698195
  0
LINE
  8
_f-f_
  6
CONTINUOUS
 62
    7
 10
248.5626695729585
 20
12.585794151698195
 11
250.53149314015846
 21
12.585794151698195
  0
LINE
  8
_f-f_
  6
CONTINUOUS
 62
    7
 10
248.34864168895854
 20
14.65531895169822
 11
248.28712066015856
 21
15.250196199698237
  0
LINE
  8
_f-f_
  6
CONTINUOUS
 62
    7
 10
247.73096674015852
 20
15.185295111698224
 11
247.78497359935855
 21
14.65531895169822
  0
LINE
  8
_f-f_
  6
CONTINUOUS
 62
    7
 10
247.84259348335851
 20
14.089879335698242
 11
247.93824603055856
 21
13.151233767698216
  0
LINE
  8
_f-f_
  6
CONTINUOUS
 62
    7
 10
247.99586591455852
 20
12.585794151698195
 11
248.17648258015853
 21
10.813381988498236
  0
LINE
  8
_f-f_
  6
CONTINUOUS
 62
    7
 10
248.73757570015857
 20
10.894552801298175
 11
248.5626695729585
 21
12.585794151698195
  0
LINE
  8
_f-f_
  6
CONTINUOUS
 62
    7
 10
248.50419273775856
 20
13.151233767698216
 11
248.40711852415853
 21
14.089879335698242
  0
LINE
  8
_f-f_
  6
CONTINUOUS
 62
    7
 10
256.47532642015847
 20
14.621238471698234
 11
253.74102975295853
 21
14.621238471698234
  0
LINE
  8
_f-f_
  6
CONTINUOUS
 62
    7
 10
253.1740194713586
 20
14.621238471698234
 11
251.82161218015855
 21
14.621238471698234
  0
LINE
  8
_f-f_
  6
CONTINUOUS
 62
    7
 10
251.82161218015855
 20
14.055798855698214
 11
253.25871193375849
 21
14.055798855698214
  0
LINE
  8
_f-f_
  6
CONTINUOUS
 62
    7
 10
253.08308386015847
 20
15.228364935698238
 11
253.1740194713586
 21
14.621238471698234
  0
LINE
  8
_f-f_
  6
CONTINUOUS
 62
    7
 10
253.25871193375849
 20
14.055798855698214
 11
253.74691234015856
 21
10.796371383698215
  0
LINE
  8
_f-f_
  6
CONTINUOUS
 62
    7
 10
254.30800546015854
 20
10.877532318098247
 11
253.82666395615848
 21
14.055798855698214
  0
LINE
  8
_f-f_
  6
CONTINUOUS
 62
    7
 10
253.74102975295853
 20
14.621238471698234
 11
253.63923778015851
 21
15.293364807698225
  0
ARC
  8
_f-f_
  6
CONTINUOUS
 62
    7
 10
253.30606651375854
 20
15.707678898098237
 40
2.8757339520000005
 50
295.56537500000002
 51
324.94094800000005
  0
LINE
  8
_f-f_
  6
CONTINUOUS
 62
    7
 10
253.82666395615848
 20
14.055798855698214
 11
255.66727330015857
 21
14.055798855698214
  0
ARC
  8
_f-f_
  6
CONTINUOUS
 62
    7
 10
255.50034562735851
 20
17.562717291698277
 40
6.535748654399999
 50
304.14080200000001
 51
315.32696499999997
  0
ARC
  8
_f-f_
  6
CONTINUOUS
 62
    7
 10
251.77672308415856
 20
5.0645516172982639
 40
10.241466597600002
 50
37.351568999999991
 51
43.801712000000002
  0
ARC
  8
_f-f_
  6
CONTINUOUS
 62
    7
 10
251.93372790415847
 20
4.8052798380982154
 40
10.3140201528
 50
48.700563000000002
 51
55.028115999999997
  0
ARC
  8
_f-f_
  6
CONTINUOUS
 62
    7
 10
257.08223226655855
 20
15.662920690898247
 40
3.5238129696000002
 50
298.08031299999999
 51
333.19209899999998
  0
LINE
  8
_f-f_
  6
CONTINUOUS
 62
    7
 10
256.72228642015853
 20
14.073678759698211
 11
260.22731890495857
 21
14.073678759698211
  0
ARC
  8
_f-f_
  6
CONTINUOUS
 62
    7
 10
261.53521000975854
 20
13.090698932498213
 40
2.2783813415999994
 50
274.09817199999998
 51
1.0379469999999982
  0
ARC
  8
_f-f_
  6
CONTINUOUS
 62
    7
 10
261.63552269215853
 20
12.913413757298173
 40
1.5799941024000002
 50
330.51444500000002
 51
7.9510959999999775
  0
LINE
  8
_f-f_
  6
CONTINUOUS
 62
    7
 10
261.28709506015849
 20
13.13197088769823
 11
263.20032710815855
 21
13.13197088769823
  0
LINE
  8
_f-f_
  6
CONTINUOUS
 62
    7
 10
263.8132176185585
 20
13.13197088769823
 11
265.43503522015851
 21
13.13197088769823
  0
LINE
  8
_f-f_
  6
CONTINUOUS
 62
    7
 10
238.61320354015854
 20
14.526603399698274
 11
242.15069562415852
 21
14.526603399698274
  0
LINE
  8
_f-f_
  6
CONTINUOUS
 62
    7
 10
269.23119999999994
 20
13.941568000000032
 11
270.02147199999996
 21
13.941568000000032
  0
LINE
  8
_f-f_
  6
CONTINUOUS
 62
    7
 10
269.23119999999994
 20
13.546432000000038
 11
270.02147199999996
 21
13.546432000000038
  0
LINE
  8
_f-f_
  6
CONTINUOUS
 62
    7
 10
270.02147199999996
 20
13.941568000000032
 11
270.02147199999996
 21
13.546432000000038
  0
LINE
  8
_f-f_
  6
CONTINUOUS
 62
    7
 10
267.06892800000003
 20
13.853760000000037
 11
266.48719999999992
 21
13.853760000000037
  0
LINE
  8
_f-f_
  6
CONTINUOUS
 62
    7
 10
266.48719999999992
 20
13.853760000000037
 11
266.48719999999992
 21
13.458624000000043
  0
LINE
  8
_f-f_
  6
CONTINUOUS
 62
    7
 10
267.04697599999997
 20
13.458624000000043
 11
266.48719999999992
 21
13.458624000000043
  0
LINE
  8
_f-f_
  6
CONTINUOUS
 62
    7
 10
267.38723200000004
 20
13.853760000000037
 11
267.87017599999996
 21
13.853760000000037
  0
LINE
  8
_f-f_
  6
CONTINUOUS
 62
    7
 10
267.87017599999996
 20
13.853760000000037
 11
267.87017599999996
 21
13.458624000000043
  0
LINE
  8
_f-f_
  6
CONTINUOUS
 62
    7
 10
267.38723200000004
 20
13.458624000000043
 11
267.87017599999996
 21
13.458624000000043
  0
LINE
  8
_f-f_
  6
CONTINUOUS
 62
    7
 10
268.9019199999999
 20
13.019583999999952
 11
267.89212799999996
 21
13.019583999999952
  0
LINE
  8
_f-f_
  6
CONTINUOUS
 62
    7
 10
267.89212799999996
 20
13.019583999999952
 11
267.89212799999996
 21
12.624447999999973
  0
LINE
  8
_f-f_
  6
CONTINUOUS
 62
    7
 10
268.87996799999996
 20
12.624447999999973
 11
267.89212799999996
 21
12.624447999999973
  0
LINE
  8
_f-f_
  6
CONTINUOUS
 62
    7
 10
269.23119999999994
 20
13.019583999999952
 11
270.306848
 21
13.019583999999952
  0
LINE
  8
_f-f_
  6
CONTINUOUS
 62
    7
 10
270.306848
 20
13.019583999999952
 11
270.306848
 21
12.624447999999973
  0
LINE
  8
_f-f_
  6
CONTINUOUS
 62
    7
 10
269.26412799999991
 20
12.624447999999973
 11
270.306848
 21
12.624447999999973
  0
LINE
  8
_f-f_
  6
CONTINUOUS
 62
    7
 10
273.07279999999992
 20
13.853760000000037
 11
270.97638399999994
 21
13.853760000000037
  0
LINE
  8
_f-f_
  6
CONTINUOUS
 62
    7
 10
270.97638399999994
 20
13.853760000000037
 11
270.97638399999994
 21
13.458624000000043
  0
LINE
  8
_f-f_
  6
CONTINUOUS
 62
    7
 10
273.083776
 20
13.458624000000043
 11
270.97638399999994
 21
13.458624000000043
  0
LINE
  8
_f-f_
  6
CONTINUOUS
 62
    7
 10
273.44598400000001
 20
13.853760000000037
 11
274.64236799999992
 21
13.853760000000037
  0
LINE
  8
_f-f_
  6
CONTINUOUS
 62
    7
 10
274.64236799999992
 20
13.853760000000037
 11
274.64236799999992
 21
13.458624000000043
  0
LINE
  8
_f-f_
  6
CONTINUOUS
 62
    7
 10
273.44598400000001
 20
13.458624000000043
 11
274.64236799999992
 21
13.458624000000043
  0
LINE
  8
_f-f_
  6
CONTINUOUS
 62
    7
 10
272.16179199999999
 20
12.536639999999977
 11
272.16179199999999
 21
12.522973737441333
  0
LINE
  8
_f-f_
  6
CONTINUOUS
 62
    7
 10
272.16179199999999
 20
12.522973737441333
 11
272.16179199999999
 21
11.658559999999994
  0
LINE
  8
_f-f_
  6
CONTINUOUS
 62
    7
 10
271.15199999999993
 20
12.84396799999999
 11
271.15199999999993
 21
12.536639999999977
  0
LINE
  8
_f-f_
  6
CONTINUOUS
 62
    7
 10
271.83251199999995
 20
12.536639999999977
 11
271.15199999999993
 21
12.536639999999977
  0
LINE
  8
_f-f_
  6
CONTINUOUS
 62
    7
 10
272.16179199999999
 20
12.522973737441333
 11
272.83132799999998
 21
12.522973737441333
  0
LINE
  8
_f-f_
  6
CONTINUOUS
 62
    7
 10
272.83132799999998
 20
12.84396799999999
 11
272.83132799999998
 21
12.522973737441333
  0
LINE
  8
_f-f_
  6
CONTINUOUS
 62
    7
 10
277.05708800000002
 20
12.141503999999998
 11
278.9339839999999
 21
12.141503999999998
  0
LINE
  8
_f-f_
  6
CONTINUOUS
 62
    7
 10
278.9339839999999
 20
12.536639999999977
 11
278.9339839999999
 21
12.141503999999998
  0
LINE
  8
_f-f_
  6
CONTINUOUS
 62
    7
 10
276.66195199999999
 20
12.141503999999998
 11
275.43263999999999
 21
12.141503999999998
  0
LINE
  8
_f-f_
  6
CONTINUOUS
 62
    7
 10
275.43263999999999
 20
12.536639999999977
 11
275.43263999999999
 21
12.141503999999998
  0
LINE
  8
_f-f_
  6
CONTINUOUS
 62
    7
 10
280.33891199999999
 20
14.600128000000012
 11
280.33891199999999
 21
13.897663999999992
  0
LINE
  8
_f-f_
  6
CONTINUOUS
 62
    7
 10
280.33891199999999
 20
13.897663999999992
 11
279.70230399999997
 21
13.897663999999992
  0
LINE
  8
_f-f_
  6
CONTINUOUS
 62
    7
 10
279.70230399999997
 20
13.897663999999992
 11
279.70230399999997
 21
13.546432000000038
  0
LINE
  8
_f-f_
  6
CONTINUOUS
 62
    7
 10
280.82185599999991
 20
13.546432000000038
 11
279.70230399999997
 21
13.546432000000038
  0
LINE
  8
_f-f_
  6
CONTINUOUS
 62
    7
 10
282.17190399999993
 20
13.502527999999984
 11
281.43651199999999
 21
13.502527999999984
  0
LINE
  8
_f-f_
  6
CONTINUOUS
 62
    7
 10
281.43651199999999
 20
13.502527999999984
 11
281.43651199999999
 21
13.107392000000061
  0
LINE
  8
_f-f_
  6
CONTINUOUS
 62
    7
 10
282.17190399999993
 20
13.107392000000061
 11
281.43651199999999
 21
13.107392000000061
  0
LINE
  8
_f-f_
  6
CONTINUOUS
 62
    7
 10
282.55606399999994
 20
13.107392000000061
 11
283.34633599999995
 21
13.107392000000061
  0
LINE
  8
_f-f_
  6
CONTINUOUS
 62
    7
 10
283.34633599999995
 20
13.502527999999984
 11
283.34633599999995
 21
13.107392000000061
  0
LINE
  8
_f-f_
  6
CONTINUOUS
 62
    7
 10
282.55606399999994
 20
13.502527999999984
 11
283.34633599999995
 21
13.502527999999984
  0
LINE
  8
_f-f_
  6
CONTINUOUS
 62
    7
 10
283.5
 20
11.35123200000001
 11
283.5
 21
11
  0
LINE
  8
_f-f_
  6
CONTINUOUS
 62
    7
 10
282.55606399999994
 20
11.35123200000001
 11
283.5
 21
11.35123200000001
  0
LINE
  8
_f-f_
  6
CONTINUOUS
 62
    7
 10
281.16211199999998
 20
11.35123200000001
 11
281.16211199999998
 21
11
  0
LINE
  8
_f-f_
  6
CONTINUOUS
 62
    7
 10
282.17190399999993
 20
11.35123200000001
 11
281.16211199999998
 21
11.35123200000001
  0
LINE
  8
_f-f_
  6
CONTINUOUS
 62
    7
 10
233.5
 20
17
 11
233.5
 21
27
  0
LINE
  8
_f-f_
  6
CONTINUOUS
 62
    7
 10
183.5
 20
17
 11
183.5
 21
27
  0
LINE
  8
_f-f_
  6
CONTINUOUS
 62
    7
 10
253.5
 20
17
 11
253.5
 21
27
  0
TEXT
  8
_e-e_
 62
    7
 10
165.5
 20
20
 40
4
 41
1
 50
0
  1
図面名称
  0
TEXT
  8
_e-e_
 62
    7
 10
237.5
 20
20
 40
4
 41
1
 50
0
  1
作成日
  0
LINE
  8
_f-f_
  6
CONTINUOUS
 62
    7
 10
163.5
 20
17
 11
163.5
 21
27
  0
LINE
  8
_f-f_
  6
CONTINUOUS
 62
    7
 10
283.5
 20
27
 11
188.61822686063675
 21
27
  0
LINE
  8
_f-f_
  6
CONTINUOUS
 62
    7
 10
188.61822686063675
 20
27
 11
163.5
 21
27
  0
LINE
  8
_f-f_
  6
CONTINUOUS
 62
    7
 10
248.5
 20
197
 11
248.5
 21
187
  0
TEXT
  8
_e-e_
 62
    7
 10
237
 20
190
 40
4
 41
1
 50
0
  1
縮尺
  0
LINE
  8
_f-f_
  6
CONTINUOUS
 62
    7
 10
233.5
 20
197
 11
233.5
 21
187
  0
LINE
  8
_f-f_
  6
CONTINUOUS
 62
    7
 10
233.5
 20
187
 11
283.5
 21
187
  0
TEXT
  8
_e-e_
 62
    7
 10
255
 20
190
 40
4
 41
1
 50
0
  1
Ａ４：１/３
  0
TEXT
  8
_e-e_
 62
    7
 10
188.5
 20
17.5
 40
4
 41
1
 50
0
  1
（接着工法）
  0
LINE
  8
_1-a_元図__躯体
  6
CONTINUOUS
 62
    7
 10
149.73845254502328
 20
40.418297265853383
 11
163.60825254502328
 21
54.288097265853374
  0
LINE
  8
_1-a_元図__躯体
  6
CONTINUOUS
 62
    7
 10
113.60825254502326
 20
84.655397265853367
 11
170.27490254502328
 21
141.32209726585336
  0
LINE
  8
_1-a_元図__躯体
  6
CONTINUOUS
 62
    7
 10
113.60825254502326
 20
167.76559726585333
 11
113.60825254502326
 21
40.418297265853383
  0
LINE
  8
_1-a_元図__躯体
  6
CONTINUOUS
 62
    7
 10
170.27490254502328
 20
167.76559726585333
 11
170.27490254502328
 21
128.15519726585336
  0
LINE
  8
_1-a_元図__躯体
  6
CONTINUOUS
 62
    7
 10
170.27490254502328
 20
128.15519726585336
 11
163.60825254502328
 21
128.15519726585336
  0
LINE
  8
_1-a_元図__躯体
  6
CONTINUOUS
 62
    7
 10
163.60825254502328
 20
128.15519726585336
 11
163.60825254502328
 21
40.418297265853383
  0
LINE
  8
_1-a_元図__躯体
  6
CONTINUOUS
 62
    7
 10
147.85280254502328
 20
40.418297265853383
 11
163.60825254502328
 21
56.173697265853363
  0
LINE
  8
_1-a_元図__躯体
  6
CONTINUOUS
 62
    7
 10
151.62405254502323
 20
40.418297265853383
 11
163.60825254502328
 21
52.402447265853361
  0
LINE
  8
_1-a_元図__躯体
  6
CONTINUOUS
 62
    7
 10
113.60825254502326
 20
86.541047265853365
 11
170.27490254502328
 21
143.20769726585337
  0
LINE
  8
_1-a_元図__躯体
  6
CONTINUOUS
 62
    7
 10
113.60825254502326
 20
82.769797265853356
 11
170.27490254502328
 21
139.43644726585336
  0
LINE
  8
_1-4_リベットル__フ
  6
CONTINUOUS
 62
    6
 10
164.44155254502323
 20
108.19359726585336
 11
163.94155254502323
 21
108.19359726585336
  0
LINE
  8
_1-4_リベットル__フ
  6
CONTINUOUS
 62
    6
 10
164.44155254502323
 20
108.19359726585336
 11
164.44155254502323
 21
98.180347265853356
  0
LINE
  8
_1-4_リベットル__フ
  6
CONTINUOUS
 62
    6
 10
163.94155254502323
 20
108.19359726585336
 11
163.94155254502323
 21
98.247497265853355
  0
LINE
  8
_1-4_リベットル__フ
  6
CONTINUOUS
 62
    6
 10
163.77490254502322
 20
97.458997265853355
 11
163.77490254502322
 21
40.418297265853354
  0
LINE
  8
_1-4_リベットル__フ
  6
CONTINUOUS
 62
    6
 10
164.27490254502322
 20
97.391847265853357
 11
164.27490254502322
 21
40.418297265853354
  0
LINE
  8
_1-4_リベットル__フ
  6
CONTINUOUS
 62
    6
 10
163.79850254502327
 20
97.634847265853352
 11
163.91795254502324
 21
98.071647265853358
  0
LINE
  8
_1-4_リベットル__フ
  6
CONTINUOUS
 62
    6
 10
164.29850254502327
 20
97.567697265853354
 11
164.41795254502324
 21
98.00449726585336
  0
ARC
  8
_1-4_リベットル__フ
  6
CONTINUOUS
 62
    6
 10
164.94155254502323
 20
97.391847265853357
 40
0.6666499999999999
 50
164.70600000000002
 51
180.00000000000003
  0
ARC
  8
_1-4_リベットル__フ
  6
CONTINUOUS
 62
    6
 10
163.77490254502322
 20
98.180347265853356
 40
0.6666499999999999
 50
344.70600000000007
 51
0.0000000000000826
  0
ARC
  8
_1-4_リベットル__フ
  6
CONTINUOUS
 62
    6
 10
163.27490254502322
 20
98.247497265853355
 40
0.6666499999999999
 50
344.70600000000007
 51
0.0000000000000826
  0
ARC
  8
_1-4_リベットル__フ
  6
CONTINUOUS
 62
    6
 10
164.44155254502323
 20
97.458997265853355
 40
0.6666499999999999
 50
164.70600000000002
 51
180.00000000000003
  0
LINE
  8
_1-b_その他
  6
CONTINUOUS
 62
    5
 10
163.60825254502322
 20
108.19359726585336
 11
163.60825254502322
 21
98.193597265853356
  0
LINE
  8
_1-b_その他
  6
CONTINUOUS
 62
    5
 10
163.78355254502321
 20
108.19359726585336
 11
163.94155254502323
 21
108.03559726585335
  0
LINE
  8
_1-b_その他
  6
CONTINUOUS
 62
    5
 10
163.60825254502322
 20
108.07429726585335
 11
163.94155254502323
 21
107.74094726585335
  0
LINE
  8
_1-b_その他
  6
CONTINUOUS
 62
    5
 10
163.60825254502322
 20
107.77964726585336
 11
163.94155254502323
 21
107.44634726585335
  0
LINE
  8
_1-b_その他
  6
CONTINUOUS
 62
    5
 10
163.60825254502322
 20
107.48504726585335
 11
163.94155254502323
 21
107.15169726585336
  0
LINE
  8
_1-b_その他
  6
CONTINUOUS
 62
    5
 10
163.60825254502322
 20
107.19039726585335
 11
163.94155254502323
 21
106.85709726585335
  0
LINE
  8
_1-b_その他
  6
CONTINUOUS
 62
    5
 10
163.60825254502322
 20
106.89579726585336
 11
163.94155254502323
 21
106.56244726585335
  0
LINE
  8
_1-b_その他
  6
CONTINUOUS
 62
    5
 10
163.60825254502322
 20
106.60114726585336
 11
163.94155254502323
 21
106.26779726585335
  0
LINE
  8
_1-b_その他
  6
CONTINUOUS
 62
    5
 10
163.60825254502322
 20
106.30654726585335
 11
163.94155254502323
 21
105.97319726585336
  0
LINE
  8
_1-b_その他
  6
CONTINUOUS
 62
    5
 10
163.60825254502322
 20
106.01189726585335
 11
163.94155254502323
 21
105.67854726585335
  0
LINE
  8
_1-b_その他
  6
CONTINUOUS
 62
    5
 10
163.60825254502322
 20
105.71724726585336
 11
163.94155254502323
 21
105.38394726585335
  0
LINE
  8
_1-b_その他
  6
CONTINUOUS
 62
    5
 10
163.60825254502322
 20
105.42264726585336
 11
163.94155254502323
 21
105.08929726585336
  0
LINE
  8
_1-b_その他
  6
CONTINUOUS
 62
    5
 10
163.60825254502322
 20
105.12799726585335
 11
163.94155254502323
 21
104.79469726585336
  0
LINE
  8
_1-b_その他
  6
CONTINUOUS
 62
    5
 10
163.60825254502322
 20
104.83339726585335
 11
163.94155254502323
 21
104.50004726585335
  0
LINE
  8
_1-b_その他
  6
CONTINUOUS
 62
    5
 10
163.60825254502322
 20
104.53874726585336
 11
163.94155254502323
 21
104.20544726585335
  0
LINE
  8
_1-b_その他
  6
CONTINUOUS
 62
    5
 10
163.60825254502322
 20
104.24414726585336
 11
163.94155254502323
 21
103.91079726585335
  0
LINE
  8
_1-b_その他
  6
CONTINUOUS
 62
    5
 10
163.60825254502322
 20
103.94949726585335
 11
163.94155254502323
 21
103.61614726585336
  0
LINE
  8
_1-b_その他
  6
CONTINUOUS
 62
    5
 10
163.60825254502322
 20
103.65489726585335
 11
163.94155254502323
 21
103.32154726585335
  0
LINE
  8
_1-b_その他
  6
CONTINUOUS
 62
    5
 10
163.60825254502322
 20
103.36024726585336
 11
163.94155254502323
 21
103.02689726585335
  0
LINE
  8
_1-b_その他
  6
CONTINUOUS
 62
    5
 10
163.60825254502322
 20
103.06559726585336
 11
163.94155254502323
 21
102.73229726585336
  0
LINE
  8
_1-b_その他
  6
CONTINUOUS
 62
    5
 10
163.60825254502322
 20
102.77099726585335
 11
163.94155254502323
 21
102.43764726585336
  0
LINE
  8
_1-b_その他
  6
CONTINUOUS
 62
    5
 10
163.60825254502322
 20
102.47634726585335
 11
163.94155254502323
 21
102.14304726585335
  0
LINE
  8
_1-b_その他
  6
CONTINUOUS
 62
    5
 10
163.60825254502322
 20
102.18174726585335
 11
163.94155254502323
 21
101.84839726585335
  0
LINE
  8
_1-b_その他
  6
CONTINUOUS
 62
    5
 10
163.60825254502322
 20
101.88709726585336
 11
163.94155254502323
 21
101.55379726585335
  0
LINE
  8
_1-b_その他
  6
CONTINUOUS
 62
    5
 10
163.60825254502322
 20
101.59249726585335
 11
163.94155254502323
 21
101.25914726585336
  0
LINE
  8
_1-b_その他
  6
CONTINUOUS
 62
    5
 10
163.60825254502322
 20
101.29784726585335
 11
163.94155254502323
 21
100.96449726585335
  0
LINE
  8
_1-b_その他
  6
CONTINUOUS
 62
    5
 10
163.60825254502322
 20
101.00324726585336
 11
163.94155254502323
 21
100.66989726585335
  0
LINE
  8
_1-b_その他
  6
CONTINUOUS
 62
    5
 10
163.60825254502322
 20
100.70859726585336
 11
163.94155254502323
 21
100.37524726585335
  0
LINE
  8
_1-b_その他
  6
CONTINUOUS
 62
    5
 10
163.60825254502322
 20
100.41394726585335
 11
163.94155254502323
 21
100.08064726585336
  0
LINE
  8
_1-b_その他
  6
CONTINUOUS
 62
    5
 10
163.60825254502322
 20
100.11934726585335
 11
163.94155254502323
 21
99.785997265853354
  0
LINE
  8
_1-b_その他
  6
CONTINUOUS
 62
    5
 10
163.60825254502322
 20
99.824697265853359
 11
163.94155254502323
 21
99.491397265853351
  0
LINE
  8
_1-b_その他
  6
CONTINUOUS
 62
    5
 10
163.60825254502322
 20
99.530097265853357
 11
163.94155254502323
 21
99.196747265853361
  0
LINE
  8
_1-b_その他
  6
CONTINUOUS
 62
    5
 10
163.60825254502322
 20
99.235447265853352
 11
163.94155254502323
 21
98.902147265853358
  0
LINE
  8
_1-b_その他
  6
CONTINUOUS
 62
    5
 10
163.60825254502322
 20
98.940847265853364
 11
163.94155254502323
 21
98.607497265853354
  0
LINE
  8
_1-b_その他
  6
CONTINUOUS
 62
    5
 10
163.60825254502322
 20
98.646197265853345
 11
163.94155254502323
 21
98.31284726585335
  0
LINE
  8
_1-b_その他
  6
CONTINUOUS
 62
    5
 10
163.60825254502322
 20
98.351597265853357
 11
163.76625254502324
 21
98.193597265853356
  0
LINE
  8
_1-b_その他
  6
CONTINUOUS
 62
    5
 10
163.60825254502322
 20
108.19359726585336
 11
163.60825254502322
 21
98.193597265853356
  0
LINE
  8
_1-b_その他
  6
CONTINUOUS
 62
    5
 10
163.60825254502322
 20
98.193597265853356
 11
163.94155254502323
 21
98.193597265853356
  0
LINE
  8
_1-b_その他
  6
CONTINUOUS
 62
    5
 10
163.94155254502323
 20
98.193597265853356
 11
163.94155254502323
 21
108.19359726585336
  0
LINE
  8
_1-b_その他
  6
CONTINUOUS
 62
    5
 10
163.94155254502323
 20
108.19359726585336
 11
163.60825254502322
 21
108.19359726585336
  0
LINE
  8
_1-2_ハッチング
  6
CONTINUOUS
 62
    4
 10
165.79610254502325
 20
108.76459726585335
 11
166.38570254502321
 21
109.35419726585334
  0
LINE
  8
_1-2_ハッチング
  6
CONTINUOUS
 62
    4
 10
165.11360254502324
 20
109.26064726585335
 11
166.35190254502322
 21
110.49889726585334
  0
LINE
  8
_1-2_ハッチング
  6
CONTINUOUS
 62
    4
 10
164.43115254502322
 20
109.75664726585335
 11
166.07225254502322
 21
111.39774726585335
  0
LINE
  8
_1-2_ハッチング
  6
CONTINUOUS
 62
    4
 10
164.34390254502324
 20
110.84794726585335
 11
165.59115254502325
 21
112.09519726585336
  0
LINE
  8
_1-2_ハッチング
  6
CONTINUOUS
 62
    4
 10
163.60825254502322
 20
111.29079726585334
 11
165.06040254502324
 21
112.74294726585335
  0
LINE
  8
_1-2_ハッチング
  6
CONTINUOUS
 62
    4
 10
163.60825254502322
 20
112.46929726585336
 11
164.35740254502321
 21
113.21844726585334
  0
LINE
  8
_1-2_ハッチング
  6
CONTINUOUS
 62
    4
 10
164.47280254502323
 20
123.15519726585335
 11
163.60825254502322
 21
124.01979726585336
  0
LINE
  8
_1-2_ハッチング
  6
CONTINUOUS
 62
    4
 10
165.35670254502321
 20
123.15519726585335
 11
163.60825254502322
 21
124.90364726585335
  0
LINE
  8
_1-2_ハッチング
  6
CONTINUOUS
 62
    4
 10
166.24060254502325
 20
123.15519726585335
 11
163.60825254502322
 21
125.78754726585335
  0
LINE
  8
_1-2_ハッチング
  6
CONTINUOUS
 62
    4
 10
166.88550254502326
 20
123.39419726585335
 11
163.60825254502322
 21
126.67144726585335
  0
LINE
  8
_1-2_ハッチング
  6
CONTINUOUS
 62
    4
 10
166.68415254502321
 20
124.47939726585335
 11
163.60825254502322
 21
127.55529726585334
  0
LINE
  8
_1-2_ハッチング
  6
CONTINUOUS
 62
    4
 10
166.65460254502324
 20
125.39279726585335
 11
163.89225254502321
 21
128.15519726585336
  0
LINE
  8
_1-2_ハッチング
  6
CONTINUOUS
 62
    4
 10
166.73010254502321
 20
126.20119726585335
 11
164.77610254502321
 21
128.15519726585336
  0
LINE
  8
_1-2_ハッチング
  6
CONTINUOUS
 62
    4
 10
166.91100254502322
 20
126.90419726585336
 11
165.66000254502325
 21
128.15519726585336
  0
LINE
  8
_1-2_ハッチング
  6
CONTINUOUS
 62
    4
 10
167.14325254502324
 20
127.55579726585336
 11
166.54390254502323
 21
128.15519726585336
  0
LINE
  8
_1-2_ハッチング
  6
CONTINUOUS
 62
    4
 10
163.60825254502322
 20
108.97164726585335
 11
164.0512525450232
 21
109.41464726585335
  0
LINE
  8
_1-2_ハッチング
  6
CONTINUOUS
 62
    4
 10
163.71405254502321
 20
108.19359726585336
 11
164.56310254502324
 21
109.04264726585335
  0
LINE
  8
_1-2_ハッチング
  6
CONTINUOUS
 62
    4
 10
164.44155254502323
 20
108.03724726585335
 11
165.07495254502322
 21
108.67064726585335
  0
LINE
  8
_1-2_ハッチング
  6
CONTINUOUS
 62
    4
 10
164.44155254502323
 20
107.15334726585334
 11
165.58685254502325
 21
108.29859726585335
  0
LINE
  8
_1-2_ハッチング
  6
CONTINUOUS
 62
    4
 10
164.44155254502323
 20
106.26944726585334
 11
165.67725254502324
 21
107.50514726585335
  0
LINE
  8
_1-2_ハッチング
  6
CONTINUOUS
 62
    4
 10
164.44155254502323
 20
105.38559726585335
 11
165.67725254502324
 21
106.62129726585334
  0
LINE
  8
_1-2_ハッチング
  6
CONTINUOUS
 62
    4
 10
164.44155254502323
 20
104.50169726585335
 11
165.67725254502324
 21
105.73739726585335
  0
LINE
  8
_1-2_ハッチング
  6
CONTINUOUS
 62
    4
 10
164.44155254502323
 20
103.61779726585334
 11
164.97895254502322
 21
104.15519726585335
  0
LINE
  8
_1-2_ハッチング
  6
CONTINUOUS
 62
    4
 10
164.97895254502322
 20
104.15519726585335
 11
165.67725254502324
 21
104.85349726585335
  0
LINE
  8
_1-2_ハッチング
  6
CONTINUOUS
 62
    4
 10
164.44155254502323
 20
102.73394726585335
 11
165.67725254502324
 21
103.96964726585335
  0
LINE
  8
_1-2_ハッチング
  6
CONTINUOUS
 62
    4
 10
164.44155254502323
 20
101.85004726585335
 11
165.67725254502324
 21
103.08574726585334
  0
ARC
  8
_1-2_ハッチング
  6
CONTINUOUS
 62
    4
 10
162.5671025450232
 20
109.81429726585336
 40
3.8462000000000001
 50
339.82200000000006
 51
74.295000000000087
  0
ARC
  8
_1-2_ハッチング
  6
CONTINUOUS
 62
    4
 10
173.01790254502322
 20
125.10959726585335
 40
6.3829000000000002
 50
151.50100000000003
 51
197.83000000000004
  0
ARC
  8
_1-7_設備
  6
CONTINUOUS
 62
    3
 10
163.94390254502321
 20
111.38854726585338
 40
0.1
 50
90.000000000000028
 51
180.00000000000006
  0
ARC
  8
_1-7_設備
  6
CONTINUOUS
 62
    3
 10
163.94390254502321
 20
111.38854726585338
 40
0.1
 50
90.000000000000028
 51
180.00000000000006
  0
LINE
  8
_1-7_設備
  6
CONTINUOUS
 62
    3
 10
164.24390254502322
 20
111.48854726585338
 11
163.94390254502321
 21
111.48854726585338
  0
LINE
  8
_1-7_設備
  6
CONTINUOUS
 62
    3
 10
164.51060254502323
 20
101.60819726585338
 11
165.67725254502324
 21
102.71344726585338
  0
LINE
  8
_1-7_設備
  6
CONTINUOUS
 62
    3
 10
165.11060254502326
 20
101.48784726585338
 11
166.17725254502324
 21
102.49839726585338
  0
LINE
  8
_1-7_設備
  6
CONTINUOUS
 62
    3
 10
166.07725254502321
 20
104.15519726585337
 11
166.17725254502324
 21
104.25519726585338
  0
LINE
  8
_1-7_設備
  6
CONTINUOUS
 62
    3
 10
166.07725254502321
 20
104.15519726585337
 11
166.17725254502324
 21
104.05519726585338
  0
LINE
  8
_1-7_設備
  6
CONTINUOUS
 62
    3
 10
164.34390254502324
 20
111.38854726585338
 11
164.34390254502324
 21
109.82004726585338
  0
LINE
  8
_1-7_設備
  6
CONTINUOUS
 62
    3
 10
166.17725254502324
 20
108.48759726585338
 11
164.34390254502324
 21
109.82004726585338
  0
LINE
  8
_1-7_設備
  6
CONTINUOUS
 62
    3
 10
166.17725254502324
 20
104.25519726585338
 11
166.17725254502324
 21
108.48759726585338
  0
LINE
  8
_1-7_設備
  6
CONTINUOUS
 62
    3
 10
163.84390254502324
 20
111.38854726585338
 11
163.84390254502324
 21
109.56534726585338
  0
LINE
  8
_1-7_設備
  6
CONTINUOUS
 62
    3
 10
165.11060254502326
 20
99.921897265853374
 11
165.11060254502326
 21
101.48784726585338
  0
LINE
  8
_1-7_設備
  6
CONTINUOUS
 62
    3
 10
164.59835254502326
 20
99.82189726585338
 11
165.01060254502323
 21
99.82189726585338
  0
LINE
  8
_1-7_設備
  6
CONTINUOUS
 62
    3
 10
164.59520254502326
 20
99.963947265853378
 11
164.55545254502323
 21
99.897547265853376
  0
LINE
  8
_1-7_設備
  6
CONTINUOUS
 62
    3
 10
164.52615254502325
 20
100.13039726585338
 11
164.59520254502326
 21
100.01534726585338
  0
LINE
  8
_1-7_設備
  6
CONTINUOUS
 62
    3
 10
164.59520254502326
 20
100.29714726585338
 11
164.52615254502325
 21
100.18179726585338
  0
LINE
  8
_1-7_設備
  6
CONTINUOUS
 62
    3
 10
164.52615254502325
 20
100.46359726585338
 11
164.59520254502326
 21
100.34854726585337
  0
LINE
  8
_1-7_設備
  6
CONTINUOUS
 62
    3
 10
164.59520254502326
 20
100.63029726585339
 11
164.52615254502325
 21
100.51499726585338
  0
LINE
  8
_1-7_設備
  6
CONTINUOUS
 62
    3
 10
164.52615254502325
 20
100.79679726585337
 11
164.59520254502326
 21
100.68174726585337
  0
LINE
  8
_1-7_設備
  6
CONTINUOUS
 62
    3
 10
164.59520254502326
 20
100.96349726585338
 11
164.52615254502325
 21
100.84819726585337
  0
LINE
  8
_1-7_設備
  6
CONTINUOUS
 62
    3
 10
164.52640254502325
 20
101.12954726585338
 11
164.59520254502326
 21
101.01494726585338
  0
LINE
  8
_1-7_設備
  6
CONTINUOUS
 62
    3
 10
164.59520254502326
 20
101.29589726585337
 11
164.52640254502325
 21
101.18099726585338
  0
LINE
  8
_1-7_設備
  6
CONTINUOUS
 62
    3
 10
164.51770254502321
 20
101.47644726585338
 11
164.59520254502326
 21
101.34729726585337
  0
LINE
  8
_1-7_設備
  6
CONTINUOUS
 62
    3
 10
164.51060254502323
 20
101.50214726585338
 11
164.51060254502323
 21
101.60819726585338
  0
LINE
  8
_1-7_設備
  6
CONTINUOUS
 62
    3
 10
166.94155254502323
 20
123.15519726585337
 11
163.60825254502322
 21
123.15519726585337
  0
LINE
  8
_1-7_設備
  6
CONTINUOUS
 62
    3
 10
173.10825254502322
 20
93.655197265853374
 11
172.64155254502322
 21
93.655197265853374
  0
LINE
  8
_1-7_設備
  6
CONTINUOUS
 62
    3
 10
172.64155254502322
 20
94.82189726585338
 11
172.64155254502322
 21
93.655197265853374
  0
LINE
  8
_1-7_設備
  6
CONTINUOUS
 62
    3
 10
173.60825254502322
 20
93.155197265853374
 11
172.14155254502322
 21
93.155197265853374
  0
LINE
  8
_1-7_設備
  6
CONTINUOUS
 62
    3
 10
173.60825254502322
 20
113.15519726585337
 11
173.60825254502322
 21
93.155197265853374
  0
LINE
  8
_1-7_設備
  6
CONTINUOUS
 62
    3
 10
166.94155254502323
 20
123.15519726585337
 11
166.94155254502323
 21
122.40519726585337
  0
LINE
  8
_1-7_設備
  6
CONTINUOUS
 62
    3
 10
166.44155254502323
 20
122.65519726585337
 11
166.44155254502323
 21
122.40519726585337
  0
LINE
  8
_1-7_設備
  6
CONTINUOUS
 62
    3
 10
166.44155254502323
 20
122.65519726585337
 11
164.10820254502323
 21
122.65519726585337
  0
LINE
  8
_1-7_設備
  6
CONTINUOUS
 62
    3
 10
164.10820254502323
 20
116.48854726585338
 11
173.60825254502322
 21
113.15519726585337
  0
LINE
  8
_1-7_設備
  6
CONTINUOUS
 62
    3
 10
163.60825254502322
 20
122.15519726585337
 11
163.77490254502322
 21
122.32184726585338
  0
LINE
  8
_1-7_設備
  6
CONTINUOUS
 62
    3
 10
163.77490254502322
 20
121.98854726585338
 11
163.60825254502322
 21
122.15519726585337
  0
LINE
  8
_1-7_設備
  6
CONTINUOUS
 62
    3
 10
163.60825254502322
 20
121.48854726585338
 11
163.77490254502322
 21
121.65519726585337
  0
LINE
  8
_1-7_設備
  6
CONTINUOUS
 62
    3
 10
163.77490254502322
 20
121.32184726585338
 11
163.60825254502322
 21
121.48854726585338
  0
LINE
  8
_1-7_設備
  6
CONTINUOUS
 62
    3
 10
163.60825254502322
 20
120.82184726585338
 11
163.77490254502322
 21
120.98849726585337
  0
LINE
  8
_1-7_設備
  6
CONTINUOUS
 62
    3
 10
163.77490254502322
 20
120.65519726585337
 11
163.60825254502322
 21
120.82184726585338
  0
LINE
  8
_1-7_設備
  6
CONTINUOUS
 62
    3
 10
163.60825254502322
 20
120.15519726585337
 11
163.77490254502322
 21
120.32184726585338
  0
LINE
  8
_1-7_設備
  6
CONTINUOUS
 62
    3
 10
163.77490254502322
 20
119.98849726585337
 11
163.60825254502322
 21
120.15519726585337
  0
LINE
  8
_1-7_設備
  6
CONTINUOUS
 62
    3
 10
163.60825254502322
 20
119.48849726585337
 11
163.77490254502322
 21
119.65519726585337
  0
LINE
  8
_1-7_設備
  6
CONTINUOUS
 62
    3
 10
163.77490254502322
 20
119.32184726585338
 11
163.60825254502322
 21
119.48849726585337
  0
LINE
  8
_1-7_設備
  6
CONTINUOUS
 62
    3
 10
163.60825254502322
 20
118.82184726585338
 11
163.77490254502322
 21
118.98849726585337
  0
LINE
  8
_1-7_設備
  6
CONTINUOUS
 62
    3
 10
163.77490254502322
 20
118.65514726585337
 11
163.60825254502322
 21
118.82184726585338
  0
LINE
  8
_1-7_設備
  6
CONTINUOUS
 62
    3
 10
163.60825254502322
 20
118.15514726585337
 11
163.77490254502322
 21
118.32184726585338
  0
LINE
  8
_1-7_設備
  6
CONTINUOUS
 62
    3
 10
163.77490254502322
 20
117.98849726585337
 11
163.60825254502322
 21
118.15514726585337
  0
LINE
  8
_1-7_設備
  6
CONTINUOUS
 62
    3
 10
163.60825254502322
 20
117.48849726585337
 11
163.77490254502322
 21
117.65514726585337
  0
LINE
  8
_1-7_設備
  6
CONTINUOUS
 62
    3
 10
163.77490254502322
 20
117.32179726585338
 11
163.60825254502322
 21
117.48849726585337
  0
LINE
  8
_1-7_設備
  6
CONTINUOUS
 62
    3
 10
163.60825254502322
 20
116.82179726585338
 11
163.77490254502322
 21
116.98849726585337
  0
LINE
  8
_1-7_設備
  6
CONTINUOUS
 62
    3
 10
163.77490254502322
 20
122.65519726585337
 11
163.60825254502322
 21
122.82189726585338
  0
LINE
  8
_1-7_設備
  6
CONTINUOUS
 62
    3
 10
163.77490254502322
 20
116.52069726585339
 11
163.60825254502322
 21
116.82179726585338
  0
LINE
  8
_1-7_設備
  6
CONTINUOUS
 62
    3
 10
163.60825254502322
 20
123.15519726585337
 11
163.60825254502322
 21
122.82189726585338
  0
LINE
  8
_1-7_設備
  6
CONTINUOUS
 62
    3
 10
164.10820254502323
 20
122.65519726585337
 11
164.10820254502323
 21
120.27184726585338
  0
LINE
  8
_1-7_設備
  6
CONTINUOUS
 62
    3
 10
163.97490254502321
 20
120.07184726585338
 11
164.10820254502323
 21
120.27184726585338
  0
LINE
  8
_1-7_設備
  6
CONTINUOUS
 62
    3
 10
166.17725254502324
 20
104.05519726585338
 11
166.17725254502324
 21
102.49839726585338
  0
LINE
  8
_1-7_設備
  6
CONTINUOUS
 62
    3
 10
165.67725254502324
 20
102.71344726585338
 11
165.67725254502324
 21
108.23289726585338
  0
LINE
  8
_1-7_設備
  6
CONTINUOUS
 62
    3
 10
165.67725254502324
 20
108.23289726585338
 11
163.84390254502324
 21
109.56534726585338
  0
LINE
  8
_1-7_設備
  6
CONTINUOUS
 62
    3
 10
172.64155254502322
 20
94.82189726585338
 11
172.14155254502322
 21
94.82189726585338
  0
LINE
  8
_1-7_設備
  6
CONTINUOUS
 62
    3
 10
172.14155254502322
 20
94.82189726585338
 11
172.14155254502322
 21
93.155197265853374
  0
LINE
  8
_1-7_設備
  6
CONTINUOUS
 62
    3
 10
163.60825254502322
 20
116.13409726585337
 11
173.10825254502322
 21
112.80074726585337
  0
LINE
  8
_1-7_設備
  6
CONTINUOUS
 62
    3
 10
173.10825254502322
 20
112.80074726585337
 11
173.10825254502322
 21
93.655197265853374
  0
LINE
  8
_1-7_設備
  6
CONTINUOUS
 62
    3
 10
163.77490254502322
 20
122.65519726585337
 11
163.60825254502322
 21
122.48854726585338
  0
LINE
  8
_1-7_設備
  6
CONTINUOUS
 62
    3
 10
163.60825254502322
 20
122.48854726585338
 11
163.77490254502322
 21
122.32184726585338
  0
LINE
  8
_1-7_設備
  6
CONTINUOUS
 62
    3
 10
163.77490254502322
 20
121.98854726585338
 11
163.60825254502322
 21
121.82184726585338
  0
LINE
  8
_1-7_設備
  6
CONTINUOUS
 62
    3
 10
163.60825254502322
 20
121.82184726585338
 11
163.77490254502322
 21
121.65519726585337
  0
LINE
  8
_1-7_設備
  6
CONTINUOUS
 62
    3
 10
163.77490254502322
 20
121.32184726585338
 11
163.60825254502322
 21
121.15519726585337
  0
LINE
  8
_1-7_設備
  6
CONTINUOUS
 62
    3
 10
163.60825254502322
 20
121.15519726585337
 11
163.77490254502322
 21
120.98849726585337
  0
LINE
  8
_1-7_設備
  6
CONTINUOUS
 62
    3
 10
163.77490254502322
 20
120.65519726585337
 11
163.60825254502322
 21
120.48849726585337
  0
LINE
  8
_1-7_設備
  6
CONTINUOUS
 62
    3
 10
163.60825254502322
 20
120.48849726585337
 11
163.77490254502322
 21
120.32184726585338
  0
LINE
  8
_1-7_設備
  6
CONTINUOUS
 62
    3
 10
163.77490254502322
 20
119.98849726585337
 11
163.60825254502322
 21
119.82184726585338
  0
LINE
  8
_1-7_設備
  6
CONTINUOUS
 62
    3
 10
163.60825254502322
 20
119.82184726585338
 11
163.77490254502322
 21
119.65519726585337
  0
LINE
  8
_1-7_設備
  6
CONTINUOUS
 62
    3
 10
163.77490254502322
 20
119.32184726585338
 11
163.60825254502322
 21
119.15514726585337
  0
LINE
  8
_1-7_設備
  6
CONTINUOUS
 62
    3
 10
163.60825254502322
 20
119.15514726585337
 11
163.77490254502322
 21
118.98849726585337
  0
LINE
  8
_1-7_設備
  6
CONTINUOUS
 62
    3
 10
163.77490254502322
 20
118.65514726585337
 11
163.60825254502322
 21
118.48849726585337
  0
LINE
  8
_1-7_設備
  6
CONTINUOUS
 62
    3
 10
163.60825254502322
 20
118.48849726585337
 11
163.77490254502322
 21
118.32184726585338
  0
LINE
  8
_1-7_設備
  6
CONTINUOUS
 62
    3
 10
163.77490254502322
 20
117.98849726585337
 11
163.60825254502322
 21
117.82179726585338
  0
LINE
  8
_1-7_設備
  6
CONTINUOUS
 62
    3
 10
163.60825254502322
 20
117.82179726585338
 11
163.77490254502322
 21
117.65514726585337
  0
LINE
  8
_1-7_設備
  6
CONTINUOUS
 62
    3
 10
163.77490254502322
 20
117.32179726585338
 11
163.60825254502322
 21
117.15514726585337
  0
LINE
  8
_1-7_設備
  6
CONTINUOUS
 62
    3
 10
163.60825254502322
 20
117.15514726585337
 11
163.77490254502322
 21
116.98849726585337
  0
LINE
  8
_1-7_設備
  6
CONTINUOUS
 62
    3
 10
163.77490254502322
 20
116.52069726585339
 11
163.60825254502322
 21
116.35399726585338
  0
LINE
  8
_1-7_設備
  6
CONTINUOUS
 62
    3
 10
163.60825254502322
 20
116.35399726585338
 11
163.60825254502322
 21
116.13409726585337
  0
LINE
  8
_1-7_設備
  6
CONTINUOUS
 62
    3
 10
163.97490254502321
 20
120.07184726585338
 11
164.10820254502323
 21
119.87184726585338
  0
LINE
  8
_1-7_設備
  6
CONTINUOUS
 62
    3
 10
164.10820254502323
 20
119.87184726585338
 11
164.10820254502323
 21
116.48854726585338
  0
ARC
  8
_1-7_設備
  6
CONTINUOUS
 62
    3
 10
164.24390254502322
 20
111.38854726585338
 40
0.1
 50
0
 51
90.000000000000028
  0
ARC
  8
_1-7_設備
  6
CONTINUOUS
 62
    3
 10
165.01060254502323
 20
99.921897265853374
 40
0.1
 50
270.00000000000006
 51
0.0000000000000763
  0
ARC
  8
_1-7_設備
  6
CONTINUOUS
 62
    3
 10
164.59835254502326
 20
99.871847265853376
 40
0.05
 50
149.08100000000002
 51
270.00000000000006
  0
ARC
  8
_1-7_設備
  6
CONTINUOUS
 62
    3
 10
164.55230254502322
 20
99.989647265853378
 40
0.05
 50
329.08100000000007
 51
30.964000000000073
  0
ARC
  8
_1-7_設備
  6
CONTINUOUS
 62
    3
 10
164.56905254502323
 20
100.15614726585338
 40
0.05
 50
149.08100000000002
 51
210.96400000000006
  0
ARC
  8
_1-7_設備
  6
CONTINUOUS
 62
    3
 10
164.55230254502322
 20
100.32279726585338
 40
0.05
 50
329.08100000000007
 51
30.964000000000073
  0
ARC
  8
_1-7_設備
  6
CONTINUOUS
 62
    3
 10
164.56905254502323
 20
100.48929726585338
 40
0.05
 50
149.08100000000002
 51
210.96400000000006
  0
ARC
  8
_1-7_設備
  6
CONTINUOUS
 62
    3
 10
164.55230254502322
 20
100.65599726585339
 40
0.05
 50
329.08100000000007
 51
30.964000000000073
  0
ARC
  8
_1-7_設備
  6
CONTINUOUS
 62
    3
 10
164.56905254502323
 20
100.82249726585337
 40
0.05
 50
149.08100000000002
 51
210.96400000000006
  0
ARC
  8
_1-7_設備
  6
CONTINUOUS
 62
    3
 10
164.55230254502322
 20
100.98919726585338
 40
0.05
 50
329.08100000000007
 51
30.964000000000073
  0
ARC
  8
_1-7_設備
  6
CONTINUOUS
 62
    3
 10
164.56930254502322
 20
101.15529726585338
 40
0.05
 50
149.08100000000002
 51
210.96400000000006
  0
ARC
  8
_1-7_設備
  6
CONTINUOUS
 62
    3
 10
164.55230254502322
 20
101.32154726585338
 40
0.05
 50
329.08100000000007
 51
30.964000000000073
  0
ARC
  8
_1-7_設備
  6
CONTINUOUS
 62
    3
 10
164.56060254502324
 20
101.50214726585338
 40
0.05
 50
180.00000000000006
 51
210.96400000000006
  0
ARC
  8
_1-7_設備
  6
CONTINUOUS
 62
    3
 10
166.69155254502323
 20
122.40519726585337
 40
0.25
 50
180.00000000000006
 51
0.0000000000001017
  0
LINE
  8
_1-c_アンカ__類②
  6
CONTINUOUS
 62
    4
 10
164.40820254502324
 20
105.0842358928642
 11
164.07485254502325
 21
104.66758589286421
  0
LINE
  8
_1-c_アンカ__類②
  6
CONTINUOUS
 62
    4
 10
164.07485254502325
 20
103.53423589286422
 11
164.40820254502324
 21
103.11758589286421
  0
LINE
  8
_1-c_アンカ__類②
  6
CONTINUOUS
 62
    4
 10
164.07485254502325
 20
104.66758589286421
 11
164.07485254502325
 21
103.53423589286422
  0
LINE
  8
_1-c_アンカ__類②
  6
CONTINUOUS
 62
    4
 10
163.24155254502324
 20
103.57593589286421
 11
163.41655254502325
 21
103.57593589286421
  0
LINE
  8
_1-c_アンカ__類②
  6
CONTINUOUS
 62
    4
 10
161.77485254502324
 20
103.57593589286421
 11
162.77485254502324
 21
103.57593589286421
  0
LINE
  8
_1-c_アンカ__類②
  6
CONTINUOUS
 62
    4
 10
162.77485254502324
 20
104.62593589286421
 11
161.77485254502324
 21
104.62593589286421
  0
LINE
  8
_1-c_アンカ__類②
  6
CONTINUOUS
 62
    4
 10
163.41655254502325
 20
104.62593589286421
 11
163.24155254502324
 21
104.62593589286421
  0
LINE
  8
_1-c_アンカ__類②
  6
CONTINUOUS
 62
    4
 10
161.77485254502324
 20
104.62593589286421
 11
161.77485254502324
 21
104.93353589286421
  0
LINE
  8
_1-c_アンカ__類②
  6
CONTINUOUS
 62
    4
 10
161.77485254502324
 20
103.26828589286421
 11
161.77485254502324
 21
103.57593589286421
  0
LINE
  8
_1-c_アンカ__類②
  6
CONTINUOUS
 62
    4
 10
162.00820254502324
 20
104.62593589286421
 11
162.00820254502324
 21
104.93353589286421
  0
LINE
  8
_1-c_アンカ__類②
  6
CONTINUOUS
 62
    4
 10
162.00820254502324
 20
103.26828589286421
 11
162.00820254502324
 21
103.57593589286421
  0
LINE
  8
_1-c_アンカ__類②
  6
CONTINUOUS
 62
    4
 10
162.17485254502324
 20
104.62593589286421
 11
162.17485254502324
 21
104.93353589286421
  0
LINE
  8
_1-c_アンカ__類②
  6
CONTINUOUS
 62
    4
 10
162.17485254502324
 20
103.26828589286421
 11
162.17485254502324
 21
103.57593589286421
  0
LINE
  8
_1-c_アンカ__類②
  6
CONTINUOUS
 62
    4
 10
162.34155254502326
 20
104.62593589286421
 11
162.34155254502326
 21
104.93353589286421
  0
LINE
  8
_1-c_アンカ__類②
  6
CONTINUOUS
 62
    4
 10
162.34155254502326
 20
103.26828589286421
 11
162.34155254502326
 21
103.57593589286421
  0
LINE
  8
_1-c_アンカ__類②
  6
CONTINUOUS
 62
    4
 10
162.50820254502324
 20
104.62593589286421
 11
162.50820254502324
 21
104.93353589286421
  0
LINE
  8
_1-c_アンカ__類②
  6
CONTINUOUS
 62
    4
 10
162.50820254502324
 20
103.26828589286421
 11
162.50820254502324
 21
103.57593589286421
  0
LINE
  8
_1-c_アンカ__類②
  6
CONTINUOUS
 62
    4
 10
162.67485254502324
 20
104.62593589286421
 11
162.67485254502324
 21
104.93353589286421
  0
LINE
  8
_1-c_アンカ__類②
  6
CONTINUOUS
 62
    4
 10
162.67485254502324
 20
103.26828589286421
 11
162.67485254502324
 21
103.57593589286421
  0
LINE
  8
_1-c_アンカ__類②
  6
CONTINUOUS
 62
    4
 10
162.77485254502324
 20
103.57593589286421
 11
162.77485254502324
 21
103.26828589286421
  0
LINE
  8
_1-c_アンカ__類②
  6
CONTINUOUS
 62
    4
 10
162.77485254502324
 20
104.93353589286421
 11
162.77485254502324
 21
104.62593589286421
  0
LINE
  8
_1-c_アンカ__類②
  6
CONTINUOUS
 62
    4
 10
163.40820254502324
 20
104.62593589286421
 11
163.40820254502324
 21
104.93353589286421
  0
LINE
  8
_1-c_アンカ__類②
  6
CONTINUOUS
 62
    4
 10
163.40820254502324
 20
103.26828589286421
 11
163.40820254502324
 21
103.57593589286421
  0
LINE
  8
_1-c_アンカ__類②
  6
CONTINUOUS
 62
    4
 10
163.57485254502325
 20
104.6014858928642
 11
163.57485254502325
 21
104.93353589286421
  0
LINE
  8
_1-c_アンカ__類②
  6
CONTINUOUS
 62
    4
 10
163.57485254502325
 20
103.26828589286421
 11
163.57485254502325
 21
103.60038589286421
  0
LINE
  8
_1-c_アンカ__類②
  6
CONTINUOUS
 62
    4
 10
163.74155254502324
 20
104.5132358928642
 11
163.74155254502324
 21
104.93353589286421
  0
LINE
  8
_1-c_アンカ__類②
  6
CONTINUOUS
 62
    4
 10
163.74155254502324
 20
103.26828589286421
 11
163.74155254502324
 21
103.68858589286421
  0
LINE
  8
_1-c_アンカ__類②
  6
CONTINUOUS
 62
    4
 10
162.77485254502324
 20
103.57593589286421
 11
162.77485254502324
 21
103.26828589286421
  0
LINE
  8
_1-c_アンカ__類②
  6
CONTINUOUS
 62
    4
 10
162.77485254502324
 20
104.93353589286421
 11
162.77485254502324
 21
104.62593589286421
  0
LINE
  8
_1-c_アンカ__類②
  6
CONTINUOUS
 62
    4
 10
163.24155254502324
 20
103.57593589286421
 11
163.24155254502324
 21
103.26828589286421
  0
LINE
  8
_1-c_アンカ__類②
  6
CONTINUOUS
 62
    4
 10
163.24155254502324
 20
104.93353589286421
 11
163.24155254502324
 21
104.62593589286421
  0
LINE
  8
_1-c_アンカ__類②
  6
CONTINUOUS
 62
    4
 10
162.77485254502324
 20
103.26828589286421
 11
163.94155254502323
 21
103.26828589286421
  0
LINE
  8
_1-c_アンカ__類②
  6
CONTINUOUS
 62
    4
 10
162.77485254502324
 20
104.93353589286421
 11
163.94155254502323
 21
104.93353589286421
  0
LINE
  8
_1-c_アンカ__類②
  6
CONTINUOUS
 62
    4
 10
162.77485254502324
 20
103.26828589286421
 11
162.00820254502324
 21
103.26828589286421
  0
LINE
  8
_1-c_アンカ__類②
  6
CONTINUOUS
 62
    4
 10
162.77485254502324
 20
104.93353589286421
 11
162.00820254502324
 21
104.93353589286421
  0
LINE
  8
_1-c_アンカ__類②
  6
CONTINUOUS
 62
    4
 10
159.47950254502325
 20
104.93353589286421
 11
159.47900254502326
 21
104.93348589286421
  0
LINE
  8
_1-c_アンカ__類②
  6
CONTINUOUS
 62
    4
 10
158.44660254502324
 20
104.93353589286421
 11
158.44610254502322
 21
104.93348589286421
  0
LINE
  8
_1-c_アンカ__類②
  6
CONTINUOUS
 62
    4
 10
157.41370254502323
 20
104.93353589286421
 11
157.41325254502323
 21
104.93348589286421
  0
LINE
  8
_1-c_アンカ__類②
  6
CONTINUOUS
 62
    4
 10
156.38080254502324
 20
104.93353589286421
 11
156.38035254502324
 21
104.93348589286421
  0
LINE
  8
_1-c_アンカ__類②
  6
CONTINUOUS
 62
    4
 10
155.36900254502325
 20
104.93353589286421
 11
155.36855254502325
 21
104.93348589286421
  0
LINE
  8
_1-c_アンカ__類②
  6
CONTINUOUS
 62
    4
 10
155.36900254502325
 20
103.26828589286421
 11
155.36855254502325
 21
103.26838589286422
  0
LINE
  8
_1-c_アンカ__類②
  6
CONTINUOUS
 62
    4
 10
156.38080254502324
 20
103.26828589286421
 11
156.38035254502324
 21
103.26838589286422
  0
LINE
  8
_1-c_アンカ__類②
  6
CONTINUOUS
 62
    4
 10
157.41370254502323
 20
103.26828589286421
 11
157.41325254502323
 21
103.26838589286422
  0
LINE
  8
_1-c_アンカ__類②
  6
CONTINUOUS
 62
    4
 10
158.44660254502324
 20
103.26828589286421
 11
158.44610254502322
 21
103.26838589286422
  0
LINE
  8
_1-c_アンカ__類②
  6
CONTINUOUS
 62
    4
 10
158.44660254502324
 20
103.26828589286421
 11
158.44660254502324
 21
103.62643589286421
  0
LINE
  8
_1-c_アンカ__類②
  6
CONTINUOUS
 62
    4
 10
159.47950254502325
 20
103.26828589286421
 11
159.47900254502326
 21
103.26838589286422
  0
LINE
  8
_1-c_アンカ__類②
  6
CONTINUOUS
 62
    4
 10
154.44155254502323
 20
104.43648589286421
 11
154.44155254502323
 21
104.18523589286421
  0
LINE
  8
_1-c_アンカ__類②
  6
CONTINUOUS
 62
    4
 10
154.44155254502323
 20
104.01658589286421
 11
154.44155254502323
 21
103.76533589286421
  0
LINE
  8
_1-c_アンカ__類②
  6
CONTINUOUS
 62
    4
 10
155.51655254502325
 20
104.18523589286421
 11
155.51655254502325
 21
104.01658589286421
  0
LINE
  8
_1-c_アンカ__類②
  6
CONTINUOUS
 62
    4
 10
155.68520254502323
 20
104.18523589286421
 11
155.68520254502323
 21
104.01658589286421
  0
LINE
  8
_1-c_アンカ__類②
  6
CONTINUOUS
 62
    4
 10
158.44660254502324
 20
103.26828589286421
 11
162.00820254502324
 21
103.26828589286421
  0
LINE
  8
_1-c_アンカ__類②
  6
CONTINUOUS
 62
    4
 10
158.44660254502324
 20
103.62643589286421
 11
158.44660254502324
 21
104.01658589286421
  0
LINE
  8
_1-c_アンカ__類②
  6
CONTINUOUS
 62
    4
 10
163.94155254502323
 20
102.3009358928642
 11
164.40820254502324
 21
102.61758589286421
  0
LINE
  8
_1-c_アンカ__類②
  6
CONTINUOUS
 62
    4
 10
164.40820254502324
 20
105.5842358928642
 11
164.40820254502324
 21
102.61758589286421
  0
LINE
  8
_1-c_アンカ__類②
  6
CONTINUOUS
 62
    4
 10
163.94155254502323
 20
105.90093589286421
 11
164.40820254502324
 21
105.5842358928642
  0
LINE
  8
_1-c_アンカ__類②
  6
CONTINUOUS
 62
    4
 10
163.94155254502323
 20
105.90093589286421
 11
163.94155254502323
 21
102.3009358928642
  0
LINE
  8
_1-c_アンカ__類②
  6
CONTINUOUS
 62
    4
 10
158.44660254502324
 20
104.93353589286421
 11
162.00820254502324
 21
104.93353589286421
  0
LINE
  8
_1-c_アンカ__類②
  6
CONTINUOUS
 62
    4
 10
158.44660254502324
 20
104.93353589286421
 11
158.44660254502324
 21
104.18523589286421
  0
LINE
  8
_1-c_アンカ__類②
  6
CONTINUOUS
 62
    4
 10
155.36900254502325
 20
104.93353589286421
 11
155.36855254502325
 21
104.93348589286421
  0
LINE
  8
_1-c_アンカ__類②
  6
CONTINUOUS
 62
    4
 10
156.38080254502324
 20
104.93353589286421
 11
156.38035254502324
 21
104.93348589286421
  0
LINE
  8
_1-c_アンカ__類②
  6
CONTINUOUS
 62
    4
 10
157.41370254502323
 20
104.93353589286421
 11
157.41325254502323
 21
104.93348589286421
  0
LINE
  8
_1-c_アンカ__類②
  6
CONTINUOUS
 62
    4
 10
157.90155254502324
 20
104.72593589286421
 11
157.41370254502323
 21
104.72593589286421
  0
LINE
  8
_1-c_アンカ__類②
  6
CONTINUOUS
 62
    4
 10
156.86870254502324
 20
104.72593589286421
 11
156.38080254502324
 21
104.72593589286421
  0
LINE
  8
_1-c_アンカ__類②
  6
CONTINUOUS
 62
    4
 10
155.85685254502323
 20
104.72593589286421
 11
155.36900254502325
 21
104.72593589286421
  0
LINE
  8
_1-c_アンカ__類②
  6
CONTINUOUS
 62
    4
 10
154.44155254502323
 20
103.76533589286421
 11
154.44155254502323
 21
104.01658589286421
  0
LINE
  8
_1-c_アンカ__類②
  6
CONTINUOUS
 62
    4
 10
154.44155254502323
 20
104.18523589286421
 11
154.44155254502323
 21
104.43648589286421
  0
LINE
  8
_1-c_アンカ__類②
  6
CONTINUOUS
 62
    4
 10
158.44610254502322
 20
103.26838589286422
 11
157.67350254502324
 21
103.76533589286421
  0
LINE
  8
_1-c_アンカ__類②
  6
CONTINUOUS
 62
    4
 10
157.41370254502323
 20
103.26828589286421
 11
156.64060254502323
 21
103.76533589286421
  0
LINE
  8
_1-c_アンカ__類②
  6
CONTINUOUS
 62
    4
 10
156.38035254502324
 20
103.26838589286422
 11
155.62880254502323
 21
103.76533589286421
  0
LINE
  8
_1-c_アンカ__類②
  6
CONTINUOUS
 62
    4
 10
158.12345254502324
 20
103.47593589286421
 11
157.41370254502323
 21
103.47593589286421
  0
LINE
  8
_1-c_アンカ__類②
  6
CONTINUOUS
 62
    4
 10
157.09080254502322
 20
103.47593589286421
 11
156.38080254502324
 21
103.47593589286421
  0
LINE
  8
_1-c_アンカ__類②
  6
CONTINUOUS
 62
    4
 10
156.06650254502324
 20
103.47593589286421
 11
155.36900254502325
 21
103.47593589286421
  0
LINE
  8
_1-c_アンカ__類②
  6
CONTINUOUS
 62
    4
 10
157.41370254502323
 20
103.76533589286421
 11
157.67350254502324
 21
103.76533589286421
  0
LINE
  8
_1-c_アンカ__類②
  6
CONTINUOUS
 62
    4
 10
157.41370254502323
 20
103.26828589286421
 11
157.41370254502323
 21
103.76533589286421
  0
LINE
  8
_1-c_アンカ__類②
  6
CONTINUOUS
 62
    4
 10
156.38080254502324
 20
103.76533589286421
 11
156.64060254502323
 21
103.76533589286421
  0
LINE
  8
_1-c_アンカ__類②
  6
CONTINUOUS
 62
    4
 10
156.38080254502324
 20
103.26828589286421
 11
156.38080254502324
 21
103.76533589286421
  0
LINE
  8
_1-c_アンカ__類②
  6
CONTINUOUS
 62
    4
 10
155.36900254502325
 20
103.76533589286421
 11
155.62880254502323
 21
103.76533589286421
  0
LINE
  8
_1-c_アンカ__類②
  6
CONTINUOUS
 62
    4
 10
155.36900254502325
 20
103.26828589286421
 11
155.36900254502325
 21
103.76533589286421
  0
LINE
  8
_1-c_アンカ__類②
  6
CONTINUOUS
 62
    4
 10
154.44155254502323
 20
103.53423589286422
 11
154.44155254502323
 21
103.76533589286421
  0
LINE
  8
_1-c_アンカ__類②
  6
CONTINUOUS
 62
    4
 10
155.36855254502325
 20
103.26838589286422
 11
154.44155254502323
 21
103.53423589286422
  0
LINE
  8
_1-c_アンカ__類②
  6
CONTINUOUS
 62
    4
 10
154.44155254502323
 20
104.01658589286421
 11
160.79775254502323
 21
104.01658589286421
  0
LINE
  8
_1-c_アンカ__類②
  6
CONTINUOUS
 62
    4
 10
154.44155254502323
 20
104.18523589286421
 11
160.79775254502323
 21
104.18523589286421
  0
LINE
  8
_1-c_アンカ__類②
  6
CONTINUOUS
 62
    4
 10
154.44155254502323
 20
104.10093589286421
 11
154.44155254502323
 21
104.01658589286421
  0
LINE
  8
_1-c_アンカ__類②
  6
CONTINUOUS
 62
    4
 10
154.44155254502323
 20
104.10093589286421
 11
154.44155254502323
 21
104.18523589286421
  0
LINE
  8
_1-c_アンカ__類②
  6
CONTINUOUS
 62
    4
 10
158.44610254502322
 20
104.93348589286421
 11
157.67350254502324
 21
104.43648589286421
  0
LINE
  8
_1-c_アンカ__類②
  6
CONTINUOUS
 62
    4
 10
157.41370254502323
 20
104.93353589286421
 11
156.64060254502323
 21
104.43648589286421
  0
LINE
  8
_1-c_アンカ__類②
  6
CONTINUOUS
 62
    4
 10
156.38080254502324
 20
104.93353589286421
 11
155.62880254502323
 21
104.43648589286421
  0
LINE
  8
_1-c_アンカ__類②
  6
CONTINUOUS
 62
    4
 10
157.41370254502323
 20
104.93353589286421
 11
157.41370254502323
 21
104.43648589286421
  0
LINE
  8
_1-c_アンカ__類②
  6
CONTINUOUS
 62
    4
 10
157.67350254502324
 20
104.43648589286421
 11
157.41370254502323
 21
104.43648589286421
  0
LINE
  8
_1-c_アンカ__類②
  6
CONTINUOUS
 62
    4
 10
156.38080254502324
 20
104.93353589286421
 11
156.38080254502324
 21
104.43648589286421
  0
LINE
  8
_1-c_アンカ__類②
  6
CONTINUOUS
 62
    4
 10
156.64060254502323
 20
104.43648589286421
 11
156.38080254502324
 21
104.43648589286421
  0
LINE
  8
_1-c_アンカ__類②
  6
CONTINUOUS
 62
    4
 10
155.36900254502325
 20
104.93353589286421
 11
155.36900254502325
 21
104.43648589286421
  0
LINE
  8
_1-c_アンカ__類②
  6
CONTINUOUS
 62
    4
 10
155.62880254502323
 20
104.43648589286421
 11
155.36900254502325
 21
104.43648589286421
  0
LINE
  8
_1-c_アンカ__類②
  6
CONTINUOUS
 62
    4
 10
156.06670254502325
 20
104.72593589286421
 11
155.36900254502325
 21
104.72593589286421
  0
LINE
  8
_1-c_アンカ__類②
  6
CONTINUOUS
 62
    4
 10
157.09080254502322
 20
104.72593589286421
 11
156.38080254502324
 21
104.72593589286421
  0
LINE
  8
_1-c_アンカ__類②
  6
CONTINUOUS
 62
    4
 10
158.12345254502324
 20
104.72593589286421
 11
157.41370254502323
 21
104.72593589286421
  0
LINE
  8
_1-c_アンカ__類②
  6
CONTINUOUS
 62
    4
 10
155.36900254502325
 20
104.93353589286421
 11
154.44155254502323
 21
104.66758589286421
  0
LINE
  8
_1-c_アンカ__類②
  6
CONTINUOUS
 62
    4
 10
154.44155254502323
 20
104.66758589286421
 11
154.44155254502323
 21
104.43648589286421
  0
LINE
  8
_1-c_アンカ__類②
  6
CONTINUOUS
 62
    4
 10
154.96850254502323
 20
104.81868589286421
 11
154.96850254502323
 21
104.18523589286421
  0
LINE
  8
_1-c_アンカ__類②
  6
CONTINUOUS
 62
    4
 10
154.96850254502323
 20
104.01658589286421
 11
154.96850254502323
 21
103.38308589286422
  0
LINE
  8
_1-c_アンカ__類②
  6
CONTINUOUS
 62
    4
 10
164.07485254502325
 20
104.66758589286421
 11
154.44155254502323
 21
104.66758589286421
  0
LINE
  8
_1-c_アンカ__類②
  6
CONTINUOUS
 62
    4
 10
164.07485254502325
 20
103.53423589286422
 11
154.44155254502323
 21
103.53423589286422
  0
LINE
  8
_1-c_アンカ__類②
  6
CONTINUOUS
 62
    4
 10
161.21055254502323
 20
104.65923589286422
 11
160.91495254502325
 21
104.62593589286421
  0
LINE
  8
_1-c_アンカ__類②
  6
CONTINUOUS
 62
    4
 10
160.61495254502324
 20
104.62593589286421
 11
160.91055254502322
 21
104.65923589286422
  0
LINE
  8
_1-c_アンカ__類②
  6
CONTINUOUS
 62
    4
 10
160.31495254502323
 20
104.62593589286421
 11
160.61055254502324
 21
104.65923589286422
  0
LINE
  8
_1-c_アンカ__類②
  6
CONTINUOUS
 62
    4
 10
160.31055254502326
 20
104.65923589286422
 11
160.01495254502325
 21
104.62593589286421
  0
LINE
  8
_1-c_アンカ__類②
  6
CONTINUOUS
 62
    4
 10
160.01055254502324
 20
104.65923589286422
 11
159.71495254502324
 21
104.62593589286421
  0
LINE
  8
_1-c_アンカ__類②
  6
CONTINUOUS
 62
    4
 10
159.41495254502325
 20
104.62593589286421
 11
159.71055254502323
 21
104.65923589286422
  0
LINE
  8
_1-c_アンカ__類②
  6
CONTINUOUS
 62
    4
 10
159.11495254502324
 20
104.62593589286421
 11
159.41055254502322
 21
104.65923589286422
  0
LINE
  8
_1-c_アンカ__類②
  6
CONTINUOUS
 62
    4
 10
159.11055254502324
 20
104.65923589286422
 11
158.81495254502323
 21
104.62593589286421
  0
LINE
  8
_1-c_アンカ__類②
  6
CONTINUOUS
 62
    4
 10
158.51495254502325
 20
104.62593589286421
 11
158.81055254502326
 21
104.65923589286422
  0
LINE
  8
_1-c_アンカ__類②
  6
CONTINUOUS
 62
    4
 10
158.21495254502324
 20
104.62593589286421
 11
158.51055254502324
 21
104.65923589286422
  0
LINE
  8
_1-c_アンカ__類②
  6
CONTINUOUS
 62
    4
 10
158.17720254502325
 20
104.65548589286421
 11
158.21055254502323
 21
104.65923589286422
  0
LINE
  8
_1-c_アンカ__類②
  6
CONTINUOUS
 62
    4
 10
157.91495254502325
 20
104.62593589286421
 11
158.17720254502325
 21
104.65548589286421
  0
LINE
  8
_1-c_アンカ__類②
  6
CONTINUOUS
 62
    4
 10
156.41495254502325
 20
104.62593589286421
 11
156.71055254502323
 21
104.65923589286422
  0
LINE
  8
_1-c_アンカ__類②
  6
CONTINUOUS
 62
    4
 10
156.71495254502324
 20
104.62593589286421
 11
157.01055254502324
 21
104.65923589286422
  0
LINE
  8
_1-c_アンカ__類②
  6
CONTINUOUS
 62
    4
 10
156.71055254502323
 20
104.65923589286422
 11
156.86055254502324
 21
103.52593589286421
  0
LINE
  8
_1-c_アンカ__類②
  6
CONTINUOUS
 62
    4
 10
157.01495254502325
 20
104.62593589286421
 11
157.31055254502326
 21
104.65923589286422
  0
LINE
  8
_1-c_アンカ__類②
  6
CONTINUOUS
 62
    4
 10
157.01055254502324
 20
104.65923589286422
 11
157.16055254502322
 21
103.52593589286421
  0
LINE
  8
_1-c_アンカ__類②
  6
CONTINUOUS
 62
    4
 10
157.31495254502323
 20
104.62593589286421
 11
157.61055254502324
 21
104.65923589286422
  0
LINE
  8
_1-c_アンカ__類②
  6
CONTINUOUS
 62
    4
 10
157.31055254502326
 20
104.65923589286422
 11
157.46055254502323
 21
103.52593589286421
  0
LINE
  8
_1-c_アンカ__類②
  6
CONTINUOUS
 62
    4
 10
157.61495254502324
 20
104.62593589286421
 11
157.91055254502322
 21
104.65923589286422
  0
LINE
  8
_1-c_アンカ__類②
  6
CONTINUOUS
 62
    4
 10
156.85945254502326
 20
103.53423589286422
 11
156.55505254502324
 21
103.5675858928642
  0
LINE
  8
_1-c_アンカ__類②
  6
CONTINUOUS
 62
    4
 10
157.15945254502324
 20
103.53423589286422
 11
156.85505254502323
 21
103.5675858928642
  0
LINE
  8
_1-c_アンカ__類②
  6
CONTINUOUS
 62
    4
 10
157.45945254502323
 20
103.53423589286422
 11
157.15505254502324
 21
103.5675858928642
  0
LINE
  8
_1-c_アンカ__類②
  6
CONTINUOUS
 62
    4
 10
161.21055254502323
 20
104.65923589286422
 11
161.35945254502326
 21
103.53423589286422
  0
LINE
  8
_1-c_アンカ__類②
  6
CONTINUOUS
 62
    4
 10
161.05505254502324
 20
103.5675858928642
 11
161.35945254502326
 21
103.53423589286422
  0
LINE
  8
_1-c_アンカ__類②
  6
CONTINUOUS
 62
    4
 10
160.91055254502322
 20
104.65923589286422
 11
161.05945254502325
 21
103.53423589286422
  0
LINE
  8
_1-c_アンカ__類②
  6
CONTINUOUS
 62
    4
 10
160.75505254502326
 20
103.5675858928642
 11
161.05945254502325
 21
103.53423589286422
  0
LINE
  8
_1-c_アンカ__類②
  6
CONTINUOUS
 62
    4
 10
160.61055254502324
 20
104.65923589286422
 11
160.75945254502324
 21
103.53423589286422
  0
LINE
  8
_1-c_アンカ__類②
  6
CONTINUOUS
 62
    4
 10
160.45505254502325
 20
103.5675858928642
 11
160.75945254502324
 21
103.53423589286422
  0
LINE
  8
_1-c_アンカ__類②
  6
CONTINUOUS
 62
    4
 10
160.31055254502326
 20
104.65923589286422
 11
160.45945254502323
 21
103.53423589286422
  0
LINE
  8
_1-c_アンカ__類②
  6
CONTINUOUS
 62
    4
 10
160.15505254502324
 20
103.5675858928642
 11
160.45945254502323
 21
103.53423589286422
  0
LINE
  8
_1-c_アンカ__類②
  6
CONTINUOUS
 62
    4
 10
160.01055254502324
 20
104.65923589286422
 11
160.15945254502324
 21
103.53423589286422
  0
LINE
  8
_1-c_アンカ__類②
  6
CONTINUOUS
 62
    4
 10
159.85505254502323
 20
103.5675858928642
 11
160.15945254502324
 21
103.53423589286422
  0
LINE
  8
_1-c_アンカ__類②
  6
CONTINUOUS
 62
    4
 10
159.71055254502323
 20
104.65923589286422
 11
159.85945254502326
 21
103.53423589286422
  0
LINE
  8
_1-c_アンカ__類②
  6
CONTINUOUS
 62
    4
 10
159.55505254502324
 20
103.5675858928642
 11
159.85945254502326
 21
103.53423589286422
  0
LINE
  8
_1-c_アンカ__類②
  6
CONTINUOUS
 62
    4
 10
159.41055254502322
 20
104.65923589286422
 11
159.55945254502325
 21
103.53423589286422
  0
LINE
  8
_1-c_アンカ__類②
  6
CONTINUOUS
 62
    4
 10
159.25505254502326
 20
103.5675858928642
 11
159.55945254502325
 21
103.53423589286422
  0
LINE
  8
_1-c_アンカ__類②
  6
CONTINUOUS
 62
    4
 10
159.11055254502324
 20
104.65923589286422
 11
159.25945254502324
 21
103.53423589286422
  0
LINE
  8
_1-c_アンカ__類②
  6
CONTINUOUS
 62
    4
 10
158.95505254502325
 20
103.5675858928642
 11
159.25945254502324
 21
103.53423589286422
  0
LINE
  8
_1-c_アンカ__類②
  6
CONTINUOUS
 62
    4
 10
158.81055254502326
 20
104.65923589286422
 11
158.95945254502323
 21
103.53423589286422
  0
LINE
  8
_1-c_アンカ__類②
  6
CONTINUOUS
 62
    4
 10
158.95945254502323
 20
103.53423589286422
 11
158.65505254502324
 21
103.5675858928642
  0
LINE
  8
_1-c_アンカ__類②
  6
CONTINUOUS
 62
    4
 10
158.51055254502324
 20
104.65923589286422
 11
158.65945254502324
 21
103.53423589286422
  0
LINE
  8
_1-c_アンカ__類②
  6
CONTINUOUS
 62
    4
 10
158.65945254502324
 20
103.53423589286422
 11
158.35505254502323
 21
103.5675858928642
  0
LINE
  8
_1-c_アンカ__類②
  6
CONTINUOUS
 62
    4
 10
158.21055254502323
 20
104.65923589286422
 11
158.35945254502326
 21
103.53423589286422
  0
LINE
  8
_1-c_アンカ__類②
  6
CONTINUOUS
 62
    4
 10
158.35945254502326
 20
103.53423589286422
 11
158.17610254502324
 21
103.5543358928642
  0
LINE
  8
_1-c_アンカ__類②
  6
CONTINUOUS
 62
    4
 10
158.17610254502324
 20
103.5543358928642
 11
158.05505254502324
 21
103.5675858928642
  0
LINE
  8
_1-c_アンカ__類②
  6
CONTINUOUS
 62
    4
 10
157.91055254502322
 20
104.65923589286422
 11
158.05945254502325
 21
103.53423589286422
  0
LINE
  8
_1-c_アンカ__類②
  6
CONTINUOUS
 62
    4
 10
158.05945254502325
 20
103.53423589286422
 11
157.75505254502326
 21
103.5675858928642
  0
LINE
  8
_1-c_アンカ__類②
  6
CONTINUOUS
 62
    4
 10
157.61055254502324
 20
104.65923589286422
 11
157.75945254502324
 21
103.53423589286422
  0
LINE
  8
_1-c_アンカ__類②
  6
CONTINUOUS
 62
    4
 10
157.75945254502324
 20
103.53423589286422
 11
157.45505254502325
 21
103.5675858928642
  0
LINE
  8
_1-c_アンカ__類②
  6
CONTINUOUS
 62
    4
 10
156.41055254502322
 20
104.65923589286422
 11
156.55945254502325
 21
103.53423589286422
  0
LINE
  8
_1-c_アンカ__類②
  6
CONTINUOUS
 62
    4
 10
161.51055254502324
 20
104.65923589286422
 11
161.21495254502324
 21
104.62593589286421
  0
LINE
  8
_1-c_アンカ__類②
  6
CONTINUOUS
 62
    4
 10
161.51055254502324
 20
104.65923589286422
 11
161.65945254502324
 21
103.53423589286422
  0
LINE
  8
_1-c_アンカ__類②
  6
CONTINUOUS
 62
    4
 10
161.35505254502323
 20
103.5675858928642
 11
161.65945254502324
 21
103.53423589286422
  0
LINE
  8
_1-c_アンカ__類②
  6
CONTINUOUS
 62
    4
 10
161.81055254502326
 20
104.65923589286422
 11
161.51495254502325
 21
104.62593589286421
  0
LINE
  8
_1-c_アンカ__類②
  6
CONTINUOUS
 62
    4
 10
161.81055254502326
 20
104.65923589286422
 11
161.95945254502323
 21
103.53423589286422
  0
LINE
  8
_1-c_アンカ__類②
  6
CONTINUOUS
 62
    4
 10
161.65505254502324
 20
103.5675858928642
 11
161.95945254502323
 21
103.53423589286422
  0
LINE
  8
_1-c_アンカ__類②
  6
CONTINUOUS
 62
    4
 10
162.11055254502324
 20
104.65923589286422
 11
161.81495254502323
 21
104.62593589286421
  0
LINE
  8
_1-c_アンカ__類②
  6
CONTINUOUS
 62
    4
 10
162.11055254502324
 20
104.65923589286422
 11
162.17720254502325
 21
104.15553589286421
  0
LINE
  8
_1-c_アンカ__類②
  6
CONTINUOUS
 62
    4
 10
162.11175254502325
 20
104.65038589286421
 11
162.17720254502325
 21
104.65923589286422
  0
LINE
  8
_1-c_アンカ__類②
  6
CONTINUOUS
 62
    4
 10
162.17720254502325
 20
104.65923589286422
 11
162.17720254502325
 21
103.5432358928642
  0
LINE
  8
_1-c_アンカ__類②
  6
CONTINUOUS
 62
    4
 10
161.95505254502325
 20
103.5675858928642
 11
162.17720254502325
 21
103.5432358928642
  0
LINE
  8
_1-c_アンカ__類②
  6
CONTINUOUS
 62
    4
 10
156.11055254502324
 20
104.65923589286422
 11
156.25945254502324
 21
103.53423589286422
  0
LINE
  8
_1-c_アンカ__類②
  6
CONTINUOUS
 62
    4
 10
156.11495254502324
 20
104.62593589286421
 11
156.41055254502322
 21
104.65923589286422
  0
LINE
  8
_1-c_アンカ__類②
  6
CONTINUOUS
 62
    4
 10
156.55945254502325
 20
103.53423589286422
 11
156.25505254502326
 21
103.5675858928642
  0
LINE
  8
_1-c_アンカ__類②
  6
CONTINUOUS
 62
    4
 10
156.07720254502323
 20
104.65548589286421
 11
156.11055254502324
 21
104.65923589286422
  0
LINE
  8
_1-c_アンカ__類②
  6
CONTINUOUS
 62
    4
 10
156.25945254502324
 20
103.53423589286422
 11
156.07720254502323
 21
103.55418589286421
  0
LINE
  8
_1-c_アンカ__類②
  6
CONTINUOUS
 62
    4
 10
156.07720254502323
 20
104.65548589286421
 11
156.07720254502323
 21
103.55418589286421
  0
ARC
  8
_1-c_アンカ__類②
  6
CONTINUOUS
 62
    4
 10
163.00820254502324
 20
103.37878589286422
 40
0.30545
 50
40.190000000000005
 51
139.81000000000003
  0
ARC
  8
_1-c_アンカ__類②
  6
CONTINUOUS
 62
    4
 10
163.00820254502324
 20
104.82303589286421
 40
0.30545
 50
220.19000000000005
 51
319.81000000000006
  0
ARC
  8
_1-c_アンカ__類②
  6
CONTINUOUS
 62
    4
 10
163.41655254502325
 20
104.10093589286421
 40
0.525
 50
270.00000000000006
 51
90.000000000000099
  0
ARC
  8
_1-c_アンカ__類②
  6
CONTINUOUS
 62
    4
 10
161.77485254502324
 20
104.10093589286421
 40
0.525
 50
90.000000000000028
 51
270.00000000000011
  0
ARC
  8
_1-c_アンカ__類②
  6
CONTINUOUS
 62
    4
 10
160.94155254502323
 20
104.10093589286421
 40
0.1666499999999999
 50
210.39100000000002
 51
149.60900000000018
  0
LINE
  8
_1-6_アンカ__類
  6
CONTINUOUS
 62
    4
 10
166.31055254502326
 20
105.2675858928642
 11
166.31055254502326
 21
102.93423589286421
  0
LINE
  8
_1-6_アンカ__類
  6
CONTINUOUS
 62
    4
 10
166.51055254502324
 20
105.2503358928642
 11
166.51055254502324
 21
102.9515358928642
  0
LINE
  8
_1-6_アンカ__類
  6
CONTINUOUS
 62
    4
 10
166.31055254502326
 20
105.2675858928642
 11
165.72605254502324
 21
104.6830858928642
  0
LINE
  8
_1-6_アンカ__類
  6
CONTINUOUS
 62
    4
 10
166.31055254502326
 20
102.93423589286421
 11
165.72605254502324
 21
103.5187858928642
  0
LINE
  8
_1-6_アンカ__類
  6
CONTINUOUS
 62
    4
 10
165.67720254502325
 20
103.5675858928642
 11
165.67720254502325
 21
104.63423589286421
  0
ARC
  8
_1-6_アンカ__類
  6
CONTINUOUS
 62
    4
 10
166.31055254502326
 20
104.10093589286421
 40
1.16665
 50
80.129000000000019
 51
90.000000000000014
  0
ARC
  8
_1-6_アンカ__類
  6
CONTINUOUS
 62
    4
 10
166.31055254502326
 20
104.10093589286421
 40
1.16665
 50
270.00000000000006
 51
279.87100000000004
  0
ARC
  8
_1-6_アンカ__類
  6
CONTINUOUS
 62
    4
 10
165.60820254502323
 20
104.8009358928642
 40
0.1666499999999999
 50
270.00000000000006
 51
315.00000000000006
  0
ARC
  8
_1-6_アンカ__類
  6
CONTINUOUS
 62
    4
 10
165.60820254502323
 20
103.40093589286421
 40
0.1666499999999999
 50
45.000000000000014
 51
90.000000000000028
  0
LINE
  8
_1-6_アンカ__類
  6
CONTINUOUS
 62
    4
 10
162.17720254502325
 20
103.5675858928642
 11
165.60820254502323
 21
103.5675858928642
  0
LINE
  8
_1-6_アンカ__類
  6
CONTINUOUS
 62
    4
 10
162.17720254502325
 20
104.63423589286421
 11
165.60820254502323
 21
104.63423589286421
  0
LINE
  8
_1-6_アンカ__類
  6
CONTINUOUS
 62
    4
 10
153.94390254502324
 20
104.1852358928642
 11
153.94390254502324
 21
104.01658589286421
  0
LINE
  8
_1-6_アンカ__類
  6
CONTINUOUS
 62
    4
 10
153.94390254502324
 20
103.93423589286421
 11
155.07720254502323
 21
103.5842358928642
  0
LINE
  8
_1-6_アンカ__類
  6
CONTINUOUS
 62
    4
 10
153.94390254502324
 20
104.2675858928642
 11
155.07720254502323
 21
104.61758589286421
  0
LINE
  8
_1-6_アンカ__類
  6
CONTINUOUS
 62
    4
 10
155.07720254502323
 20
104.61758589286421
 11
155.07720254502323
 21
103.5842358928642
  0
LINE
  8
_1-6_アンカ__類
  6
CONTINUOUS
 62
    4
 10
155.07720254502323
 20
104.61758589286421
 11
156.07720254502323
 21
104.61758589286421
  0
LINE
  8
_1-6_アンカ__類
  6
CONTINUOUS
 62
    4
 10
155.07720254502323
 20
103.5842358928642
 11
156.07720254502323
 21
103.5842358928642
  0
LINE
  8
_e-e_
  6
CONTINUOUS
 62
    7
 10
171.34472332867236
 20
118.73999338104579
 11
176.34472332867236
 21
118.73999338104579
  0
LINE
  8
_e-e_
  6
CONTINUOUS
 62
    7
 10
166.34472332867236
 20
127.40024741889019
 11
171.34472332867236
 21
118.73999338104579
  0
TEXT
  8
_e-0_
 62
    7
 10
176.34472332867236
 20
116.73999338104579
 40
4
 41
1
 50
0
  1
ＡＹシールＭＳ－１
  0
LINE
  8
_e-e_
  6
CONTINUOUS
 62
    7
 10
175.78034384939809
 20
108.04529942070661
 11
180.78034384939809
 21
108.04529942070661
  0
LINE
  8
_e-e_
  6
CONTINUOUS
 62
    7
 10
175.78034384939809
 20
108.04529942070661
 11
173.28034384939809
 21
112.37542643962881
  0
TEXT
  8
_e-0_
 62
    7
 10
180.78034384939809
 20
106.04529942070661
 40
4
 41
1
 50
0
  1
パラトップ水切り
  0
LINE
  8
_e-e_
  6
CONTINUOUS
 62
    7
 10
175.85477243927414
 20
93.287007836400505
 11
180.85477243927414
 21
93.287007836400505
  0
LINE
  8
_e-e_
  6
CONTINUOUS
 62
    7
 10
175.85477243927414
 20
93.287007836400505
 11
165.85477243927414
 21
110.60751591208927
  0
TEXT
  8
_e-0_
 62
    7
 10
180.85477243927414
 20
91.287007836400505
 40
4
 41
1
 50
0
  1
ＡＹシールＭＳ－１
  0
LINE
  8
_e-e_
  6
CONTINUOUS
 62
    7
 10
175.73121710611298
 20
85.008800514602981
 11
180.73121710611298
 21
85.008800514602981
  0
LINE
  8
_e-e_
  6
CONTINUOUS
 62
    7
 10
175.73121710611298
 20
85.008800514602981
 11
165.73121710611298
 21
102.32930859029176
  0
TEXT
  8
_e-0_
 62
    7
 10
180.73121710611298
 20
83.008800514602981
 40
4
 41
1
 50
0
  1
ＹＫ押え金物
  0
LINE
  8
_e-e_
  6
CONTINUOUS
 62
    7
 10
178.86643368507734
 20
74.01237586325999
 11
183.86643368507734
 21
74.01237586325999
  0
LINE
  8
_e-e_
  6
CONTINUOUS
 62
    7
 10
178.86643368507734
 20
74.01237586325999
 11
163.86643368507734
 21
99.99313797679315
  0
TEXT
  8
_e-0_
 62
    7
 10
183.86643368507734
 20
72.01237586325999
 40
4
 41
1
 50
0
  1
ＡＹブチルテープ
  0
LINE
  8
_e-e_
  6
CONTINUOUS
 62
    7
 10
169.16296128910946
 20
55.315831698805773
 11
174.16296128910946
 21
55.315831698805773
  0
LINE
  8
_e-e_
  6
CONTINUOUS
 62
    7
 10
169.16296128910946
 20
55.315831698805773
 11
174.16296128910946
 21
63.97608573665017
  0
LINE
  8
_e-e_
  6
CONTINUOUS
 62
    7
 10
174.16296128910946
 20
63.97608573665017
 11
179.16296128910946
 21
63.97608573665017
  0
TEXT
  8
_e-e_
 62
    7
 10
174.16296128910946
 20
53.315831698805773
 40
4
 41
1
 50
0
  1
ＡＹボンド５８０ＮＦ
  0
TEXT
  8
_e-e_
 62
    7
 10
179.16296128910946
 20
61.97608573665017
 40
4
 41
1
 50
0
  1
リベットルーフ
  0
LINE
  8
_e-e_
  6
CONTINUOUS
 62
    7
 10
164.16296128910946
 20
46.655577660961377
 11
169.16296128910946
 21
55.315831698805773
  0
TEXT
  8
_e-e_
 62
    7
 10
258.5
 20
20
 40
4
 41
1
 50
0
  1
2020.03.11
  0
TEXT
  8
_e-e_
 62
    7
 10
188.5
 20
22.5
 40
4
 41
1
 50
0
  1
壁 取り合い部の例
  0
LINE
  8
_1-c_アンカ__類②
  6
CONTINUOUS
 62
    4
 10
164.57485254502322
 20
121.0008858928642
 11
164.24150254502322
 21
120.58423589286421
  0
LINE
  8
_1-c_アンカ__類②
  6
CONTINUOUS
 62
    4
 10
164.24150254502322
 20
119.45088589286421
 11
164.57485254502322
 21
119.03423589286422
  0
LINE
  8
_1-c_アンカ__類②
  6
CONTINUOUS
 62
    4
 10
164.24150254502322
 20
120.58423589286421
 11
164.24150254502322
 21
119.45088589286421
  0
LINE
  8
_1-c_アンカ__類②
  6
CONTINUOUS
 62
    4
 10
163.40820254502322
 20
119.49258589286421
 11
163.5832025450232
 21
119.49258589286421
  0
LINE
  8
_1-c_アンカ__類②
  6
CONTINUOUS
 62
    4
 10
161.94150254502321
 20
119.49258589286421
 11
162.94150254502321
 21
119.49258589286421
  0
LINE
  8
_1-c_アンカ__類②
  6
CONTINUOUS
 62
    4
 10
162.94150254502321
 20
120.54258589286421
 11
161.94150254502321
 21
120.54258589286421
  0
LINE
  8
_1-c_アンカ__類②
  6
CONTINUOUS
 62
    4
 10
163.5832025450232
 20
120.54258589286421
 11
163.40820254502322
 21
120.54258589286421
  0
LINE
  8
_1-c_アンカ__類②
  6
CONTINUOUS
 62
    4
 10
161.94150254502321
 20
120.54258589286421
 11
161.94150254502321
 21
120.8501858928642
  0
LINE
  8
_1-c_アンカ__類②
  6
CONTINUOUS
 62
    4
 10
161.94150254502321
 20
119.18493589286422
 11
161.94150254502321
 21
119.49258589286421
  0
LINE
  8
_1-c_アンカ__類②
  6
CONTINUOUS
 62
    4
 10
162.17485254502321
 20
120.54258589286421
 11
162.17485254502321
 21
120.8501858928642
  0
LINE
  8
_1-c_アンカ__類②
  6
CONTINUOUS
 62
    4
 10
162.17485254502321
 20
119.18493589286422
 11
162.17485254502321
 21
119.49258589286421
  0
LINE
  8
_1-c_アンカ__類②
  6
CONTINUOUS
 62
    4
 10
162.34150254502322
 20
120.54258589286421
 11
162.34150254502322
 21
120.8501858928642
  0
LINE
  8
_1-c_アンカ__類②
  6
CONTINUOUS
 62
    4
 10
162.34150254502322
 20
119.18493589286422
 11
162.34150254502322
 21
119.49258589286421
  0
LINE
  8
_1-c_アンカ__類②
  6
CONTINUOUS
 62
    4
 10
162.50820254502321
 20
120.54258589286421
 11
162.50820254502321
 21
120.8501858928642
  0
LINE
  8
_1-c_アンカ__類②
  6
CONTINUOUS
 62
    4
 10
162.50820254502321
 20
119.18493589286422
 11
162.50820254502321
 21
119.49258589286421
  0
LINE
  8
_1-c_アンカ__類②
  6
CONTINUOUS
 62
    4
 10
162.67485254502321
 20
120.54258589286421
 11
162.67485254502321
 21
120.8501858928642
  0
LINE
  8
_1-c_アンカ__類②
  6
CONTINUOUS
 62
    4
 10
162.67485254502321
 20
119.18493589286422
 11
162.67485254502321
 21
119.49258589286421
  0
LINE
  8
_1-c_アンカ__類②
  6
CONTINUOUS
 62
    4
 10
162.84150254502322
 20
120.54258589286421
 11
162.84150254502322
 21
120.8501858928642
  0
LINE
  8
_1-c_アンカ__類②
  6
CONTINUOUS
 62
    4
 10
162.84150254502322
 20
119.18493589286422
 11
162.84150254502322
 21
119.49258589286421
  0
LINE
  8
_1-c_アンカ__類②
  6
CONTINUOUS
 62
    4
 10
162.94150254502321
 20
119.49258589286421
 11
162.94150254502321
 21
119.18493589286422
  0
LINE
  8
_1-c_アンカ__類②
  6
CONTINUOUS
 62
    4
 10
162.94150254502321
 20
120.8501858928642
 11
162.94150254502321
 21
120.54258589286421
  0
LINE
  8
_1-c_アンカ__類②
  6
CONTINUOUS
 62
    4
 10
163.57485254502322
 20
120.54258589286421
 11
163.57485254502322
 21
120.8501858928642
  0
LINE
  8
_1-c_アンカ__類②
  6
CONTINUOUS
 62
    4
 10
163.57485254502322
 20
119.18493589286422
 11
163.57485254502322
 21
119.49258589286421
  0
LINE
  8
_1-c_アンカ__類②
  6
CONTINUOUS
 62
    4
 10
163.74150254502322
 20
120.51813589286421
 11
163.74150254502322
 21
120.8501858928642
  0
LINE
  8
_1-c_アンカ__類②
  6
CONTINUOUS
 62
    4
 10
163.74150254502322
 20
119.18493589286422
 11
163.74150254502322
 21
119.51703589286421
  0
LINE
  8
_1-c_アンカ__類②
  6
CONTINUOUS
 62
    4
 10
163.90820254502322
 20
120.42988589286421
 11
163.90820254502322
 21
120.8501858928642
  0
LINE
  8
_1-c_アンカ__類②
  6
CONTINUOUS
 62
    4
 10
163.90820254502322
 20
119.18493589286422
 11
163.90820254502322
 21
119.60523589286421
  0
LINE
  8
_1-c_アンカ__類②
  6
CONTINUOUS
 62
    4
 10
162.94150254502321
 20
119.49258589286421
 11
162.94150254502321
 21
119.18493589286422
  0
LINE
  8
_1-c_アンカ__類②
  6
CONTINUOUS
 62
    4
 10
162.94150254502321
 20
120.8501858928642
 11
162.94150254502321
 21
120.54258589286421
  0
LINE
  8
_1-c_アンカ__類②
  6
CONTINUOUS
 62
    4
 10
163.40820254502322
 20
119.49258589286421
 11
163.40820254502322
 21
119.18493589286422
  0
LINE
  8
_1-c_アンカ__類②
  6
CONTINUOUS
 62
    4
 10
163.40820254502322
 20
120.8501858928642
 11
163.40820254502322
 21
120.54258589286421
  0
LINE
  8
_1-c_アンカ__類②
  6
CONTINUOUS
 62
    4
 10
162.94150254502321
 20
119.18493589286422
 11
164.10820254502323
 21
119.18493589286422
  0
LINE
  8
_1-c_アンカ__類②
  6
CONTINUOUS
 62
    4
 10
162.94150254502321
 20
120.8501858928642
 11
164.10820254502323
 21
120.8501858928642
  0
LINE
  8
_1-c_アンカ__類②
  6
CONTINUOUS
 62
    4
 10
162.94150254502321
 20
119.18493589286422
 11
162.17485254502321
 21
119.18493589286422
  0
LINE
  8
_1-c_アンカ__類②
  6
CONTINUOUS
 62
    4
 10
162.94150254502321
 20
120.8501858928642
 11
162.17485254502321
 21
120.8501858928642
  0
LINE
  8
_1-c_アンカ__類②
  6
CONTINUOUS
 62
    4
 10
159.6461525450232
 20
120.8501858928642
 11
159.64565254502321
 21
120.85013589286422
  0
LINE
  8
_1-c_アンカ__類②
  6
CONTINUOUS
 62
    4
 10
158.61325254502322
 20
120.8501858928642
 11
158.61275254502323
 21
120.85013589286422
  0
LINE
  8
_1-c_アンカ__類②
  6
CONTINUOUS
 62
    4
 10
157.58035254502323
 20
120.8501858928642
 11
157.57990254502323
 21
120.85013589286422
  0
LINE
  8
_1-c_アンカ__類②
  6
CONTINUOUS
 62
    4
 10
156.54745254502322
 20
120.8501858928642
 11
156.54700254502322
 21
120.85013589286422
  0
LINE
  8
_1-c_アンカ__類②
  6
CONTINUOUS
 62
    4
 10
155.53565254502323
 20
120.8501858928642
 11
155.53520254502322
 21
120.85013589286422
  0
LINE
  8
_1-c_アンカ__類②
  6
CONTINUOUS
 62
    4
 10
155.53565254502323
 20
119.18493589286422
 11
155.53520254502322
 21
119.18503589286421
  0
LINE
  8
_1-c_アンカ__類②
  6
CONTINUOUS
 62
    4
 10
156.54745254502322
 20
119.18493589286422
 11
156.54700254502322
 21
119.18503589286421
  0
LINE
  8
_1-c_アンカ__類②
  6
CONTINUOUS
 62
    4
 10
157.58035254502323
 20
119.18493589286422
 11
157.57990254502323
 21
119.18503589286421
  0
LINE
  8
_1-c_アンカ__類②
  6
CONTINUOUS
 62
    4
 10
158.61325254502322
 20
119.18493589286422
 11
158.61275254502323
 21
119.18503589286421
  0
LINE
  8
_1-c_アンカ__類②
  6
CONTINUOUS
 62
    4
 10
158.61325254502322
 20
119.18493589286422
 11
158.61325254502322
 21
119.54308589286421
  0
LINE
  8
_1-c_アンカ__類②
  6
CONTINUOUS
 62
    4
 10
159.6461525450232
 20
119.18493589286422
 11
159.64565254502321
 21
119.18503589286421
  0
LINE
  8
_1-c_アンカ__類②
  6
CONTINUOUS
 62
    4
 10
154.60820254502323
 20
120.3531358928642
 11
154.60820254502323
 21
120.1018858928642
  0
LINE
  8
_1-c_アンカ__類②
  6
CONTINUOUS
 62
    4
 10
154.60820254502323
 20
119.9332358928642
 11
154.60820254502323
 21
119.6819858928642
  0
LINE
  8
_1-c_アンカ__類②
  6
CONTINUOUS
 62
    4
 10
155.68320254502322
 20
120.1018858928642
 11
155.68320254502322
 21
119.9332358928642
  0
LINE
  8
_1-c_アンカ__類②
  6
CONTINUOUS
 62
    4
 10
155.85185254502323
 20
120.1018858928642
 11
155.85185254502323
 21
119.9332358928642
  0
LINE
  8
_1-c_アンカ__類②
  6
CONTINUOUS
 62
    4
 10
158.61325254502322
 20
119.18493589286422
 11
162.17485254502321
 21
119.18493589286422
  0
LINE
  8
_1-c_アンカ__類②
  6
CONTINUOUS
 62
    4
 10
158.61325254502322
 20
119.54308589286421
 11
158.61325254502322
 21
119.9332358928642
  0
LINE
  8
_1-c_アンカ__類②
  6
CONTINUOUS
 62
    4
 10
164.10820254502323
 20
118.21758589286421
 11
164.57485254502322
 21
118.53423589286422
  0
LINE
  8
_1-c_アンカ__類②
  6
CONTINUOUS
 62
    4
 10
164.57485254502322
 20
121.5008858928642
 11
164.57485254502322
 21
118.53423589286422
  0
LINE
  8
_1-c_アンカ__類②
  6
CONTINUOUS
 62
    4
 10
164.10820254502323
 20
121.8175858928642
 11
164.57485254502322
 21
121.5008858928642
  0
LINE
  8
_1-c_アンカ__類②
  6
CONTINUOUS
 62
    4
 10
164.10820254502323
 20
121.8175858928642
 11
164.10820254502323
 21
118.21758589286421
  0
LINE
  8
_1-c_アンカ__類②
  6
CONTINUOUS
 62
    4
 10
158.61325254502322
 20
120.8501858928642
 11
162.17485254502321
 21
120.8501858928642
  0
LINE
  8
_1-c_アンカ__類②
  6
CONTINUOUS
 62
    4
 10
158.61325254502322
 20
120.8501858928642
 11
158.61325254502322
 21
120.1018858928642
  0
LINE
  8
_1-c_アンカ__類②
  6
CONTINUOUS
 62
    4
 10
155.53565254502323
 20
120.8501858928642
 11
155.53520254502322
 21
120.85013589286422
  0
LINE
  8
_1-c_アンカ__類②
  6
CONTINUOUS
 62
    4
 10
156.54745254502322
 20
120.8501858928642
 11
156.54700254502322
 21
120.85013589286422
  0
LINE
  8
_1-c_アンカ__類②
  6
CONTINUOUS
 62
    4
 10
157.58035254502323
 20
120.8501858928642
 11
157.57990254502323
 21
120.85013589286422
  0
LINE
  8
_1-c_アンカ__類②
  6
CONTINUOUS
 62
    4
 10
158.06820254502321
 20
120.6425858928642
 11
157.58035254502323
 21
120.6425858928642
  0
LINE
  8
_1-c_アンカ__類②
  6
CONTINUOUS
 62
    4
 10
157.03535254502322
 20
120.6425858928642
 11
156.54745254502322
 21
120.6425858928642
  0
LINE
  8
_1-c_アンカ__類②
  6
CONTINUOUS
 62
    4
 10
156.02350254502323
 20
120.6425858928642
 11
155.53565254502323
 21
120.6425858928642
  0
LINE
  8
_1-c_アンカ__類②
  6
CONTINUOUS
 62
    4
 10
154.60820254502323
 20
119.6819858928642
 11
154.60820254502323
 21
119.9332358928642
  0
LINE
  8
_1-c_アンカ__類②
  6
CONTINUOUS
 62
    4
 10
154.60820254502323
 20
120.1018858928642
 11
154.60820254502323
 21
120.3531358928642
  0
LINE
  8
_1-c_アンカ__類②
  6
CONTINUOUS
 62
    4
 10
158.61275254502323
 20
119.18503589286421
 11
157.84015254502322
 21
119.6819858928642
  0
LINE
  8
_1-c_アンカ__類②
  6
CONTINUOUS
 62
    4
 10
157.58035254502323
 20
119.18493589286422
 11
156.80725254502323
 21
119.6819858928642
  0
LINE
  8
_1-c_アンカ__類②
  6
CONTINUOUS
 62
    4
 10
156.54700254502322
 20
119.18503589286421
 11
155.79545254502324
 21
119.6819858928642
  0
LINE
  8
_1-c_アンカ__類②
  6
CONTINUOUS
 62
    4
 10
158.29010254502322
 20
119.3925858928642
 11
157.58035254502323
 21
119.3925858928642
  0
LINE
  8
_1-c_アンカ__類②
  6
CONTINUOUS
 62
    4
 10
157.25745254502323
 20
119.3925858928642
 11
156.54745254502322
 21
119.3925858928642
  0
LINE
  8
_1-c_アンカ__類②
  6
CONTINUOUS
 62
    4
 10
156.23315254502322
 20
119.3925858928642
 11
155.53565254502323
 21
119.3925858928642
  0
LINE
  8
_1-c_アンカ__類②
  6
CONTINUOUS
 62
    4
 10
157.58035254502323
 20
119.6819858928642
 11
157.84015254502322
 21
119.6819858928642
  0
LINE
  8
_1-c_アンカ__類②
  6
CONTINUOUS
 62
    4
 10
157.58035254502323
 20
119.18493589286422
 11
157.58035254502323
 21
119.6819858928642
  0
LINE
  8
_1-c_アンカ__類②
  6
CONTINUOUS
 62
    4
 10
156.54745254502322
 20
119.6819858928642
 11
156.80725254502323
 21
119.6819858928642
  0
LINE
  8
_1-c_アンカ__類②
  6
CONTINUOUS
 62
    4
 10
156.54745254502322
 20
119.18493589286422
 11
156.54745254502322
 21
119.6819858928642
  0
LINE
  8
_1-c_アンカ__類②
  6
CONTINUOUS
 62
    4
 10
155.53565254502323
 20
119.6819858928642
 11
155.79545254502324
 21
119.6819858928642
  0
LINE
  8
_1-c_アンカ__類②
  6
CONTINUOUS
 62
    4
 10
155.53565254502323
 20
119.18493589286422
 11
155.53565254502323
 21
119.6819858928642
  0
LINE
  8
_1-c_アンカ__類②
  6
CONTINUOUS
 62
    4
 10
154.60820254502323
 20
119.45088589286421
 11
154.60820254502323
 21
119.6819858928642
  0
LINE
  8
_1-c_アンカ__類②
  6
CONTINUOUS
 62
    4
 10
155.53520254502322
 20
119.18503589286421
 11
154.60820254502323
 21
119.45088589286421
  0
LINE
  8
_1-c_アンカ__類②
  6
CONTINUOUS
 62
    4
 10
154.60820254502323
 20
119.9332358928642
 11
160.96440254502323
 21
119.9332358928642
  0
LINE
  8
_1-c_アンカ__類②
  6
CONTINUOUS
 62
    4
 10
154.60820254502323
 20
120.1018858928642
 11
160.96440254502323
 21
120.1018858928642
  0
LINE
  8
_1-c_アンカ__類②
  6
CONTINUOUS
 62
    4
 10
154.60820254502323
 20
120.0175858928642
 11
154.60820254502323
 21
119.9332358928642
  0
LINE
  8
_1-c_アンカ__類②
  6
CONTINUOUS
 62
    4
 10
154.60820254502323
 20
120.0175858928642
 11
154.60820254502323
 21
120.1018858928642
  0
LINE
  8
_1-c_アンカ__類②
  6
CONTINUOUS
 62
    4
 10
158.61275254502323
 20
120.85013589286422
 11
157.84015254502322
 21
120.3531358928642
  0
LINE
  8
_1-c_アンカ__類②
  6
CONTINUOUS
 62
    4
 10
157.58035254502323
 20
120.8501858928642
 11
156.80725254502323
 21
120.3531358928642
  0
LINE
  8
_1-c_アンカ__類②
  6
CONTINUOUS
 62
    4
 10
156.54745254502322
 20
120.8501858928642
 11
155.79545254502324
 21
120.3531358928642
  0
LINE
  8
_1-c_アンカ__類②
  6
CONTINUOUS
 62
    4
 10
157.58035254502323
 20
120.8501858928642
 11
157.58035254502323
 21
120.3531358928642
  0
LINE
  8
_1-c_アンカ__類②
  6
CONTINUOUS
 62
    4
 10
157.84015254502322
 20
120.3531358928642
 11
157.58035254502323
 21
120.3531358928642
  0
LINE
  8
_1-c_アンカ__類②
  6
CONTINUOUS
 62
    4
 10
156.54745254502322
 20
120.8501858928642
 11
156.54745254502322
 21
120.3531358928642
  0
LINE
  8
_1-c_アンカ__類②
  6
CONTINUOUS
 62
    4
 10
156.80725254502323
 20
120.3531358928642
 11
156.54745254502322
 21
120.3531358928642
  0
LINE
  8
_1-c_アンカ__類②
  6
CONTINUOUS
 62
    4
 10
155.53565254502323
 20
120.8501858928642
 11
155.53565254502323
 21
120.3531358928642
  0
LINE
  8
_1-c_アンカ__類②
  6
CONTINUOUS
 62
    4
 10
155.79545254502324
 20
120.3531358928642
 11
155.53565254502323
 21
120.3531358928642
  0
LINE
  8
_1-c_アンカ__類②
  6
CONTINUOUS
 62
    4
 10
156.23335254502322
 20
120.6425858928642
 11
155.53565254502323
 21
120.6425858928642
  0
LINE
  8
_1-c_アンカ__類②
  6
CONTINUOUS
 62
    4
 10
157.25745254502323
 20
120.6425858928642
 11
156.54745254502322
 21
120.6425858928642
  0
LINE
  8
_1-c_アンカ__類②
  6
CONTINUOUS
 62
    4
 10
158.29010254502322
 20
120.6425858928642
 11
157.58035254502323
 21
120.6425858928642
  0
LINE
  8
_1-c_アンカ__類②
  6
CONTINUOUS
 62
    4
 10
155.53565254502323
 20
120.8501858928642
 11
154.60820254502323
 21
120.58423589286421
  0
LINE
  8
_1-c_アンカ__類②
  6
CONTINUOUS
 62
    4
 10
154.60820254502323
 20
120.58423589286421
 11
154.60820254502323
 21
120.3531358928642
  0
LINE
  8
_1-c_アンカ__類②
  6
CONTINUOUS
 62
    4
 10
155.13515254502323
 20
120.73533589286421
 11
155.13515254502323
 21
120.1018858928642
  0
LINE
  8
_1-c_アンカ__類②
  6
CONTINUOUS
 62
    4
 10
155.13515254502323
 20
119.9332358928642
 11
155.13515254502323
 21
119.29973589286421
  0
LINE
  8
_1-c_アンカ__類②
  6
CONTINUOUS
 62
    4
 10
164.24150254502322
 20
120.58423589286421
 11
154.60820254502323
 21
120.58423589286421
  0
LINE
  8
_1-c_アンカ__類②
  6
CONTINUOUS
 62
    4
 10
164.24150254502322
 20
119.45088589286421
 11
154.60820254502323
 21
119.45088589286421
  0
LINE
  8
_1-c_アンカ__類②
  6
CONTINUOUS
 62
    4
 10
161.37720254502324
 20
120.57588589286421
 11
161.0816025450232
 21
120.54258589286421
  0
LINE
  8
_1-c_アンカ__類②
  6
CONTINUOUS
 62
    4
 10
160.78160254502322
 20
120.54258589286421
 11
161.07720254502323
 21
120.57588589286421
  0
LINE
  8
_1-c_アンカ__類②
  6
CONTINUOUS
 62
    4
 10
160.48160254502324
 20
120.54258589286421
 11
160.77720254502321
 21
120.57588589286421
  0
LINE
  8
_1-c_アンカ__類②
  6
CONTINUOUS
 62
    4
 10
160.4772025450232
 20
120.57588589286421
 11
160.18160254502322
 21
120.54258589286421
  0
LINE
  8
_1-c_アンカ__類②
  6
CONTINUOUS
 62
    4
 10
160.17720254502322
 20
120.57588589286421
 11
159.88160254502321
 21
120.54258589286421
  0
LINE
  8
_1-c_アンカ__類②
  6
CONTINUOUS
 62
    4
 10
159.5816025450232
 20
120.54258589286421
 11
159.87720254502324
 21
120.57588589286421
  0
LINE
  8
_1-c_アンカ__類②
  6
CONTINUOUS
 62
    4
 10
159.28160254502322
 20
120.54258589286421
 11
159.57720254502323
 21
120.57588589286421
  0
LINE
  8
_1-c_アンカ__類②
  6
CONTINUOUS
 62
    4
 10
159.27720254502321
 20
120.57588589286421
 11
158.98160254502324
 21
120.54258589286421
  0
LINE
  8
_1-c_アンカ__類②
  6
CONTINUOUS
 62
    4
 10
158.68160254502322
 20
120.54258589286421
 11
158.9772025450232
 21
120.57588589286421
  0
LINE
  8
_1-c_アンカ__類②
  6
CONTINUOUS
 62
    4
 10
158.38160254502321
 20
120.54258589286421
 11
158.67720254502322
 21
120.57588589286421
  0
LINE
  8
_1-c_アンカ__類②
  6
CONTINUOUS
 62
    4
 10
158.34385254502322
 20
120.57213589286421
 11
158.37720254502324
 21
120.57588589286421
  0
LINE
  8
_1-c_アンカ__類②
  6
CONTINUOUS
 62
    4
 10
158.0816025450232
 20
120.54258589286421
 11
158.34385254502322
 21
120.57213589286421
  0
LINE
  8
_1-c_アンカ__類②
  6
CONTINUOUS
 62
    4
 10
156.5816025450232
 20
120.54258589286421
 11
156.87720254502324
 21
120.57588589286421
  0
LINE
  8
_1-c_アンカ__類②
  6
CONTINUOUS
 62
    4
 10
156.88160254502321
 20
120.54258589286421
 11
157.17720254502322
 21
120.57588589286421
  0
LINE
  8
_1-c_アンカ__類②
  6
CONTINUOUS
 62
    4
 10
156.87720254502324
 20
120.57588589286421
 11
157.02720254502321
 21
119.4425858928642
  0
LINE
  8
_1-c_アンカ__類②
  6
CONTINUOUS
 62
    4
 10
157.18160254502322
 20
120.54258589286421
 11
157.4772025450232
 21
120.57588589286421
  0
LINE
  8
_1-c_アンカ__類②
  6
CONTINUOUS
 62
    4
 10
157.17720254502322
 20
120.57588589286421
 11
157.32720254502323
 21
119.4425858928642
  0
LINE
  8
_1-c_アンカ__類②
  6
CONTINUOUS
 62
    4
 10
157.48160254502324
 20
120.54258589286421
 11
157.77720254502321
 21
120.57588589286421
  0
LINE
  8
_1-c_アンカ__類②
  6
CONTINUOUS
 62
    4
 10
157.4772025450232
 20
120.57588589286421
 11
157.62720254502324
 21
119.4425858928642
  0
LINE
  8
_1-c_アンカ__類②
  6
CONTINUOUS
 62
    4
 10
157.78160254502322
 20
120.54258589286421
 11
158.07720254502323
 21
120.57588589286421
  0
LINE
  8
_1-c_アンカ__類②
  6
CONTINUOUS
 62
    4
 10
157.02610254502321
 20
119.45088589286421
 11
156.72170254502322
 21
119.48423589286421
  0
LINE
  8
_1-c_アンカ__類②
  6
CONTINUOUS
 62
    4
 10
157.32610254502322
 20
119.45088589286421
 11
157.02170254502323
 21
119.48423589286421
  0
LINE
  8
_1-c_アンカ__類②
  6
CONTINUOUS
 62
    4
 10
157.62610254502323
 20
119.45088589286421
 11
157.32170254502321
 21
119.48423589286421
  0
LINE
  8
_1-c_アンカ__類②
  6
CONTINUOUS
 62
    4
 10
161.37720254502324
 20
120.57588589286421
 11
161.52610254502321
 21
119.45088589286421
  0
LINE
  8
_1-c_アンカ__類②
  6
CONTINUOUS
 62
    4
 10
161.22170254502322
 20
119.48423589286421
 11
161.52610254502321
 21
119.45088589286421
  0
LINE
  8
_1-c_アンカ__類②
  6
CONTINUOUS
 62
    4
 10
161.07720254502323
 20
120.57588589286421
 11
161.22610254502322
 21
119.45088589286421
  0
LINE
  8
_1-c_アンカ__類②
  6
CONTINUOUS
 62
    4
 10
160.92170254502321
 20
119.48423589286421
 11
161.22610254502322
 21
119.45088589286421
  0
LINE
  8
_1-c_アンカ__類②
  6
CONTINUOUS
 62
    4
 10
160.77720254502321
 20
120.57588589286421
 11
160.92610254502321
 21
119.45088589286421
  0
LINE
  8
_1-c_アンカ__類②
  6
CONTINUOUS
 62
    4
 10
160.62170254502323
 20
119.48423589286421
 11
160.92610254502321
 21
119.45088589286421
  0
LINE
  8
_1-c_アンカ__類②
  6
CONTINUOUS
 62
    4
 10
160.4772025450232
 20
120.57588589286421
 11
160.62610254502323
 21
119.45088589286421
  0
LINE
  8
_1-c_アンカ__類②
  6
CONTINUOUS
 62
    4
 10
160.32170254502321
 20
119.48423589286421
 11
160.62610254502323
 21
119.45088589286421
  0
LINE
  8
_1-c_アンカ__類②
  6
CONTINUOUS
 62
    4
 10
160.17720254502322
 20
120.57588589286421
 11
160.32610254502322
 21
119.45088589286421
  0
LINE
  8
_1-c_アンカ__類②
  6
CONTINUOUS
 62
    4
 10
160.02170254502323
 20
119.48423589286421
 11
160.32610254502322
 21
119.45088589286421
  0
LINE
  8
_1-c_アンカ__類②
  6
CONTINUOUS
 62
    4
 10
159.87720254502324
 20
120.57588589286421
 11
160.02610254502321
 21
119.45088589286421
  0
LINE
  8
_1-c_アンカ__類②
  6
CONTINUOUS
 62
    4
 10
159.72170254502322
 20
119.48423589286421
 11
160.02610254502321
 21
119.45088589286421
  0
LINE
  8
_1-c_アンカ__類②
  6
CONTINUOUS
 62
    4
 10
159.57720254502323
 20
120.57588589286421
 11
159.72610254502322
 21
119.45088589286421
  0
LINE
  8
_1-c_アンカ__類②
  6
CONTINUOUS
 62
    4
 10
159.42170254502321
 20
119.48423589286421
 11
159.72610254502322
 21
119.45088589286421
  0
LINE
  8
_1-c_アンカ__類②
  6
CONTINUOUS
 62
    4
 10
159.27720254502321
 20
120.57588589286421
 11
159.42610254502321
 21
119.45088589286421
  0
LINE
  8
_1-c_アンカ__類②
  6
CONTINUOUS
 62
    4
 10
159.12170254502323
 20
119.48423589286421
 11
159.42610254502321
 21
119.45088589286421
  0
LINE
  8
_1-c_アンカ__類②
  6
CONTINUOUS
 62
    4
 10
158.9772025450232
 20
120.57588589286421
 11
159.12610254502323
 21
119.45088589286421
  0
LINE
  8
_1-c_アンカ__類②
  6
CONTINUOUS
 62
    4
 10
159.12610254502323
 20
119.45088589286421
 11
158.82170254502321
 21
119.48423589286421
  0
LINE
  8
_1-c_アンカ__類②
  6
CONTINUOUS
 62
    4
 10
158.67720254502322
 20
120.57588589286421
 11
158.82610254502322
 21
119.45088589286421
  0
LINE
  8
_1-c_アンカ__類②
  6
CONTINUOUS
 62
    4
 10
158.82610254502322
 20
119.45088589286421
 11
158.52170254502323
 21
119.48423589286421
  0
LINE
  8
_1-c_アンカ__類②
  6
CONTINUOUS
 62
    4
 10
158.37720254502324
 20
120.57588589286421
 11
158.52610254502321
 21
119.45088589286421
  0
LINE
  8
_1-c_アンカ__類②
  6
CONTINUOUS
 62
    4
 10
158.52610254502321
 20
119.45088589286421
 11
158.34275254502322
 21
119.47098589286421
  0
LINE
  8
_1-c_アンカ__類②
  6
CONTINUOUS
 62
    4
 10
158.34275254502322
 20
119.47098589286421
 11
158.22170254502322
 21
119.48423589286421
  0
LINE
  8
_1-c_アンカ__類②
  6
CONTINUOUS
 62
    4
 10
158.07720254502323
 20
120.57588589286421
 11
158.22610254502322
 21
119.45088589286421
  0
LINE
  8
_1-c_アンカ__類②
  6
CONTINUOUS
 62
    4
 10
158.22610254502322
 20
119.45088589286421
 11
157.92170254502321
 21
119.48423589286421
  0
LINE
  8
_1-c_アンカ__類②
  6
CONTINUOUS
 62
    4
 10
157.77720254502321
 20
120.57588589286421
 11
157.92610254502321
 21
119.45088589286421
  0
LINE
  8
_1-c_アンカ__類②
  6
CONTINUOUS
 62
    4
 10
157.92610254502321
 20
119.45088589286421
 11
157.62170254502323
 21
119.48423589286421
  0
LINE
  8
_1-c_アンカ__類②
  6
CONTINUOUS
 62
    4
 10
156.57720254502323
 20
120.57588589286421
 11
156.72610254502322
 21
119.45088589286421
  0
LINE
  8
_1-c_アンカ__類②
  6
CONTINUOUS
 62
    4
 10
161.67720254502322
 20
120.57588589286421
 11
161.38160254502321
 21
120.54258589286421
  0
LINE
  8
_1-c_アンカ__類②
  6
CONTINUOUS
 62
    4
 10
161.67720254502322
 20
120.57588589286421
 11
161.82610254502322
 21
119.45088589286421
  0
LINE
  8
_1-c_アンカ__類②
  6
CONTINUOUS
 62
    4
 10
161.52170254502323
 20
119.48423589286421
 11
161.82610254502322
 21
119.45088589286421
  0
LINE
  8
_1-c_アンカ__類②
  6
CONTINUOUS
 62
    4
 10
161.9772025450232
 20
120.57588589286421
 11
161.68160254502322
 21
120.54258589286421
  0
LINE
  8
_1-c_アンカ__類②
  6
CONTINUOUS
 62
    4
 10
161.9772025450232
 20
120.57588589286421
 11
162.12610254502323
 21
119.45088589286421
  0
LINE
  8
_1-c_アンカ__類②
  6
CONTINUOUS
 62
    4
 10
161.82170254502321
 20
119.48423589286421
 11
162.12610254502323
 21
119.45088589286421
  0
LINE
  8
_1-c_アンカ__類②
  6
CONTINUOUS
 62
    4
 10
162.27720254502321
 20
120.57588589286421
 11
161.98160254502324
 21
120.54258589286421
  0
LINE
  8
_1-c_アンカ__類②
  6
CONTINUOUS
 62
    4
 10
162.27720254502321
 20
120.57588589286421
 11
162.34385254502322
 21
120.07218589286421
  0
LINE
  8
_1-c_アンカ__類②
  6
CONTINUOUS
 62
    4
 10
162.2784025450232
 20
120.56703589286421
 11
162.34385254502322
 21
120.57588589286421
  0
LINE
  8
_1-c_アンカ__類②
  6
CONTINUOUS
 62
    4
 10
162.34385254502322
 20
120.57588589286421
 11
162.34385254502322
 21
119.45988589286421
  0
LINE
  8
_1-c_アンカ__類②
  6
CONTINUOUS
 62
    4
 10
162.12170254502323
 20
119.48423589286421
 11
162.34385254502322
 21
119.45988589286421
  0
LINE
  8
_1-c_アンカ__類②
  6
CONTINUOUS
 62
    4
 10
156.27720254502321
 20
120.57588589286421
 11
156.42610254502321
 21
119.45088589286421
  0
LINE
  8
_1-c_アンカ__類②
  6
CONTINUOUS
 62
    4
 10
156.28160254502322
 20
120.54258589286421
 11
156.57720254502323
 21
120.57588589286421
  0
LINE
  8
_1-c_アンカ__類②
  6
CONTINUOUS
 62
    4
 10
156.72610254502322
 20
119.45088589286421
 11
156.42170254502321
 21
119.48423589286421
  0
LINE
  8
_1-c_アンカ__類②
  6
CONTINUOUS
 62
    4
 10
156.24385254502323
 20
120.57213589286421
 11
156.27720254502321
 21
120.57588589286421
  0
LINE
  8
_1-c_アンカ__類②
  6
CONTINUOUS
 62
    4
 10
156.42610254502321
 20
119.45088589286421
 11
156.24385254502323
 21
119.47083589286422
  0
LINE
  8
_1-c_アンカ__類②
  6
CONTINUOUS
 62
    4
 10
156.24385254502323
 20
120.57213589286421
 11
156.24385254502323
 21
119.47083589286422
  0
ARC
  8
_1-c_アンカ__類②
  6
CONTINUOUS
 62
    4
 10
163.17485254502321
 20
119.29543589286421
 40
0.30545
 50
40.190000000000005
 51
139.81000000000003
  0
ARC
  8
_1-c_アンカ__類②
  6
CONTINUOUS
 62
    4
 10
163.17485254502321
 20
120.7396858928642
 40
0.30545
 50
220.19000000000005
 51
319.81000000000006
  0
ARC
  8
_1-c_アンカ__類②
  6
CONTINUOUS
 62
    4
 10
163.5832025450232
 20
120.0175858928642
 40
0.525
 50
270.00000000000006
 51
90.000000000000099
  0
ARC
  8
_1-c_アンカ__類②
  6
CONTINUOUS
 62
    4
 10
161.94150254502321
 20
120.0175858928642
 40
0.525
 50
90.000000000000028
 51
270.00000000000011
  0
ARC
  8
_1-c_アンカ__類②
  6
CONTINUOUS
 62
    4
 10
161.10820254502323
 20
120.0175858928642
 40
0.1666499999999999
 50
210.39100000000002
 51
149.60900000000018
  0
LINE
  8
_1-6_アンカ__類
  6
DASHED2
 62
    4
 10
153.30590254502323
 20
120.07184726585336
 11
162.63920254502324
 21
120.07184726585336
  0
LINE
  8
_1-6_アンカ__類
  6
CONTINUOUS
 62
    4
 10
164.84155254502321
 20
121.18423589286421
 11
164.84155254502321
 21
118.85088589286421
  0
LINE
  8
_1-6_アンカ__類
  6
CONTINUOUS
 62
    4
 10
165.04155254502319
 20
121.1669858928642
 11
165.04155254502319
 21
118.8681858928642
  0
LINE
  8
_1-6_アンカ__類
  6
CONTINUOUS
 62
    4
 10
164.84155254502321
 20
121.18423589286421
 11
164.25705254502321
 21
120.5997358928642
  0
LINE
  8
_1-6_アンカ__類
  6
CONTINUOUS
 62
    4
 10
164.84155254502321
 20
118.85088589286421
 11
164.25705254502321
 21
119.43543589286421
  0
LINE
  8
_1-6_アンカ__類
  6
CONTINUOUS
 62
    4
 10
164.2082025450232
 20
119.48423589286421
 11
164.2082025450232
 21
120.55088589286422
  0
ARC
  8
_1-6_アンカ__類
  6
CONTINUOUS
 62
    4
 10
164.84155254502321
 20
120.0175858928642
 40
1.16665
 50
80.129000000000019
 51
90.000000000000014
  0
ARC
  8
_1-6_アンカ__類
  6
CONTINUOUS
 62
    4
 10
164.84155254502321
 20
120.0175858928642
 40
1.16665
 50
270.00000000000006
 51
279.87100000000004
  0
ARC
  8
_1-6_アンカ__類
  6
CONTINUOUS
 62
    4
 10
164.13920254502321
 20
120.71758589286421
 40
0.1666499999999999
 50
270.00000000000006
 51
315.00000000000006
  0
ARC
  8
_1-6_アンカ__類
  6
CONTINUOUS
 62
    4
 10
164.13920254502321
 20
119.3175858928642
 40
0.1666499999999999
 50
45.000000000000014
 51
90.000000000000028
  0
LINE
  8
_1-6_アンカ__類
  6
CONTINUOUS
 62
    4
 10
160.7082025450232
 20
119.48423589286421
 11
164.13920254502321
 21
119.48423589286421
  0
LINE
  8
_1-6_アンカ__類
  6
CONTINUOUS
 62
    4
 10
160.7082025450232
 20
120.55088589286422
 11
164.13920254502321
 21
120.55088589286422
  0
LINE
  8
_1-6_アンカ__類
  6
CONTINUOUS
 62
    4
 10
152.47490254502321
 20
120.1018858928642
 11
152.47490254502321
 21
119.9332358928642
  0
LINE
  8
_1-6_アンカ__類
  6
CONTINUOUS
 62
    4
 10
152.47490254502321
 20
119.85088589286421
 11
153.60820254502323
 21
119.5008858928642
  0
LINE
  8
_1-6_アンカ__類
  6
CONTINUOUS
 62
    4
 10
152.47490254502321
 20
120.18423589286421
 11
153.60820254502323
 21
120.5342358928642
  0
LINE
  8
_1-6_アンカ__類
  6
CONTINUOUS
 62
    4
 10
153.60820254502323
 20
120.5342358928642
 11
153.60820254502323
 21
119.5008858928642
  0
LINE
  8
_1-6_アンカ__類
  6
CONTINUOUS
 62
    4
 10
153.60820254502323
 20
120.5342358928642
 11
154.60820254502323
 21
120.5342358928642
  0
LINE
  8
_1-6_アンカ__類
  6
CONTINUOUS
 62
    4
 10
153.60820254502323
 20
119.5008858928642
 11
154.60820254502323
 21
119.5008858928642
  0
ENDSEC
  0
EOF
