  0
SECTION
  2
HEADER
  9
$ACADVER
  1
AC1009
  9
$INSBASE
 10
0
 20
0
 30
0
  9
$EXTMIN
 10
0
 20
0
  9
$EXTMAX
 10
297
 20
210
  9
$LIMMIN
 10
0
 20
0
  9
$LIMMAX
 10
297
 20
210
  9
$LTSCALE
 40
1
  0
ENDSEC
  0
SECTION
  2
TABLES
  0
TABLE
  2
LTYPE
 70
     9
  0
LTYPE
  2
CONTINUOUS
 70
    64
  3
実線
 72
    65
 73
     0
 40
0.0
  0
LTYPE
  2
DASHED1
 70
    64
  3
--  --  --  --  --  --  --  --  
 72
    65
 73
     2
 40
2.5
 49
1.25
 49
-1.25
  0
LTYPE
  2
DASHED2
 70
    64
  3
----    ----    ----    ----    
 72
    65
 73
     2
 40
5.0
 49
2.5
 49
-2.5
  0
LTYPE
  2
DASHED3
 70
    64
  3
------  ------  ------  ------  
 72
    65
 73
     2
 40
5.0
 49
3.75
 49
-1.25
  0
LTYPE
  2
CENTER1
 70
    64
  3
----- - ----- - ----- - ----- - 
 72
    65
 73
     4
 40
10.0
 49
6.25
 49
-1.25
 49
1.25
 49
-1.25
  0
LTYPE
  2
CENTER2
 70
    64
  3
----------  --  ----------  --  
 72
    65
 73
     4
 40
20.0
 49
12.5
 49
-2.5
 49
2.5
 49
-2.5
  0
LTYPE
  2
PHANTOM1
 70
    64
  3
--- - - --- - - --- - - --- - - 
 72
    65
 73
     6
 40
10.0
 49
3.25
 49
-1.25
 49
1.25
 49
-1.25
 49
1.25
 49
-1.25
  0
LTYPE
  2
PHANTOM2
 70
    64
  3
--------  -  -  --------  -  -  
 72
    65
 73
     6
 40
20.0
 49
10.0
 49
-2.5
 49
1.25
 49
-2.5
 49
1.25
 49
-2.5
  0
LTYPE
  2
DOT
 70
    64
  3
-   -   -   -   -   -   -   -   
 72
    65
 73
     2
 40
2.5
 49
0.625
 49
-1.875
  0
LTYPE
  2
DUMMY
 70
    64
  3
ダミー
 72
    65
 73
     0
 40
0.0
  0
LTYPE
  2
RAND1
 70
    64
  3
ランダム線1
 72
    65
 73
     4
 40
10.0
 49
1.0
 49
-2.0
 49
3.0
 49
-4.0
  0
LTYPE
  2
RAND2
 70
    64
  3
ランダム線2
 72
    65
 73
     4
 40
14.0
 49
2.0
 49
-3.0
 49
4.0
 49
-5.0
  0
LTYPE
  2
RAND3
 70
    64
  3
ランダム線3
 72
    65
 73
     4
 40
18.0
 49
3.0
 49
-4.0
 49
5.0
 49
-6.0
  0
LTYPE
  2
RAND4
 70
    64
  3
ランダム線4
 72
    65
 73
     4
 40
22.0
 49
4.0
 49
-5.0
 49
6.0
 49
-7.0
  0
LTYPE
  2
RAND5
 70
    64
  3
ランダム線5
 72
    65
 73
     4
 40
26.0
 49
5.0
 49
-6.0
 49
7.0
 49
-8.0
  0
LTYPE
  2
LONG1
 70
    64
  3
----------  --  ----------  --  
 72
    65
 73
     4
 40
40.0
 49
32.5
 49
-2.5
 49
2.5
 49
-2.5
  0
LTYPE
  2
LONG2
 70
    64
  3
--------  -  -  --------  -  -  
 72
    65
 73
     6
 40
40.0
 49
30.0
 49
-2.5
 49
1.25
 49
-2.5
 49
1.25
 49
-2.5
  0
LTYPE
  2
LONG3
 70
    64
  3
+++++++++++++++..+++++++++++++++
 72
    65
 73
     2
 40
40.0
 49
37.5
 49
-2.5
  0
LTYPE
  2
LONG4
 70
    64
  3
+++++++++++++++..+++++++++++++++
 72
    65
 73
     2
 40
80.0
 49
75.0
 49
-5.0
  0
LTYPE
  2
LONG5
 70
    64
  3
----------  --  ----------  --  
 72
    65
 73
     4
 40
60.0
 49
37.5
 49
-7.5
 49
7.5
 49
-7.5
  0
LTYPE
  2
dashed
 70
   64
  3
-------   -------------   ------
 72
   65
 73
    2
 40
7.5
 49
6
 49
-1.5
  0
LTYPE
  2
dashed_spaced
 70
   64
  3
----        --------        ----
 72
   65
 73
    2
 40
12
 49
6
 49
-6
  0
LTYPE
  2
long_dashed_dotted
 70
   64
  3
------------- --- --------------
 72
   65
 73
    4
 40
15.25
 49
12
 49
-1.5
 49
0.25
 49
-1.5
  0
LTYPE
  2
long_dashed_double-dotted
 70
   64
  3
----------- --- --- ------------
 72
   65
 73
    6
 40
17
 49
12
 49
-1.5
 49
0.25
 49
-1.5
 49
0.25
 49
-1.5
  0
LTYPE
  2
long_dashed_triplicate-dotted
 70
   64
  3
--------- --- --- --- ----------
 72
   65
 73
    8
 40
18.75
 49
12
 49
-1.5
 49
0.25
 49
-1.5
 49
0.25
 49
-1.5
 49
0.25
 49
-1.5
  0
LTYPE
  2
dotted
 70
   64
  3
   -       -       -       -    
 72
   65
 73
    2
 40
1.75
 49
0.25
 49
-1.5
  0
LTYPE
  2
chain
 70
   64
  3
-------------- -- --------------
 72
   65
 73
    4
 40
18.5
 49
12
 49
-1.5
 49
3.5
 49
-1.5
  0
LTYPE
  2
chain_double_dash
 70
   64
  3
------------ -- -- -------------
 72
   65
 73
    6
 40
23.5
 49
12
 49
-1.5
 49
3.5
 49
-1.5
 49
3.5
 49
-1.5
  0
LTYPE
  2
dashed_dotted
 70
   64
  3
-----------     -     ----------
 72
   65
 73
    4
 40
9.25
 49
6
 49
-1.5
 49
0.25
 49
-1.5
  0
LTYPE
  2
double-dashed_dotted
 70
   64
  3
------   -----------   -   -----
 72
   65
 73
    6
 40
16.75
 49
6
 49
-1.5
 49
6
 49
-1.5
 49
0.25
 49
-1.5
  0
LTYPE
  2
dashed_double-dotted
 70
   64
  3
---------    -    -    ---------
 72
   65
 73
    6
 40
11
 49
6
 49
-1.5
 49
0.25
 49
-1.5
 49
0.25
 49
-1.5
  0
LTYPE
  2
double-dashed_double-dotted
 70
   64
  3
-----   ---------   -   -   ----
 72
   65
 73
    8
 40
18.5
 49
6
 49
-1.5
 49
6
 49
-1.5
 49
0.25
 49
-1.5
 49
0.25
 49
-1.5
  0
LTYPE
  2
dashed_triplicate-dotted
 70
   64
  3
-------    -    -    -    ------
 72
   65
 73
    8
 40
12.75
 49
6
 49
-1.5
 49
0.25
 49
-1.5
 49
0.25
 49
-1.5
 49
0.25
 49
-1.5
  0
LTYPE
  2
double-dashed_triplicate-dotted
 70
   64
  3
-----  ---------  -  -  -  -----
 72
   65
 73
   10
 40
20.25
 49
6
 49
-1.5
 49
6
 49
-1.5
 49
0.25
 49
-1.5
 49
0.25
 49
-1.5
 49
0.25
 49
-1.5
  0
LTYPE
  2
undefined
 70
   64
  3
--------------------------------
 72
   65
 73
    0
 40
0
  0
LTYPE
  2
AIGENLINE001
 70
   64
  3
                                
 72
   65
 73
    4
 40
4.2333600000000002
 49
2.1166800000000001
 49
-0.7055599999999999
 49
0.7055599999999999
 49
-0.7055599999999999
  0
LTYPE
  2
2-AXIS
 70
   64
  3
                                
 72
   65
 73
    0
 40
0
  0
LTYPE
  2
BORDER
 70
   64
  3
                                
 72
   65
 73
    0
 40
0
  0
LTYPE
  2
BORDER2
 70
   64
  3
                                
 72
   65
 73
    0
 40
0
  0
LTYPE
  2
BORDERX2
 70
   64
  3
                                
 72
   65
 73
    0
 40
0
  0
LTYPE
  2
CENTER
 70
   64
  3
                                
 72
   65
 73
    0
 40
0
  0
LTYPE
  2
CENTER2_23
 70
   64
  3
                                
 72
   65
 73
    0
 40
0
  0
LTYPE
  2
CENTERX2
 70
   64
  3
                                
 72
   65
 73
    0
 40
0
  0
LTYPE
  2
DASHDOT
 70
   64
  3
                                
 72
   65
 73
    0
 40
0
  0
LTYPE
  2
DASHDOT2
 70
   64
  3
                                
 72
   65
 73
    0
 40
0
  0
LTYPE
  2
DASHDOTX2
 70
   64
  3
                                
 72
   65
 73
    0
 40
0
  0
LTYPE
  2
DASHED
 70
   64
  3
                                
 72
   65
 73
    0
 40
0
  0
LTYPE
  2
DASHED2_29
 70
   64
  3
                                
 72
   65
 73
    0
 40
0
  0
LTYPE
  2
DASHEDX2
 70
   64
  3
                                
 72
   65
 73
    0
 40
0
  0
LTYPE
  2
DIVIDE
 70
   64
  3
                                
 72
   65
 73
    0
 40
0
  0
LTYPE
  2
DIVIDE2
 70
   64
  3
                                
 72
   65
 73
    0
 40
0
  0
ENDTAB
  0
TABLE
  2
STYLE
  5
3
100
AcDbSymbolTable
 70
     1
  0
STYLE
  5
10
100
AcDbSymbolTableRecord
100
AcDbTextStyleTableRecord
  2
STANDARD
 70
     0
 40
0.0
 41
1.0
 50
0.0
 71
     0
 42
0.2
  3
txt
  4
bigfont.shx
  0
STYLE
  5
26
100
AcDbSymbolTableRecord
100
AcDbTextStyleTableRecord
  2
TATEGAKI
 70
    68
 40
0.0
 41
1.0
 50
0.0
 71
     0
 42
1.0
  3
txt
  4
bigfont.shx
  0
ENDTAB
  0
TABLE
  2
LAYER
 70
   14
  0
LAYER
  2
_1-2_ハッチング
 70
   64
 62
    7
  6
CONTINUOUS
  0
LAYER
  2
_1-3_断熱材
 70
   64
 62
    7
  6
CONTINUOUS
  0
LAYER
  2
_1-4_リベットル__フ
 70
   64
 62
    7
  6
CONTINUOUS
  0
LAYER
  2
_1-5_ＦＬ鋼板__ディスク
 70
   64
 62
    7
  6
CONTINUOUS
  0
LAYER
  2
_1-6_アンカ__類
 70
   64
 62
    7
  6
CONTINUOUS
  0
LAYER
  2
_1-7_設備
 70
   64
 62
    7
  6
CONTINUOUS
  0
LAYER
  2
_1-8_下地など
 70
   64
 62
    7
  6
CONTINUOUS
  0
LAYER
  2
_1-a_元図__躯体
 70
   64
 62
    7
  6
CONTINUOUS
  0
LAYER
  2
_1-b_その他
 70
   64
 62
    7
  6
CONTINUOUS
  0
LAYER
  2
_1-c_アンカ__類②
 70
   64
 62
    7
  6
CONTINUOUS
  0
LAYER
  2
_1-d_設備②
 70
   64
 62
    7
  6
CONTINUOUS
  0
LAYER
  2
_e-e_
 70
   64
 62
    7
  6
CONTINUOUS
  0
LAYER
  2
_f-f_
 70
   64
 62
    7
  6
CONTINUOUS
  0
LAYER
  2
ADD_LINE
 70
   64
 62
    7
  6
CONTINUOUS
  0
ENDTAB
  0
ENDSEC
  0
SECTION
  2
BLOCKS
  0
BLOCK
  2
-000-
 70
   64
 10
0
 20
0
 30
0
  0
LINE
  8
_1-d_設備②
  6
CONTINUOUS
 62
    9
 10
-3.166666666666675
 20
-1.9497720162286427
 11
3.1666666666666767
 21
-1.9497720162286427
  0
ARC
  8
_1-d_設備②
  6
CONTINUOUS
 62
    9
 10
-1.4999999999999858
 20
1.7168946504380287
 40
0.6666666666666666
 50
90
 51
180
  0
LINE
  8
_1-d_設備②
  6
CONTINUOUS
 62
    9
 10
1.4999999999999858
 20
2.3835613171046859
 11
-1.4999999999999858
 21
2.3835613171046859
  0
ARC
  8
_1-d_設備②
  6
CONTINUOUS
 62
    9
 10
1.4999999999999858
 20
1.7168946504380287
 40
0.6666666666666666
 50
0
 51
90
  0
LINE
  8
_1-d_設備②
  6
CONTINUOUS
 62
    9
 10
2.1666666666666625
 20
0.3402026758431802
 11
2.1666666666666625
 21
1.7168946504380287
  0
ARC
  8
_1-d_設備②
  6
CONTINUOUS
 62
    9
 10
2.5
 20
0.3402026758431802
 40
0.3333333333333333
 50
180
 51
220.60129464500474
  0
LINE
  8
_1-d_設備②
  6
CONTINUOUS
 62
    9
 10
-2.1666666666666607
 20
0.3402026758431802
 11
-2.1666666666666607
 21
1.7168946504380287
  0
ARC
  8
_1-d_設備②
  6
CONTINUOUS
 62
    9
 10
-2.5
 20
0.3402026758431802
 40
0.3333333333333333
 50
319.39870535499523
 51
0
  0
LINE
  8
_1-d_設備②
  6
CONTINUOUS
 62
    9
 10
-3.0864188674550981
 20
-0.8561495838151458
 11
-2.2469144658782376
 21
0.1232722180245318
  0
LINE
  8
_1-d_設備②
  6
CONTINUOUS
 62
    9
 10
-3.166666666666675
 20
-1.0730800416337942
 11
-3.166666666666675
 21
-1.9497720162286427
  0
ARC
  8
_1-d_設備②
  6
CONTINUOUS
 62
    9
 10
-2.8333333333333357
 20
-1.0730800416337942
 40
0.3333333333333333
 50
139.39870535499551
 51
180
  0
LINE
  8
_1-d_設備②
  6
CONTINUOUS
 62
    9
 10
3.0864188674550999
 20
-0.8561495838151458
 11
2.2469144658782394
 21
0.1232722180245318
  0
LINE
  8
_1-d_設備②
  6
CONTINUOUS
 62
    9
 10
3.1666666666666767
 20
-1.0730800416337942
 11
3.1666666666666767
 21
-1.9497720162286427
  0
ARC
  8
_1-d_設備②
  6
CONTINUOUS
 62
    9
 10
2.8333333333333393
 20
-1.0730800416337942
 40
0.3333333333333333
 50
0
 51
40.601294645004472
  0
LINE
  8
_1-d_設備②
  6
CONTINUOUS
 62
    9
 10
-3.0000000000000071
 20
-0.9497720162286427
 11
3.0000000000000107
 21
-0.9497720162286427
  0
LINE
  8
_1-d_設備②
  6
CONTINUOUS
 62
    9
 10
-1.9999999999999929
 20
0.2465802434296904
 11
1.9999999999999964
 21
0.2465802434296904
  0
ENDBLK
  0
ENDSEC
  0
SECTION
  2
ENTITIES
  0
LINE
  8
_f-f_
  6
CONTINUOUS
 62
    7
 10
13.5
 20
197
 11
13.5
 21
17
  0
LINE
  8
_f-f_
  6
CONTINUOUS
 62
    7
 10
13.5
 20
197
 11
283.5
 21
197
  0
LINE
  8
_f-f_
  6
CONTINUOUS
 62
    7
 10
283.5
 20
197
 11
283.5
 21
17
  0
LINE
  8
_f-f_
  6
CONTINUOUS
 62
    7
 10
283.5
 20
17
 11
13.5
 21
17
  0
SOLID
  8
_f-f_
  6
CONTINUOUS
 62
    5
 10
236.97536482015869
 20
15.135014055698207
 11
235.41260194015859
 21
14.597233959698244
 12
233.7490795136022
 22
12.030232905347191
 13
233.7490795136022
 23
12.030232905347191
  0
SOLID
  8
_f-f_
  6
CONTINUOUS
 62
    5
 10
236.97536482015869
 20
15.135014055698207
 11
235.44783384279719
 21
14.653922266010412
 12
235.41260194015859
 22
14.597233959698244
 13
235.41260194015859
 23
14.597233959698244
  0
SOLID
  8
_f-f_
  6
CONTINUOUS
 62
    5
 10
236.97536482015869
 20
15.135014055698207
 11
235.44348964523115
 21
14.814711211354776
 12
235.44783384279719
 22
14.653922266010412
 13
235.44783384279719
 23
14.653922266010412
  0
SOLID
  8
_f-f_
  6
CONTINUOUS
 62
    5
 10
236.97536482015869
 20
15.135014055698207
 11
235.37802752940809
 21
14.882325091646777
 12
235.44348964523115
 22
14.814711211354776
 13
235.44348964523115
 23
14.814711211354776
  0
SOLID
  8
_f-f_
  6
CONTINUOUS
 62
    5
 10
236.97536482015869
 20
15.135014055698207
 11
235.23671672676957
 21
14.943561152901822
 12
235.37802752940809
 22
14.882325091646777
 13
235.37802752940809
 23
14.882325091646777
  0
SOLID
  8
_f-f_
  6
CONTINUOUS
 62
    5
 10
236.97536482015869
 20
15.135014055698207
 11
231.75858153825016
 21
14.827104307519747
 12
235.23671672676957
 22
14.943561152901822
 13
235.23671672676957
 23
14.943561152901822
  0
SOLID
  8
_f-f_
  6
CONTINUOUS
 62
    5
 10
236.97536482015869
 20
15.135014055698207
 11
232.06580002015863
 21
15.134816487698203
 12
231.75858153825016
 22
14.827104307519747
 13
231.75858153825016
 23
14.827104307519747
  0
SOLID
  8
_f-f_
  6
CONTINUOUS
 62
    5
 10
233.7490795136022
 20
12.030232905347191
 11
237.28752157062101
 21
14.827697368205875
 12
236.97536482015869
 22
15.135014055698207
 13
236.97536482015869
 23
15.135014055698207
  0
SOLID
  8
_f-f_
  6
CONTINUOUS
 62
    5
 10
233.7490795136022
 20
12.030232905347191
 11
237.23911742342443
 21
14.662629348534509
 12
237.28752157062101
 22
14.827697368205875
 13
237.28752157062101
 23
14.827697368205875
  0
SOLID
  8
_f-f_
  6
CONTINUOUS
 62
    5
 10
233.7490795136022
 20
12.030232905347191
 11
234.52749735533226
 21
10.733752628573797
 12
234.7892749001586
 22
10.88042668929819
 13
234.7892749001586
 23
10.88042668929819
  0
SOLID
  8
_f-f_
  6
CONTINUOUS
 62
    5
 10
233.7490795136022
 20
12.030232905347191
 11
234.31609954015863
 21
10.81863729729821
 12
234.52749735533226
 22
10.733752628573797
 13
234.52749735533226
 23
10.733752628573797
  0
SOLID
  8
_f-f_
  6
CONTINUOUS
 62
    5
 10
233.7490795136022
 20
12.030232905347191
 11
233.74611586015862
 21
11.682740458898223
 12
234.31609954015863
 22
10.81863729729821
 13
234.31609954015863
 23
10.81863729729821
  0
SOLID
  8
_f-f_
  6
CONTINUOUS
 62
    5
 10
233.7490795136022
 20
12.030232905347191
 11
233.69277264325217
 21
11.856303946266479
 12
233.74611586015862
 22
11.682740458898223
 13
233.74611586015862
 23
11.682740458898223
  0
SOLID
  8
_f-f_
  6
CONTINUOUS
 62
    5
 10
231.75858153825016
 20
14.827104307519747
 11
235.08661474015867
 21
14.909095047698244
 12
235.23671672676957
 22
14.943561152901822
 13
235.23671672676957
 23
14.943561152901822
  0
SOLID
  8
_f-f_
  6
CONTINUOUS
 62
    5
 10
231.75858153825016
 20
14.827104307519747
 11
233.61868450015868
 21
12.669167847698219
 12
235.08661474015867
 22
14.909095047698244
 13
235.08661474015867
 23
14.909095047698244
  0
SOLID
  8
_f-f_
  6
CONTINUOUS
 62
    5
 10
231.75858153825016
 20
14.827104307519747
 11
233.36184569383056
 21
12.528992955061909
 12
233.61868450015868
 22
12.669167847698219
 13
233.61868450015868
 23
12.669167847698219
  0
SOLID
  8
_f-f_
  6
CONTINUOUS
 62
    5
 10
231.75858153825016
 20
14.827104307519747
 11
233.14254562015859
 21
12.622541799698183
 12
233.36184569383056
 22
12.528992955061909
 13
233.36184569383056
 23
12.528992955061909
  0
SOLID
  8
_f-f_
  6
CONTINUOUS
 62
    5
 10
231.75858153825016
 20
14.827104307519747
 11
231.79611970015864
 21
14.683571175698262
 12
233.14254562015859
 22
12.622541799698183
 13
233.14254562015859
 23
12.622541799698183
  0
ARC
  8
_f-f_
  6
CONTINUOUS
 62
    1
 10
235.22789232415863
 20
14.712033315698221
 40
0.217477092
 50
328.13846999999998
 51
2.2615330000000116
  0
ARC
  8
_f-f_
  6
CONTINUOUS
 62
    1
 10
235.20651958255868
 20
14.716275265298208
 40
0.2387205912
 50
1.0417719999999999
 51
44.073639999999997
  0
ARC
  8
_f-f_
  6
CONTINUOUS
 62
    1
 10
235.19156286175863
 20
14.452033827698216
 40
0.4689556368
 50
66.570734999999999
 51
102.931843
  0
ARC
  8
_f-f_
  6
CONTINUOUS
 62
    1
 10
237.02758780495867
 20
14.814288750098285
 40
0.260279376
 50
324.36078900000001
 51
2.9529709999999993
  0
ARC
  8
_f-f_
  6
CONTINUOUS
 62
    1
 10
232.07207198095867
 20
14.832415614098267
 40
0.3135354768
 50
180.97063600000004
 51
208.34173000000004
  0
ARC
  8
_f-f_
  6
CONTINUOUS
 62
    1
 10
233.98573291615867
 20
11.857541216498191
 40
0.2929628856
 50
143.88086999999999
 51
180.24197799999999
  0
ARC
  8
_f-f_
  6
CONTINUOUS
 62
    1
 10
234.52945733935863
 20
11.04430852209822
 40
0.3105620784
 50
226.60652999999999
 51
269.63839899999999
  0
ARC
  8
_f-f_
  6
CONTINUOUS
 62
    1
 10
234.52688648575864
 20
11.041782944498237
 40
0.3080315616
 50
270.11356000000001
 51
328.41042499999998
  0
ARC
  8
_f-f_
  6
CONTINUOUS
 62
    1
 10
234.00220761775864
 20
11.856427426898193
 40
0.3094359408
 50
180.022864
 51
214.145926
  0
ARC
  8
_f-f_
  6
CONTINUOUS
 62
    1
 10
233.36445399775863
 20
12.838928151698155
 40
0.3099455016
 50
224.27817500000003
 51
269.51790500000004
  0
ARC
  8
_f-f_
  6
CONTINUOUS
 62
    1
 10
233.35885129855865
 20
12.839866599698212
 40
0.3108880655999999
 50
270.55186700000002
 51
326.69684100000006
  0
ARC
  8
_f-f_
  6
CONTINUOUS
 62
    1
 10
236.97555497935861
 20
14.823012200498198
 40
0.3120026784
 50
0.860427
 51
90.034943999999982
  0
ARC
  8
_f-f_
  6
CONTINUOUS
 62
    1
 10
232.06827949855861
 20
14.825122062098245
 40
0.309704304
 50
90.458761999999993
 51
179.63327899999999
  0
SOLID
  8
_f-f_
  6
CONTINUOUS
 62
   70
 10
235.3592583789839
 20
15.664101361536453
 11
236.00431761052957
 21
15.467422329706778
 12
236.2927671804093
 22
15.73818913178016
 13
236.2927671804093
 23
15.73818913178016
  0
SOLID
  8
_f-f_
  6
CONTINUOUS
 62
   70
 10
235.60029133369804
 20
16.279624399265259
 11
235.3592583789839
 21
15.664101361536453
 12
236.5328128054206
 22
16.353613516858246
 13
236.2927671804093
 23
15.73818913178016
  0
SOLID
  8
_f-f_
  6
CONTINUOUS
 62
   70
 10
236.19101981268187
 20
16.670512794070959
 11
235.60029133369804
 21
16.279624399265259
 12
236.42019869045436
 22
16.615391008345767
 13
236.5328128054206
 23
16.353613516858246
  0
ARC
  8
_f-f_
  6
CONTINUOUS
 62
    1
 10
236.00221070815871
 20
16.616671155698256
 40
1.1492505864
 50
235.98198100000002
 51
270.10504300000002
  0
ARC
  8
_f-f_
  6
CONTINUOUS
 62
    1
 10
235.63663664335866
 20
16.148141113298266
 40
0.7736713488000001
 50
298.37509499999999
 51
328.00274300000001
  0
ARC
  8
_f-f_
  6
CONTINUOUS
 62
    1
 10
234.71712471295865
 20
16.707292304498239
 40
1.8498135431999998
 50
328.40629300000006
 51
348.97735100000006
  0
ARC
  8
_f-f_
  6
CONTINUOUS
 62
    1
 10
237.17571194335866
 20
15.307750227698264
 40
1.8510779783999998
 50
148.329635
 51
168.90069299999999
  0
ARC
  8
_f-f_
  6
CONTINUOUS
 62
    1
 10
236.05002628015859
 20
16.301035695698289
 40
0.4856410776
 50
6.2152969999999996
 51
40.338358999999997
  0
SOLID
  8
_f-f_
  6
CONTINUOUS
 62
    5
 10
233.7490795136022
 20
12.030232905347191
 11
234.7892749001586
 21
10.88042668929819
 12
237.23911742342443
 22
14.662629348534509
 13
237.23911742342443
 23
14.662629348534509
  0
ARC
  8
_f-f_
  6
CONTINUOUS
 62
    1
 10
236.23946353375865
 20
16.367937159698243
 40
0.3064287911999999
 50
53.856383000000008
 51
99.096113000000003
  0
ARC
  8
_f-f_
  6
CONTINUOUS
 62
    1
 10
236.36472164575864
 20
15.766194423698238
 40
0.9208496303999999
 50
100.872968
 51
146.11269799999999
  0
LINE
  8
_f-f_
  6
CONTINUOUS
 62
    7
 10
267.37625600000001
 20
14.687935999999993
 11
267.06892800000003
 21
14.687935999999993
  0
LINE
  8
_f-f_
  6
CONTINUOUS
 62
    7
 10
267.06892800000003
 20
14.687935999999993
 11
267.06892800000003
 21
13.853760000000037
  0
LINE
  8
_f-f_
  6
CONTINUOUS
 62
    7
 10
267.04697599999997
 20
13.458624000000043
 11
267.02502399999992
 21
13.370815999999991
  0
LINE
  8
_f-f_
  6
CONTINUOUS
 62
    7
 10
267.02502399999992
 20
13.370815999999991
 11
267.02502399999992
 21
13.326912000000021
  0
LINE
  8
_f-f_
  6
CONTINUOUS
 62
    7
 10
267.02502399999992
 20
13.326912000000021
 11
266.99209599999995
 21
13.195199999999971
  0
LINE
  8
_f-f_
  6
CONTINUOUS
 62
    7
 10
266.99209599999995
 20
13.195199999999971
 11
266.97014399999995
 21
13.151296000000031
  0
LINE
  8
_f-f_
  6
CONTINUOUS
 62
    7
 10
266.97014399999995
 20
13.151296000000031
 11
266.93721599999992
 21
13.019583999999952
  0
LINE
  8
_f-f_
  6
CONTINUOUS
 62
    7
 10
266.93721599999992
 20
13.019583999999952
 11
266.91526399999998
 21
12.975680000000011
  0
LINE
  8
_f-f_
  6
CONTINUOUS
 62
    7
 10
266.91526399999998
 20
12.975680000000011
 11
266.90428799999995
 21
12.931776000000013
  0
LINE
  8
_f-f_
  6
CONTINUOUS
 62
    7
 10
266.90428799999995
 20
12.931776000000013
 11
266.88233600000001
 21
12.887871999999987
  0
LINE
  8
_f-f_
  6
CONTINUOUS
 62
    7
 10
266.88233600000001
 20
12.887871999999987
 11
266.87135999999998
 21
12.84396799999999
  0
LINE
  8
_f-f_
  6
CONTINUOUS
 62
    7
 10
266.87135999999998
 20
12.84396799999999
 11
266.82745599999998
 21
12.756160000000023
  0
LINE
  8
_f-f_
  6
CONTINUOUS
 62
    7
 10
266.82745599999998
 20
12.756160000000023
 11
266.81647999999996
 21
12.712256000000025
  0
LINE
  8
_f-f_
  6
CONTINUOUS
 62
    7
 10
266.81647999999996
 20
12.712256000000025
 11
266.7506239999999
 21
12.580544000000003
  0
LINE
  8
_f-f_
  6
CONTINUOUS
 62
    7
 10
266.7506239999999
 20
12.580544000000003
 11
266.71769599999999
 21
12.536639999999977
  0
LINE
  8
_f-f_
  6
CONTINUOUS
 62
    7
 10
266.71769599999999
 20
12.536639999999977
 11
266.67379199999993
 21
12.448831999999982
  0
LINE
  8
_f-f_
  6
CONTINUOUS
 62
    7
 10
266.67379199999993
 20
12.448831999999982
 11
266.64086399999997
 21
12.404927999999984
  0
LINE
  8
_f-f_
  6
CONTINUOUS
 62
    7
 10
266.64086399999997
 20
12.404927999999984
 11
266.61891199999997
 21
12.361024000000015
  0
LINE
  8
_f-f_
  6
CONTINUOUS
 62
    7
 10
266.61891199999997
 20
12.361024000000015
 11
266.48719999999992
 21
12.185407999999995
  0
LINE
  8
_f-f_
  6
CONTINUOUS
 62
    7
 10
266.48719999999992
 20
12.185407999999995
 11
266.44329599999992
 21
12.141503999999998
  0
LINE
  8
_f-f_
  6
CONTINUOUS
 62
    7
 10
266.44329599999992
 20
12.141503999999998
 11
266.41036799999995
 21
12.0976
  0
LINE
  8
_f-f_
  6
CONTINUOUS
 62
    7
 10
266.41036799999995
 20
12.0976
 11
266.36646399999995
 21
12.053696000000031
  0
LINE
  8
_f-f_
  6
CONTINUOUS
 62
    7
 10
266.36646399999995
 20
12.053696000000031
 11
266.36646399999995
 21
12.009792000000004
  0
LINE
  8
_f-f_
  6
CONTINUOUS
 62
    7
 10
266.36646399999995
 20
12.009792000000004
 11
266.38841599999989
 21
11.965888000000007
  0
LINE
  8
_f-f_
  6
CONTINUOUS
 62
    7
 10
266.38841599999989
 20
11.965888000000007
 11
266.42134399999998
 21
11.921984000000009
  0
LINE
  8
_f-f_
  6
CONTINUOUS
 62
    7
 10
266.42134399999998
 20
11.921984000000009
 11
266.44329599999992
 21
11.878080000000011
  0
LINE
  8
_f-f_
  6
CONTINUOUS
 62
    7
 10
266.44329599999992
 20
11.878080000000011
 11
266.476224
 21
11.834176000000014
  0
LINE
  8
_f-f_
  6
CONTINUOUS
 62
    7
 10
266.476224
 20
11.834176000000014
 11
266.49817599999994
 21
11.790272000000016
  0
LINE
  8
_f-f_
  6
CONTINUOUS
 62
    7
 10
266.49817599999994
 20
11.790272000000016
 11
266.53110399999997
 21
11.746368000000018
  0
LINE
  8
_f-f_
  6
CONTINUOUS
 62
    7
 10
266.53110399999997
 20
11.746368000000018
 11
266.55305599999997
 21
11.70246400000002
  0
LINE
  8
_f-f_
  6
CONTINUOUS
 62
    7
 10
269.22022399999992
 20
14.687935999999993
 11
268.9019199999999
 21
14.687935999999993
  0
LINE
  8
_f-f_
  6
CONTINUOUS
 62
    7
 10
268.9019199999999
 20
14.687935999999993
 11
268.9019199999999
 21
13.941568000000032
  0
LINE
  8
_f-f_
  6
CONTINUOUS
 62
    7
 10
268.9019199999999
 20
13.941568000000032
 11
268.56166399999995
 21
13.941568000000032
  0
LINE
  8
_f-f_
  6
CONTINUOUS
 62
    7
 10
268.37507199999993
 20
14.336704000000026
 11
268.35311999999999
 21
14.336704000000026
  0
LINE
  8
_f-f_
  6
CONTINUOUS
 62
    7
 10
268.35311999999999
 20
14.336704000000026
 11
268.34214399999996
 21
14.292800000000028
  0
LINE
  8
_f-f_
  6
CONTINUOUS
 62
    7
 10
268.34214399999996
 20
14.292800000000028
 11
268.32019199999996
 21
14.248896000000016
  0
LINE
  8
_f-f_
  6
CONTINUOUS
 62
    7
 10
268.32019199999996
 20
14.248896000000016
 11
268.29823999999996
 21
14.161087999999992
  0
LINE
  8
_f-f_
  6
CONTINUOUS
 62
    7
 10
268.29823999999996
 20
14.161087999999992
 11
268.27628800000002
 21
14.117184000000023
  0
LINE
  8
_f-f_
  6
CONTINUOUS
 62
    7
 10
268.27628800000002
 20
14.117184000000023
 11
268.26531199999999
 21
14.073279999999997
  0
LINE
  8
_f-f_
  6
CONTINUOUS
 62
    7
 10
268.26531199999999
 20
14.073279999999997
 11
268.24335999999994
 21
14.029375999999999
  0
LINE
  8
_f-f_
  6
CONTINUOUS
 62
    7
 10
268.24335999999994
 20
14.029375999999999
 11
268.23238399999997
 21
13.985471999999987
  0
LINE
  8
_f-f_
  6
CONTINUOUS
 62
    7
 10
268.23238399999997
 20
13.985471999999987
 11
268.18847999999991
 21
13.897663999999992
  0
LINE
  8
_f-f_
  6
CONTINUOUS
 62
    7
 10
268.18847999999991
 20
13.897663999999992
 11
268.17750399999989
 21
13.853760000000037
  0
LINE
  8
_f-f_
  6
CONTINUOUS
 62
    7
 10
268.17750399999989
 20
13.853760000000037
 11
268.11164799999995
 21
13.722048000000001
  0
LINE
  8
_f-f_
  6
CONTINUOUS
 62
    7
 10
268.11164799999995
 20
13.722048000000001
 11
268.07871999999998
 21
13.678143999999975
  0
LINE
  8
_f-f_
  6
CONTINUOUS
 62
    7
 10
268.07871999999998
 20
13.678143999999975
 11
268.03481599999992
 21
13.590336000000008
  0
LINE
  8
_f-f_
  6
CONTINUOUS
 62
    7
 10
268.03481599999992
 20
13.590336000000008
 11
267.90310399999998
 21
13.414720000000017
  0
LINE
  8
_f-f_
  6
CONTINUOUS
 62
    7
 10
267.90310399999998
 20
13.414720000000017
 11
267.85919999999999
 21
13.370815999999991
  0
LINE
  8
_f-f_
  6
CONTINUOUS
 62
    7
 10
267.85919999999999
 20
13.370815999999991
 11
267.99091199999998
 21
13.239103999999998
  0
LINE
  8
_f-f_
  6
CONTINUOUS
 62
    7
 10
267.99091199999998
 20
13.239103999999998
 11
268.02383999999995
 21
13.195199999999971
  0
LINE
  8
_f-f_
  6
CONTINUOUS
 62
    7
 10
268.02383999999995
 20
13.195199999999971
 11
268.11164799999995
 21
13.107392000000061
  0
LINE
  8
_f-f_
  6
CONTINUOUS
 62
    7
 10
268.9019199999999
 20
13.546432000000038
 11
268.9019199999999
 21
13.019583999999952
  0
LINE
  8
_f-f_
  6
CONTINUOUS
 62
    7
 10
268.87996799999996
 20
12.624447999999973
 11
268.85801599999996
 21
12.580544000000003
  0
LINE
  8
_f-f_
  6
CONTINUOUS
 62
    7
 10
268.85801599999996
 20
12.580544000000003
 11
268.82508799999994
 21
12.536639999999977
  0
LINE
  8
_f-f_
  6
CONTINUOUS
 62
    7
 10
268.82508799999994
 20
12.536639999999977
 11
268.80313599999999
 21
12.492735999999979
  0
LINE
  8
_f-f_
  6
CONTINUOUS
 62
    7
 10
268.80313599999999
 20
12.492735999999979
 11
268.70435199999997
 21
12.361024000000015
  0
LINE
  8
_f-f_
  6
CONTINUOUS
 62
    7
 10
268.70435199999997
 20
12.361024000000015
 11
268.68239999999997
 21
12.317120000000017
  0
LINE
  8
_f-f_
  6
CONTINUOUS
 62
    7
 10
268.68239999999997
 20
12.317120000000017
 11
268.64947199999995
 21
12.273216000000019
  0
LINE
  8
_f-f_
  6
CONTINUOUS
 62
    7
 10
268.64947199999995
 20
12.273216000000019
 11
268.60556799999995
 21
12.229311999999993
  0
LINE
  8
_f-f_
  6
CONTINUOUS
 62
    7
 10
268.60556799999995
 20
12.229311999999993
 11
268.50678399999998
 21
12.0976
  0
LINE
  8
_f-f_
  6
CONTINUOUS
 62
    7
 10
268.50678399999998
 20
12.0976
 11
268.41897599999993
 21
12.009792000000004
  0
LINE
  8
_f-f_
  6
CONTINUOUS
 62
    7
 10
268.41897599999993
 20
12.009792000000004
 11
268.38604799999996
 21
11.965888000000007
  0
LINE
  8
_f-f_
  6
CONTINUOUS
 62
    7
 10
268.38604799999996
 20
11.965888000000007
 11
268.21043199999997
 21
11.790272000000016
  0
LINE
  8
_f-f_
  6
CONTINUOUS
 62
    7
 10
268.21043199999997
 20
11.790272000000016
 11
268.15555199999994
 21
11.746368000000018
  0
LINE
  8
_f-f_
  6
CONTINUOUS
 62
    7
 10
268.15555199999994
 20
11.746368000000018
 11
268.11164799999995
 21
11.70246400000002
  0
LINE
  8
_f-f_
  6
CONTINUOUS
 62
    7
 10
268.11164799999995
 20
11.70246400000002
 11
268.05676799999998
 21
11.658559999999994
  0
LINE
  8
_f-f_
  6
CONTINUOUS
 62
    7
 10
268.05676799999998
 20
11.658559999999994
 11
268.01286399999992
 21
11.614655999999997
  0
LINE
  8
_f-f_
  6
CONTINUOUS
 62
    7
 10
268.01286399999992
 20
11.614655999999997
 11
267.95798399999995
 21
11.570752000000027
  0
LINE
  8
_f-f_
  6
CONTINUOUS
 62
    7
 10
267.95798399999995
 20
11.570752000000027
 11
267.89212799999996
 21
11.52684800000003
  0
LINE
  8
_f-f_
  6
CONTINUOUS
 62
    7
 10
267.89212799999996
 20
11.52684800000003
 11
267.72748799999999
 21
11.395136000000008
  0
LINE
  8
_f-f_
  6
CONTINUOUS
 62
    7
 10
267.72748799999999
 20
11.395136000000008
 11
267.79334399999999
 21
11.263423999999986
  0
LINE
  8
_f-f_
  6
CONTINUOUS
 62
    7
 10
267.79334399999999
 20
11.263423999999986
 11
267.8262719999999
 21
11.219519999999989
  0
LINE
  8
_f-f_
  6
CONTINUOUS
 62
    7
 10
267.8262719999999
 20
11.219519999999989
 11
267.89212799999996
 21
11.087808000000024
  0
LINE
  8
_f-f_
  6
CONTINUOUS
 62
    7
 10
267.44211199999995
 20
12.536639999999977
 11
267.48601599999995
 21
12.492735999999979
  0
LINE
  8
_f-f_
  6
CONTINUOUS
 62
    7
 10
267.48601599999995
 20
12.492735999999979
 11
267.61772799999994
 21
12.317120000000017
  0
LINE
  8
_f-f_
  6
CONTINUOUS
 62
    7
 10
267.61772799999994
 20
12.317120000000017
 11
267.63968
 21
12.273216000000019
  0
LINE
  8
_f-f_
  6
CONTINUOUS
 62
    7
 10
267.63968
 20
12.273216000000019
 11
267.67260799999997
 21
12.229311999999993
  0
LINE
  8
_f-f_
  6
CONTINUOUS
 62
    7
 10
267.67260799999997
 20
12.229311999999993
 11
267.69455999999997
 21
12.185407999999995
  0
LINE
  8
_f-f_
  6
CONTINUOUS
 62
    7
 10
267.69455999999997
 20
12.185407999999995
 11
267.72748799999999
 21
12.141503999999998
  0
LINE
  8
_f-f_
  6
CONTINUOUS
 62
    7
 10
267.06892800000003
 20
12.448831999999982
 11
267.06892800000003
 21
10.736576000000014
  0
LINE
  8
_f-f_
  6
CONTINUOUS
 62
    7
 10
268.9019199999999
 20
12.0976
 11
268.9019199999999
 21
10.736576000000014
  0
LINE
  8
_f-f_
  6
CONTINUOUS
 62
    7
 10
269.27510399999994
 20
12.0976
 11
269.37388799999991
 21
11.965888000000007
  0
LINE
  8
_f-f_
  6
CONTINUOUS
 62
    7
 10
269.37388799999991
 20
11.965888000000007
 11
269.41779199999996
 21
11.921984000000009
  0
LINE
  8
_f-f_
  6
CONTINUOUS
 62
    7
 10
269.41779199999996
 20
11.921984000000009
 11
269.45071999999993
 21
11.878080000000011
  0
LINE
  8
_f-f_
  6
CONTINUOUS
 62
    7
 10
269.45071999999993
 20
11.878080000000011
 11
269.49462399999999
 21
11.834176000000014
  0
LINE
  8
_f-f_
  6
CONTINUOUS
 62
    7
 10
269.49462399999999
 20
11.834176000000014
 11
269.5275519999999
 21
11.790272000000016
  0
LINE
  8
_f-f_
  6
CONTINUOUS
 62
    7
 10
269.5275519999999
 20
11.790272000000016
 11
269.70316800000001
 21
11.614655999999997
  0
LINE
  8
_f-f_
  6
CONTINUOUS
 62
    7
 10
269.70316800000001
 20
11.614655999999997
 11
269.75804799999997
 21
11.570752000000027
  0
LINE
  8
_f-f_
  6
CONTINUOUS
 62
    7
 10
269.75804799999997
 20
11.570752000000027
 11
269.80195199999991
 21
11.52684800000003
  0
LINE
  8
_f-f_
  6
CONTINUOUS
 62
    7
 10
269.80195199999991
 20
11.52684800000003
 11
269.91171199999997
 21
11.439040000000034
  0
LINE
  8
_f-f_
  6
CONTINUOUS
 62
    7
 10
269.91171199999997
 20
11.439040000000034
 11
269.95561599999996
 21
11.395136000000008
  0
LINE
  8
_f-f_
  6
CONTINUOUS
 62
    7
 10
269.95561599999996
 20
11.395136000000008
 11
270.01049599999999
 21
11.35123200000001
  0
LINE
  8
_f-f_
  6
CONTINUOUS
 62
    7
 10
270.01049599999999
 20
11.35123200000001
 11
270.07635199999993
 21
11.307327999999984
  0
LINE
  8
_f-f_
  6
CONTINUOUS
 62
    7
 10
270.07635199999993
 20
11.307327999999984
 11
270.18611199999998
 21
11.219519999999989
  0
LINE
  8
_f-f_
  6
CONTINUOUS
 62
    7
 10
267.37625600000001
 20
14.687935999999993
 11
267.44211199999995
 21
14.644031999999967
  0
LINE
  8
_f-f_
  6
CONTINUOUS
 62
    7
 10
267.44211199999995
 20
14.644031999999967
 11
267.39820799999995
 21
14.600128000000012
  0
LINE
  8
_f-f_
  6
CONTINUOUS
 62
    7
 10
267.39820799999995
 20
14.600128000000012
 11
267.38723200000004
 21
14.556224000000014
  0
LINE
  8
_f-f_
  6
CONTINUOUS
 62
    7
 10
267.38723200000004
 20
14.556224000000014
 11
267.38723200000004
 21
13.853760000000037
  0
LINE
  8
_f-f_
  6
CONTINUOUS
 62
    7
 10
267.38723200000004
 20
13.458624000000043
 11
267.38723200000004
 21
12.975680000000011
  0
LINE
  8
_f-f_
  6
CONTINUOUS
 62
    7
 10
267.38723200000004
 20
12.975680000000011
 11
267.51894399999992
 21
12.887871999999987
  0
LINE
  8
_f-f_
  6
CONTINUOUS
 62
    7
 10
267.51894399999992
 20
12.887871999999987
 11
267.683584
 21
12.756160000000023
  0
LINE
  8
_f-f_
  6
CONTINUOUS
 62
    7
 10
267.683584
 20
12.756160000000023
 11
267.90310399999998
 21
12.536639999999977
  0
LINE
  8
_f-f_
  6
CONTINUOUS
 62
    7
 10
267.90310399999998
 20
12.536639999999977
 11
267.96895999999992
 21
12.448831999999982
  0
LINE
  8
_f-f_
  6
CONTINUOUS
 62
    7
 10
267.96895999999992
 20
12.448831999999982
 11
267.80431999999996
 21
12.229311999999993
  0
LINE
  8
_f-f_
  6
CONTINUOUS
 62
    7
 10
267.80431999999996
 20
12.229311999999993
 11
267.76041599999996
 21
12.185407999999995
  0
LINE
  8
_f-f_
  6
CONTINUOUS
 62
    7
 10
267.76041599999996
 20
12.185407999999995
 11
267.72748799999999
 21
12.141503999999998
  0
LINE
  8
_f-f_
  6
CONTINUOUS
 62
    7
 10
269.22022399999992
 20
14.687935999999993
 11
269.27510399999994
 21
14.644031999999967
  0
LINE
  8
_f-f_
  6
CONTINUOUS
 62
    7
 10
269.27510399999994
 20
14.644031999999967
 11
269.23119999999994
 21
14.600128000000012
  0
LINE
  8
_f-f_
  6
CONTINUOUS
 62
    7
 10
269.23119999999994
 20
14.600128000000012
 11
269.23119999999994
 21
13.941568000000032
  0
LINE
  8
_f-f_
  6
CONTINUOUS
 62
    7
 10
269.23119999999994
 20
13.546432000000038
 11
269.23119999999994
 21
13.019583999999952
  0
LINE
  8
_f-f_
  6
CONTINUOUS
 62
    7
 10
269.26412799999991
 20
12.624447999999973
 11
269.28607999999997
 21
12.580544000000003
  0
LINE
  8
_f-f_
  6
CONTINUOUS
 62
    7
 10
269.28607999999997
 20
12.580544000000003
 11
269.48364800000002
 21
12.317120000000017
  0
LINE
  8
_f-f_
  6
CONTINUOUS
 62
    7
 10
269.48364800000002
 20
12.317120000000017
 11
269.5275519999999
 21
12.273216000000019
  0
LINE
  8
_f-f_
  6
CONTINUOUS
 62
    7
 10
269.5275519999999
 20
12.273216000000019
 11
269.56047999999998
 21
12.229311999999993
  0
LINE
  8
_f-f_
  6
CONTINUOUS
 62
    7
 10
269.56047999999998
 20
12.229311999999993
 11
269.64828799999998
 21
12.141503999999998
  0
LINE
  8
_f-f_
  6
CONTINUOUS
 62
    7
 10
269.64828799999998
 20
12.141503999999998
 11
269.70316800000001
 21
12.0976
  0
LINE
  8
_f-f_
  6
CONTINUOUS
 62
    7
 10
269.70316800000001
 20
12.0976
 11
269.74707199999995
 21
12.053696000000031
  0
LINE
  8
_f-f_
  6
CONTINUOUS
 62
    7
 10
269.74707199999995
 20
12.053696000000031
 11
270.02147199999996
 21
11.834176000000014
  0
LINE
  8
_f-f_
  6
CONTINUOUS
 62
    7
 10
270.02147199999996
 20
11.834176000000014
 11
270.35075199999994
 21
11.614655999999997
  0
LINE
  8
_f-f_
  6
CONTINUOUS
 62
    7
 10
270.35075199999994
 20
11.614655999999997
 11
270.42758399999991
 21
11.570752000000027
  0
LINE
  8
_f-f_
  6
CONTINUOUS
 62
    7
 10
270.42758399999991
 20
11.570752000000027
 11
270.38367999999997
 21
11.482944000000003
  0
LINE
  8
_f-f_
  6
CONTINUOUS
 62
    7
 10
270.38367999999997
 20
11.482944000000003
 11
270.35075199999994
 21
11.439040000000034
  0
LINE
  8
_f-f_
  6
CONTINUOUS
 62
    7
 10
270.35075199999994
 20
11.439040000000034
 11
270.24099199999989
 21
11.219519999999989
  0
LINE
  8
_f-f_
  6
CONTINUOUS
 62
    7
 10
270.24099199999989
 20
11.219519999999989
 11
270.18611199999998
 21
11.219519999999989
  0
LINE
  8
_f-f_
  6
CONTINUOUS
 62
    7
 10
268.37507199999993
 20
14.336704000000026
 11
268.55068799999992
 21
14.292800000000028
  0
LINE
  8
_f-f_
  6
CONTINUOUS
 62
    7
 10
268.55068799999992
 20
14.292800000000028
 11
268.70435199999997
 21
14.248896000000016
  0
LINE
  8
_f-f_
  6
CONTINUOUS
 62
    7
 10
268.70435199999997
 20
14.248896000000016
 11
268.70435199999997
 21
14.204992000000018
  0
LINE
  8
_f-f_
  6
CONTINUOUS
 62
    7
 10
268.70435199999997
 20
14.204992000000018
 11
268.63849599999992
 21
14.161087999999992
  0
LINE
  8
_f-f_
  6
CONTINUOUS
 62
    7
 10
268.63849599999992
 20
14.161087999999992
 11
268.62752
 21
14.117184000000023
  0
LINE
  8
_f-f_
  6
CONTINUOUS
 62
    7
 10
268.62752
 20
14.117184000000023
 11
268.60556799999995
 21
14.073279999999997
  0
LINE
  8
_f-f_
  6
CONTINUOUS
 62
    7
 10
268.60556799999995
 20
14.073279999999997
 11
268.58361600000001
 21
13.985471999999987
  0
LINE
  8
_f-f_
  6
CONTINUOUS
 62
    7
 10
268.58361600000001
 20
13.985471999999987
 11
268.56166399999995
 21
13.941568000000032
  0
LINE
  8
_f-f_
  6
CONTINUOUS
 62
    7
 10
268.9019199999999
 20
13.546432000000038
 11
268.40799999999996
 21
13.546432000000038
  0
LINE
  8
_f-f_
  6
CONTINUOUS
 62
    7
 10
268.40799999999996
 20
13.546432000000038
 11
268.34214399999996
 21
13.414720000000017
  0
LINE
  8
_f-f_
  6
CONTINUOUS
 62
    7
 10
268.34214399999996
 20
13.414720000000017
 11
268.30921599999999
 21
13.370815999999991
  0
LINE
  8
_f-f_
  6
CONTINUOUS
 62
    7
 10
268.30921599999999
 20
13.370815999999991
 11
268.26531199999999
 21
13.283008000000024
  0
LINE
  8
_f-f_
  6
CONTINUOUS
 62
    7
 10
268.26531199999999
 20
13.283008000000024
 11
268.13359999999994
 21
13.107392000000061
  0
LINE
  8
_f-f_
  6
CONTINUOUS
 62
    7
 10
268.13359999999994
 20
13.107392000000061
 11
268.11164799999995
 21
13.107392000000061
  0
LINE
  8
_f-f_
  6
CONTINUOUS
 62
    7
 10
267.44211199999995
 20
12.536639999999977
 11
267.38723200000004
 21
12.536639999999977
  0
LINE
  8
_f-f_
  6
CONTINUOUS
 62
    7
 10
267.38723200000004
 20
12.536639999999977
 11
267.38723200000004
 21
10.736576000000014
  0
LINE
  8
_f-f_
  6
CONTINUOUS
 62
    7
 10
267.38723200000004
 20
10.736576000000014
 11
267.06892800000003
 21
10.736576000000014
  0
LINE
  8
_f-f_
  6
CONTINUOUS
 62
    7
 10
267.06892800000003
 20
12.448831999999982
 11
267.03599999999994
 21
12.448831999999982
  0
LINE
  8
_f-f_
  6
CONTINUOUS
 62
    7
 10
267.03599999999994
 20
12.448831999999982
 11
266.99209599999995
 21
12.361024000000015
  0
LINE
  8
_f-f_
  6
CONTINUOUS
 62
    7
 10
266.99209599999995
 20
12.361024000000015
 11
266.98111999999998
 21
12.317120000000017
  0
LINE
  8
_f-f_
  6
CONTINUOUS
 62
    7
 10
266.98111999999998
 20
12.317120000000017
 11
266.91526399999998
 21
12.185407999999995
  0
LINE
  8
_f-f_
  6
CONTINUOUS
 62
    7
 10
266.91526399999998
 20
12.185407999999995
 11
266.88233600000001
 21
12.141503999999998
  0
LINE
  8
_f-f_
  6
CONTINUOUS
 62
    7
 10
266.88233600000001
 20
12.141503999999998
 11
266.8384319999999
 21
12.053696000000031
  0
LINE
  8
_f-f_
  6
CONTINUOUS
 62
    7
 10
266.8384319999999
 20
12.053696000000031
 11
266.77257599999996
 21
11.965888000000007
  0
LINE
  8
_f-f_
  6
CONTINUOUS
 62
    7
 10
266.77257599999996
 20
11.965888000000007
 11
266.7506239999999
 21
11.921984000000009
  0
LINE
  8
_f-f_
  6
CONTINUOUS
 62
    7
 10
266.7506239999999
 20
11.921984000000009
 11
266.65183999999999
 21
11.790272000000016
  0
LINE
  8
_f-f_
  6
CONTINUOUS
 62
    7
 10
266.65183999999999
 20
11.790272000000016
 11
266.607936
 21
11.746368000000018
  0
LINE
  8
_f-f_
  6
CONTINUOUS
 62
    7
 10
266.607936
 20
11.746368000000018
 11
266.57500799999991
 21
11.70246400000002
  0
LINE
  8
_f-f_
  6
CONTINUOUS
 62
    7
 10
266.57500799999991
 20
11.70246400000002
 11
266.55305599999997
 21
11.70246400000002
  0
LINE
  8
_f-f_
  6
CONTINUOUS
 62
    7
 10
268.9019199999999
 20
12.0976
 11
268.87996799999996
 21
12.0976
  0
LINE
  8
_f-f_
  6
CONTINUOUS
 62
    7
 10
268.87996799999996
 20
12.0976
 11
268.84703999999994
 21
12.053696000000031
  0
LINE
  8
_f-f_
  6
CONTINUOUS
 62
    7
 10
268.84703999999994
 20
12.053696000000031
 11
268.82508799999994
 21
12.009792000000004
  0
LINE
  8
_f-f_
  6
CONTINUOUS
 62
    7
 10
268.82508799999994
 20
12.009792000000004
 11
268.79215999999997
 21
11.965888000000007
  0
LINE
  8
_f-f_
  6
CONTINUOUS
 62
    7
 10
268.79215999999997
 20
11.965888000000007
 11
268.77020799999997
 21
11.921984000000009
  0
LINE
  8
_f-f_
  6
CONTINUOUS
 62
    7
 10
268.77020799999997
 20
11.921984000000009
 11
268.60556799999995
 21
11.70246400000002
  0
LINE
  8
_f-f_
  6
CONTINUOUS
 62
    7
 10
268.60556799999995
 20
11.70246400000002
 11
268.56166399999995
 21
11.658559999999994
  0
LINE
  8
_f-f_
  6
CONTINUOUS
 62
    7
 10
268.56166399999995
 20
11.658559999999994
 11
268.52873599999998
 21
11.614655999999997
  0
LINE
  8
_f-f_
  6
CONTINUOUS
 62
    7
 10
268.52873599999998
 20
11.614655999999997
 11
268.26531199999999
 21
11.35123200000001
  0
LINE
  8
_f-f_
  6
CONTINUOUS
 62
    7
 10
268.26531199999999
 20
11.35123200000001
 11
267.99091199999998
 21
11.131712000000022
  0
LINE
  8
_f-f_
  6
CONTINUOUS
 62
    7
 10
267.99091199999998
 20
11.131712000000022
 11
267.92505599999993
 21
11.087808000000024
  0
LINE
  8
_f-f_
  6
CONTINUOUS
 62
    7
 10
267.92505599999993
 20
11.087808000000024
 11
267.89212799999996
 21
11.087808000000024
  0
LINE
  8
_f-f_
  6
CONTINUOUS
 62
    7
 10
269.27510399999994
 20
12.0976
 11
269.23119999999994
 21
12.0976
  0
LINE
  8
_f-f_
  6
CONTINUOUS
 62
    7
 10
269.23119999999994
 20
12.0976
 11
269.23119999999994
 21
10.736576000000014
  0
LINE
  8
_f-f_
  6
CONTINUOUS
 62
    7
 10
269.23119999999994
 20
10.736576000000014
 11
268.9019199999999
 21
10.736576000000014
  0
LINE
  8
_f-f_
  6
CONTINUOUS
 62
    7
 10
273.48988799999995
 20
14.600128000000012
 11
273.07279999999992
 21
14.600128000000012
  0
LINE
  8
_f-f_
  6
CONTINUOUS
 62
    7
 10
273.07279999999992
 20
14.600128000000012
 11
273.07279999999992
 21
13.853760000000037
  0
LINE
  8
_f-f_
  6
CONTINUOUS
 62
    7
 10
273.083776
 20
13.458624000000043
 11
273.083776
 21
13.414720000000017
  0
LINE
  8
_f-f_
  6
CONTINUOUS
 62
    7
 10
273.083776
 20
13.414720000000017
 11
273.09475199999997
 21
13.370815999999991
  0
LINE
  8
_f-f_
  6
CONTINUOUS
 62
    7
 10
273.09475199999997
 20
13.370815999999991
 11
273.09475199999997
 21
13.151296000000031
  0
LINE
  8
_f-f_
  6
CONTINUOUS
 62
    7
 10
273.09475199999997
 20
13.151296000000031
 11
273.105728
 21
13.107392000000061
  0
LINE
  8
_f-f_
  6
CONTINUOUS
 62
    7
 10
273.105728
 20
13.107392000000061
 11
273.105728
 21
12.975680000000011
  0
LINE
  8
_f-f_
  6
CONTINUOUS
 62
    7
 10
273.105728
 20
12.975680000000011
 11
273.11670399999991
 21
12.931776000000013
  0
LINE
  8
_f-f_
  6
CONTINUOUS
 62
    7
 10
273.11670399999991
 20
12.931776000000013
 11
273.11670399999991
 21
12.84396799999999
  0
LINE
  8
_f-f_
  6
CONTINUOUS
 62
    7
 10
273.11670399999991
 20
12.84396799999999
 11
273.12767999999994
 21
12.800064000000049
  0
LINE
  8
_f-f_
  6
CONTINUOUS
 62
    7
 10
273.12767999999994
 20
12.800064000000049
 11
273.12767999999994
 21
12.756160000000023
  0
LINE
  8
_f-f_
  6
CONTINUOUS
 62
    7
 10
273.12767999999994
 20
12.756160000000023
 11
273.13865599999997
 21
12.712256000000025
  0
LINE
  8
_f-f_
  6
CONTINUOUS
 62
    7
 10
273.13865599999997
 20
12.712256000000025
 11
273.13865599999997
 21
12.668351999999999
  0
LINE
  8
_f-f_
  6
CONTINUOUS
 62
    7
 10
273.13865599999997
 20
12.668351999999999
 11
273.149632
 21
12.624447999999973
  0
LINE
  8
_f-f_
  6
CONTINUOUS
 62
    7
 10
273.149632
 20
12.624447999999973
 11
273.149632
 21
12.580544000000003
  0
LINE
  8
_f-f_
  6
CONTINUOUS
 62
    7
 10
273.149632
 20
12.580544000000003
 11
273.17158399999994
 21
12.492735999999979
  0
LINE
  8
_f-f_
  6
CONTINUOUS
 62
    7
 10
273.17158399999994
 20
12.492735999999979
 11
273.17158399999994
 21
12.448831999999982
  0
LINE
  8
_f-f_
  6
CONTINUOUS
 62
    7
 10
273.17158399999994
 20
12.448831999999982
 11
273.20451199999991
 21
12.317120000000017
  0
LINE
  8
_f-f_
  6
CONTINUOUS
 62
    7
 10
273.20451199999991
 20
12.317120000000017
 11
273.20451199999991
 21
12.273216000000019
  0
LINE
  8
_f-f_
  6
CONTINUOUS
 62
    7
 10
273.20451199999991
 20
12.273216000000019
 11
273.25939199999999
 21
12.053696000000031
  0
LINE
  8
_f-f_
  6
CONTINUOUS
 62
    7
 10
273.25939199999999
 20
12.053696000000031
 11
273.28134399999999
 21
12.009792000000004
  0
LINE
  8
_f-f_
  6
CONTINUOUS
 62
    7
 10
273.28134399999999
 20
12.009792000000004
 11
273.31427199999996
 21
11.878080000000011
  0
LINE
  8
_f-f_
  6
CONTINUOUS
 62
    7
 10
273.31427199999996
 20
11.878080000000011
 11
273.3362239999999
 21
11.834176000000014
  0
LINE
  8
_f-f_
  6
CONTINUOUS
 62
    7
 10
273.3362239999999
 20
11.834176000000014
 11
273.34719999999999
 21
11.790272000000016
  0
LINE
  8
_f-f_
  6
CONTINUOUS
 62
    7
 10
273.34719999999999
 20
11.790272000000016
 11
273.41305599999998
 21
11.658559999999994
  0
LINE
  8
_f-f_
  6
CONTINUOUS
 62
    7
 10
273.41305599999998
 20
11.658559999999994
 11
273.42403199999995
 21
11.614655999999997
  0
LINE
  8
_f-f_
  6
CONTINUOUS
 62
    7
 10
273.42403199999995
 20
11.614655999999997
 11
273.44598400000001
 21
11.570752000000027
  0
LINE
  8
_f-f_
  6
CONTINUOUS
 62
    7
 10
273.44598400000001
 20
11.570752000000027
 11
273.47891199999992
 21
11.52684800000003
  0
LINE
  8
_f-f_
  6
CONTINUOUS
 62
    7
 10
273.47891199999992
 20
11.52684800000003
 11
273.52281599999992
 21
11.439040000000034
  0
LINE
  8
_f-f_
  6
CONTINUOUS
 62
    7
 10
273.52281599999992
 20
11.439040000000034
 11
273.555744
 21
11.395136000000008
  0
LINE
  8
_f-f_
  6
CONTINUOUS
 62
    7
 10
273.555744
 20
11.395136000000008
 11
273.57769599999995
 21
11.35123200000001
  0
LINE
  8
_f-f_
  6
CONTINUOUS
 62
    7
 10
273.57769599999995
 20
11.35123200000001
 11
273.70940799999994
 21
11.175616000000019
  0
LINE
  8
_f-f_
  6
CONTINUOUS
 62
    7
 10
273.70940799999994
 20
11.175616000000019
 11
273.79721599999993
 21
11.087808000000024
  0
LINE
  8
_f-f_
  6
CONTINUOUS
 62
    7
 10
273.79721599999993
 20
11.087808000000024
 11
273.85209599999996
 21
11.043903999999998
  0
LINE
  8
_f-f_
  6
CONTINUOUS
 62
    7
 10
273.85209599999996
 20
11.043903999999998
 11
273.98380799999995
 21
10.956095999999974
  0
LINE
  8
_f-f_
  6
CONTINUOUS
 62
    7
 10
273.98380799999995
 20
10.956095999999974
 11
274.093568
 21
10.912192000000005
  0
LINE
  8
_f-f_
  6
CONTINUOUS
 62
    7
 10
273.95087999999998
 20
14.512320000000003
 11
273.90697599999999
 21
14.512320000000003
  0
LINE
  8
_f-f_
  6
CONTINUOUS
 62
    7
 10
273.90697599999999
 20
14.512320000000003
 11
273.85209599999996
 21
14.468416000000005
  0
LINE
  8
_f-f_
  6
CONTINUOUS
 62
    7
 10
273.85209599999996
 20
14.468416000000005
 11
273.80819200000002
 21
14.424512000000007
  0
LINE
  8
_f-f_
  6
CONTINUOUS
 62
    7
 10
273.80819200000002
 20
14.424512000000007
 11
273.69843199999997
 21
14.336704000000026
  0
LINE
  8
_f-f_
  6
CONTINUOUS
 62
    7
 10
273.69843199999997
 20
14.336704000000026
 11
273.65452800000003
 21
14.292800000000028
  0
LINE
  8
_f-f_
  6
CONTINUOUS
 62
    7
 10
273.65452800000003
 20
14.292800000000028
 11
273.69843199999997
 21
14.248896000000016
  0
LINE
  8
_f-f_
  6
CONTINUOUS
 62
    7
 10
273.69843199999997
 20
14.248896000000016
 11
273.77526399999999
 21
14.204992000000018
  0
LINE
  8
_f-f_
  6
CONTINUOUS
 62
    7
 10
273.77526399999999
 20
14.204992000000018
 11
273.84111999999993
 21
14.161087999999992
  0
LINE
  8
_f-f_
  6
CONTINUOUS
 62
    7
 10
273.84111999999993
 20
14.161087999999992
 11
274.06063999999998
 21
13.985471999999987
  0
LINE
  8
_f-f_
  6
CONTINUOUS
 62
    7
 10
272.83132799999998
 20
12.84396799999999
 11
271.15199999999993
 21
12.84396799999999
  0
LINE
  8
_f-f_
  6
CONTINUOUS
 62
    7
 10
271.83251199999995
 20
12.536639999999977
 11
271.83251199999995
 21
11.570752000000027
  0
LINE
  8
_f-f_
  6
CONTINUOUS
 62
    7
 10
271.83251199999995
 20
11.570752000000027
 11
271.56908799999997
 21
11.52684800000003
  0
LINE
  8
_f-f_
  6
CONTINUOUS
 62
    7
 10
271.56908799999997
 20
11.52684800000003
 11
271.19590399999998
 21
11.482944000000003
  0
LINE
  8
_f-f_
  6
CONTINUOUS
 62
    7
 10
271.19590399999998
 20
11.482944000000003
 11
270.99833599999994
 21
11.439040000000034
  0
LINE
  8
_f-f_
  6
CONTINUOUS
 62
    7
 10
270.99833599999994
 20
11.439040000000034
 11
271.04223999999999
 21
11.263423999999986
  0
LINE
  8
_f-f_
  6
CONTINUOUS
 62
    7
 10
271.04223999999999
 20
11.263423999999986
 11
271.04223999999999
 21
11.219519999999989
  0
LINE
  8
_f-f_
  6
CONTINUOUS
 62
    7
 10
271.04223999999999
 20
11.219519999999989
 11
271.08614399999999
 21
11.043903999999998
  0
LINE
  8
_f-f_
  6
CONTINUOUS
 62
    7
 10
271.08614399999999
 20
11.043903999999998
 11
271.11907199999996
 21
11
  0
LINE
  8
_f-f_
  6
CONTINUOUS
 62
    7
 10
273.07279999999992
 20
11.746368000000018
 11
272.95206399999995
 21
11.746368000000018
  0
LINE
  8
_f-f_
  6
CONTINUOUS
 62
    7
 10
272.95206399999995
 20
11.746368000000018
 11
272.71059199999996
 21
11.70246400000002
  0
LINE
  8
_f-f_
  6
CONTINUOUS
 62
    7
 10
272.71059199999996
 20
11.70246400000002
 11
272.44716799999998
 21
11.658559999999994
  0
LINE
  8
_f-f_
  6
CONTINUOUS
 62
    7
 10
272.44716799999998
 20
11.658559999999994
 11
272.16179199999999
 21
11.658559999999994
  0
LINE
  8
_f-f_
  6
CONTINUOUS
 62
    7
 10
274.38991999999996
 20
11.70246400000002
 11
274.31308799999994
 21
11.70246400000002
  0
LINE
  8
_f-f_
  6
CONTINUOUS
 62
    7
 10
274.31308799999994
 20
11.70246400000002
 11
274.31308799999994
 21
11.614655999999997
  0
LINE
  8
_f-f_
  6
CONTINUOUS
 62
    7
 10
274.31308799999994
 20
11.614655999999997
 11
274.30211199999997
 21
11.570752000000027
  0
LINE
  8
_f-f_
  6
CONTINUOUS
 62
    7
 10
274.30211199999997
 20
11.570752000000027
 11
274.30211199999997
 21
11.52684800000003
  0
LINE
  8
_f-f_
  6
CONTINUOUS
 62
    7
 10
274.30211199999997
 20
11.52684800000003
 11
274.29113599999994
 21
11.482944000000003
  0
LINE
  8
_f-f_
  6
CONTINUOUS
 62
    7
 10
274.29113599999994
 20
11.482944000000003
 11
274.29113599999994
 21
11.439040000000034
  0
LINE
  8
_f-f_
  6
CONTINUOUS
 62
    7
 10
274.29113599999994
 20
11.439040000000034
 11
274.269184
 21
11.395136000000008
  0
LINE
  8
_f-f_
  6
CONTINUOUS
 62
    7
 10
274.269184
 20
11.395136000000008
 11
274.23625599999997
 21
11.35123200000001
  0
LINE
  8
_f-f_
  6
CONTINUOUS
 62
    7
 10
274.23625599999997
 20
11.35123200000001
 11
274.137472
 21
11.35123200000001
  0
LINE
  8
_f-f_
  6
CONTINUOUS
 62
    7
 10
273.48988799999995
 20
14.600128000000012
 11
273.51183999999995
 21
14.556224000000014
  0
LINE
  8
_f-f_
  6
CONTINUOUS
 62
    7
 10
273.51183999999995
 20
14.556224000000014
 11
273.44598400000001
 21
14.468416000000005
  0
LINE
  8
_f-f_
  6
CONTINUOUS
 62
    7
 10
273.44598400000001
 20
14.468416000000005
 11
273.44598400000001
 21
13.853760000000037
  0
LINE
  8
_f-f_
  6
CONTINUOUS
 62
    7
 10
273.44598400000001
 20
13.458624000000043
 11
273.44598400000001
 21
13.370815999999991
  0
LINE
  8
_f-f_
  6
CONTINUOUS
 62
    7
 10
273.44598400000001
 20
13.370815999999991
 11
273.45695999999998
 21
13.326912000000021
  0
LINE
  8
_f-f_
  6
CONTINUOUS
 62
    7
 10
273.45695999999998
 20
13.326912000000021
 11
273.45695999999998
 21
13.239103999999998
  0
LINE
  8
_f-f_
  6
CONTINUOUS
 62
    7
 10
273.45695999999998
 20
13.239103999999998
 11
273.46793600000001
 21
13.195199999999971
  0
LINE
  8
_f-f_
  6
CONTINUOUS
 62
    7
 10
273.46793600000001
 20
13.195199999999971
 11
273.46793600000001
 21
13.107392000000061
  0
LINE
  8
_f-f_
  6
CONTINUOUS
 62
    7
 10
273.46793600000001
 20
13.107392000000061
 11
273.47891199999992
 21
13.063488000000007
  0
LINE
  8
_f-f_
  6
CONTINUOUS
 62
    7
 10
273.47891199999992
 20
13.063488000000007
 11
273.47891199999992
 21
13.019583999999952
  0
LINE
  8
_f-f_
  6
CONTINUOUS
 62
    7
 10
273.47891199999992
 20
13.019583999999952
 11
273.48988799999995
 21
12.975680000000011
  0
LINE
  8
_f-f_
  6
CONTINUOUS
 62
    7
 10
273.48988799999995
 20
12.975680000000011
 11
273.48988799999995
 21
12.887871999999987
  0
LINE
  8
_f-f_
  6
CONTINUOUS
 62
    7
 10
273.48988799999995
 20
12.887871999999987
 11
273.50086399999998
 21
12.84396799999999
  0
LINE
  8
_f-f_
  6
CONTINUOUS
 62
    7
 10
273.50086399999998
 20
12.84396799999999
 11
273.50086399999998
 21
12.800064000000049
  0
LINE
  8
_f-f_
  6
CONTINUOUS
 62
    7
 10
273.50086399999998
 20
12.800064000000049
 11
273.52281599999992
 21
12.712256000000025
  0
LINE
  8
_f-f_
  6
CONTINUOUS
 62
    7
 10
273.52281599999992
 20
12.712256000000025
 11
273.52281599999992
 21
12.668351999999999
  0
LINE
  8
_f-f_
  6
CONTINUOUS
 62
    7
 10
273.52281599999992
 20
12.668351999999999
 11
273.53379199999995
 21
12.624447999999973
  0
LINE
  8
_f-f_
  6
CONTINUOUS
 62
    7
 10
273.53379199999995
 20
12.624447999999973
 11
273.53379199999995
 21
12.580544000000003
  0
LINE
  8
_f-f_
  6
CONTINUOUS
 62
    7
 10
273.53379199999995
 20
12.580544000000003
 11
273.56671999999992
 21
12.448831999999982
  0
LINE
  8
_f-f_
  6
CONTINUOUS
 62
    7
 10
273.56671999999992
 20
12.448831999999982
 11
273.56671999999992
 21
12.404927999999984
  0
LINE
  8
_f-f_
  6
CONTINUOUS
 62
    7
 10
273.56671999999992
 20
12.404927999999984
 11
273.63257599999997
 21
12.141503999999998
  0
LINE
  8
_f-f_
  6
CONTINUOUS
 62
    7
 10
273.63257599999997
 20
12.141503999999998
 11
273.65452800000003
 21
12.0976
  0
LINE
  8
_f-f_
  6
CONTINUOUS
 62
    7
 10
273.65452800000003
 20
12.0976
 11
273.67647999999997
 21
12.009792000000004
  0
LINE
  8
_f-f_
  6
CONTINUOUS
 62
    7
 10
273.67647999999997
 20
12.009792000000004
 11
273.69843199999997
 21
11.965888000000007
  0
LINE
  8
_f-f_
  6
CONTINUOUS
 62
    7
 10
273.69843199999997
 20
11.965888000000007
 11
273.70940799999994
 21
11.921984000000009
  0
LINE
  8
_f-f_
  6
CONTINUOUS
 62
    7
 10
273.70940799999994
 20
11.921984000000009
 11
273.84111999999993
 21
11.658559999999994
  0
LINE
  8
_f-f_
  6
CONTINUOUS
 62
    7
 10
273.84111999999993
 20
11.658559999999994
 11
273.87404799999996
 21
11.614655999999997
  0
LINE
  8
_f-f_
  6
CONTINUOUS
 62
    7
 10
273.87404799999996
 20
11.614655999999997
 11
273.89599999999996
 21
11.570752000000027
  0
LINE
  8
_f-f_
  6
CONTINUOUS
 62
    7
 10
273.89599999999996
 20
11.570752000000027
 11
273.92892799999993
 21
11.52684800000003
  0
LINE
  8
_f-f_
  6
CONTINUOUS
 62
    7
 10
273.92892799999993
 20
11.52684800000003
 11
273.97283199999998
 21
11.482944000000003
  0
LINE
  8
_f-f_
  6
CONTINUOUS
 62
    7
 10
273.97283199999998
 20
11.482944000000003
 11
274.0057599999999
 21
11.439040000000034
  0
LINE
  8
_f-f_
  6
CONTINUOUS
 62
    7
 10
274.0057599999999
 20
11.439040000000034
 11
274.06063999999998
 21
11.395136000000008
  0
LINE
  8
_f-f_
  6
CONTINUOUS
 62
    7
 10
274.06063999999998
 20
11.395136000000008
 11
274.137472
 21
11.35123200000001
  0
LINE
  8
_f-f_
  6
CONTINUOUS
 62
    7
 10
273.95087999999998
 20
14.512320000000003
 11
274.10454399999992
 21
14.424512000000007
  0
LINE
  8
_f-f_
  6
CONTINUOUS
 62
    7
 10
274.10454399999992
 20
14.424512000000007
 11
274.15942399999994
 21
14.380608000000009
  0
LINE
  8
_f-f_
  6
CONTINUOUS
 62
    7
 10
274.15942399999994
 20
14.380608000000009
 11
274.22528
 21
14.336704000000026
  0
LINE
  8
_f-f_
  6
CONTINUOUS
 62
    7
 10
274.22528
 20
14.336704000000026
 11
274.28016000000002
 21
14.292800000000028
  0
LINE
  8
_f-f_
  6
CONTINUOUS
 62
    7
 10
274.28016000000002
 20
14.292800000000028
 11
274.32406400000002
 21
14.248896000000016
  0
LINE
  8
_f-f_
  6
CONTINUOUS
 62
    7
 10
274.32406400000002
 20
14.248896000000016
 11
274.35699199999999
 21
14.204992000000018
  0
LINE
  8
_f-f_
  6
CONTINUOUS
 62
    7
 10
274.35699199999999
 20
14.204992000000018
 11
274.24723199999994
 21
14.117184000000023
  0
LINE
  8
_f-f_
  6
CONTINUOUS
 62
    7
 10
274.24723199999994
 20
14.117184000000023
 11
274.20332799999994
 21
14.073279999999997
  0
LINE
  8
_f-f_
  6
CONTINUOUS
 62
    7
 10
274.20332799999994
 20
14.073279999999997
 11
274.093568
 21
13.985471999999987
  0
LINE
  8
_f-f_
  6
CONTINUOUS
 62
    7
 10
274.093568
 20
13.985471999999987
 11
274.06063999999998
 21
13.985471999999987
  0
LINE
  8
_f-f_
  6
CONTINUOUS
 62
    7
 10
273.07279999999992
 20
11.746368000000018
 11
273.083776
 21
11.70246400000002
  0
LINE
  8
_f-f_
  6
CONTINUOUS
 62
    7
 10
273.083776
 20
11.70246400000002
 11
273.083776
 21
11.658559999999994
  0
LINE
  8
_f-f_
  6
CONTINUOUS
 62
    7
 10
273.083776
 20
11.658559999999994
 11
273.105728
 21
11.570752000000027
  0
LINE
  8
_f-f_
  6
CONTINUOUS
 62
    7
 10
273.105728
 20
11.570752000000027
 11
273.105728
 21
11.52684800000003
  0
LINE
  8
_f-f_
  6
CONTINUOUS
 62
    7
 10
273.105728
 20
11.52684800000003
 11
273.11670399999991
 21
11.482944000000003
  0
LINE
  8
_f-f_
  6
CONTINUOUS
 62
    7
 10
273.11670399999991
 20
11.482944000000003
 11
273.03987199999995
 21
11.439040000000034
  0
LINE
  8
_f-f_
  6
CONTINUOUS
 62
    7
 10
273.03987199999995
 20
11.439040000000034
 11
272.62278400000002
 21
11.35123200000001
  0
LINE
  8
_f-f_
  6
CONTINUOUS
 62
    7
 10
272.62278400000002
 20
11.35123200000001
 11
272.18374399999993
 21
11.263423999999986
  0
LINE
  8
_f-f_
  6
CONTINUOUS
 62
    7
 10
272.18374399999993
 20
11.263423999999986
 11
271.72275199999996
 21
11.175616000000019
  0
LINE
  8
_f-f_
  6
CONTINUOUS
 62
    7
 10
271.72275199999996
 20
11.175616000000019
 11
271.48127999999997
 21
11.131712000000022
  0
LINE
  8
_f-f_
  6
CONTINUOUS
 62
    7
 10
271.48127999999997
 20
11.131712000000022
 11
271.2288319999999
 21
11.087808000000024
  0
LINE
  8
_f-f_
  6
CONTINUOUS
 62
    7
 10
271.2288319999999
 20
11.087808000000024
 11
271.17395199999999
 21
11.043903999999998
  0
LINE
  8
_f-f_
  6
CONTINUOUS
 62
    7
 10
271.17395199999999
 20
11.043903999999998
 11
271.15199999999993
 21
11
  0
LINE
  8
_f-f_
  6
CONTINUOUS
 62
    7
 10
271.15199999999993
 20
11
 11
271.11907199999996
 21
11
  0
LINE
  8
_f-f_
  6
CONTINUOUS
 62
    7
 10
274.38991999999996
 20
11.70246400000002
 11
274.47772799999996
 21
11.658559999999994
  0
LINE
  8
_f-f_
  6
CONTINUOUS
 62
    7
 10
274.47772799999996
 20
11.658559999999994
 11
274.67529599999995
 21
11.570752000000027
  0
LINE
  8
_f-f_
  6
CONTINUOUS
 62
    7
 10
274.67529599999995
 20
11.570752000000027
 11
274.67529599999995
 21
11.52684800000003
  0
LINE
  8
_f-f_
  6
CONTINUOUS
 62
    7
 10
274.67529599999995
 20
11.52684800000003
 11
274.65334399999995
 21
11.439040000000034
  0
LINE
  8
_f-f_
  6
CONTINUOUS
 62
    7
 10
274.65334399999995
 20
11.439040000000034
 11
274.65334399999995
 21
11.395136000000008
  0
LINE
  8
_f-f_
  6
CONTINUOUS
 62
    7
 10
274.65334399999995
 20
11.395136000000008
 11
274.63139200000001
 21
11.307327999999984
  0
LINE
  8
_f-f_
  6
CONTINUOUS
 62
    7
 10
274.63139200000001
 20
11.307327999999984
 11
274.63139200000001
 21
11.263423999999986
  0
LINE
  8
_f-f_
  6
CONTINUOUS
 62
    7
 10
274.63139200000001
 20
11.263423999999986
 11
274.60943999999995
 21
11.175616000000019
  0
LINE
  8
_f-f_
  6
CONTINUOUS
 62
    7
 10
274.60943999999995
 20
11.175616000000019
 11
274.60943999999995
 21
11.131712000000022
  0
LINE
  8
_f-f_
  6
CONTINUOUS
 62
    7
 10
274.60943999999995
 20
11.131712000000022
 11
274.59846399999998
 21
11.087808000000024
  0
LINE
  8
_f-f_
  6
CONTINUOUS
 62
    7
 10
274.59846399999998
 20
11.087808000000024
 11
274.55455999999992
 21
11
  0
LINE
  8
_f-f_
  6
CONTINUOUS
 62
    7
 10
274.55455999999992
 20
11
 11
274.52163199999995
 21
10.956095999999974
  0
LINE
  8
_f-f_
  6
CONTINUOUS
 62
    7
 10
274.52163199999995
 20
10.956095999999974
 11
274.46675199999993
 21
10.912192000000005
  0
LINE
  8
_f-f_
  6
CONTINUOUS
 62
    7
 10
274.46675199999993
 20
10.912192000000005
 11
274.093568
 21
10.912192000000005
  0
LINE
  8
_f-f_
  6
CONTINUOUS
 62
    7
 10
277.05708800000002
 20
14.644031999999967
 11
276.99123199999997
 21
14.644031999999967
  0
LINE
  8
_f-f_
  6
CONTINUOUS
 62
    7
 10
276.99123199999997
 20
14.644031999999967
 11
276.94732799999997
 21
14.556224000000014
  0
LINE
  8
_f-f_
  6
CONTINUOUS
 62
    7
 10
276.94732799999997
 20
14.556224000000014
 11
276.9144
 21
14.512320000000003
  0
LINE
  8
_f-f_
  6
CONTINUOUS
 62
    7
 10
276.9144
 20
14.512320000000003
 11
276.89244799999994
 21
14.468416000000005
  0
LINE
  8
_f-f_
  6
CONTINUOUS
 62
    7
 10
276.89244799999994
 20
14.468416000000005
 11
276.82659199999995
 21
14.380608000000009
  0
LINE
  8
_f-f_
  6
CONTINUOUS
 62
    7
 10
276.82659199999995
 20
14.380608000000009
 11
276.80463999999995
 21
14.336704000000026
  0
LINE
  8
_f-f_
  6
CONTINUOUS
 62
    7
 10
276.80463999999995
 20
14.336704000000026
 11
276.70585599999993
 21
14.204992000000018
  0
LINE
  8
_f-f_
  6
CONTINUOUS
 62
    7
 10
276.70585599999993
 20
14.204992000000018
 11
276.66195199999999
 21
14.161087999999992
  0
LINE
  8
_f-f_
  6
CONTINUOUS
 62
    7
 10
276.66195199999999
 20
14.161087999999992
 11
276.59609599999999
 21
14.073279999999997
  0
LINE
  8
_f-f_
  6
CONTINUOUS
 62
    7
 10
276.59609599999999
 20
14.073279999999997
 11
276.42048
 21
13.897663999999992
  0
LINE
  8
_f-f_
  6
CONTINUOUS
 62
    7
 10
276.42048
 20
13.897663999999992
 11
276.36559999999997
 21
13.853760000000037
  0
LINE
  8
_f-f_
  6
CONTINUOUS
 62
    7
 10
276.36559999999997
 20
13.853760000000037
 11
276.32169599999997
 21
13.809856000000011
  0
LINE
  8
_f-f_
  6
CONTINUOUS
 62
    7
 10
276.32169599999997
 20
13.809856000000011
 11
276.21193599999998
 21
13.722048000000001
  0
LINE
  8
_f-f_
  6
CONTINUOUS
 62
    7
 10
276.21193599999998
 20
13.722048000000001
 11
276.01436799999999
 21
13.590336000000008
  0
LINE
  8
_f-f_
  6
CONTINUOUS
 62
    7
 10
276.01436799999999
 20
13.590336000000008
 11
275.860704
 21
13.502527999999984
  0
LINE
  8
_f-f_
  6
CONTINUOUS
 62
    7
 10
275.860704
 20
13.502527999999984
 11
275.68508799999995
 21
13.414720000000017
  0
LINE
  8
_f-f_
  6
CONTINUOUS
 62
    7
 10
275.68508799999995
 20
13.414720000000017
 11
275.46556799999996
 21
13.326912000000021
  0
LINE
  8
_f-f_
  6
CONTINUOUS
 62
    7
 10
275.46556799999996
 20
13.326912000000021
 11
275.33385599999997
 21
13.283008000000024
  0
LINE
  8
_f-f_
  6
CONTINUOUS
 62
    7
 10
275.33385599999997
 20
13.283008000000024
 11
275.22409599999997
 21
13.239103999999998
  0
LINE
  8
_f-f_
  6
CONTINUOUS
 62
    7
 10
275.22409599999997
 20
13.239103999999998
 11
275.23507199999995
 21
13.195199999999971
  0
LINE
  8
_f-f_
  6
CONTINUOUS
 62
    7
 10
275.23507199999995
 20
13.195199999999971
 11
275.257024
 21
13.151296000000031
  0
LINE
  8
_f-f_
  6
CONTINUOUS
 62
    7
 10
275.257024
 20
13.151296000000031
 11
275.26800000000003
 21
13.107392000000061
  0
LINE
  8
_f-f_
  6
CONTINUOUS
 62
    7
 10
275.26800000000003
 20
13.107392000000061
 11
275.28995199999997
 21
13.063488000000007
  0
LINE
  8
_f-f_
  6
CONTINUOUS
 62
    7
 10
275.28995199999997
 20
13.063488000000007
 11
275.300928
 21
13.019583999999952
  0
LINE
  8
_f-f_
  6
CONTINUOUS
 62
    7
 10
275.300928
 20
13.019583999999952
 11
275.32287999999994
 21
12.975680000000011
  0
LINE
  8
_f-f_
  6
CONTINUOUS
 62
    7
 10
275.32287999999994
 20
12.975680000000011
 11
275.33385599999997
 21
12.931776000000013
  0
LINE
  8
_f-f_
  6
CONTINUOUS
 62
    7
 10
275.33385599999997
 20
12.931776000000013
 11
275.35580800000002
 21
12.887871999999987
  0
LINE
  8
_f-f_
  6
CONTINUOUS
 62
    7
 10
277.17782399999993
 20
14.292800000000028
 11
277.19977599999999
 21
14.248896000000016
  0
LINE
  8
_f-f_
  6
CONTINUOUS
 62
    7
 10
277.19977599999999
 20
14.248896000000016
 11
277.2327039999999
 21
14.204992000000018
  0
LINE
  8
_f-f_
  6
CONTINUOUS
 62
    7
 10
277.2327039999999
 20
14.204992000000018
 11
277.25465599999995
 21
14.161087999999992
  0
LINE
  8
_f-f_
  6
CONTINUOUS
 62
    7
 10
277.25465599999995
 20
14.161087999999992
 11
277.48515199999997
 21
13.853760000000037
  0
LINE
  8
_f-f_
  6
CONTINUOUS
 62
    7
 10
277.48515199999997
 20
13.853760000000037
 11
277.70467199999996
 21
13.634240000000005
  0
LINE
  8
_f-f_
  6
CONTINUOUS
 62
    7
 10
277.70467199999996
 20
13.634240000000005
 11
277.86931199999992
 21
13.502527999999984
  0
LINE
  8
_f-f_
  6
CONTINUOUS
 62
    7
 10
277.86931199999992
 20
13.502527999999984
 11
278.06687999999991
 21
13.370815999999991
  0
LINE
  8
_f-f_
  6
CONTINUOUS
 62
    7
 10
278.06687999999991
 20
13.370815999999991
 11
278.14371199999994
 21
13.326912000000021
  0
LINE
  8
_f-f_
  6
CONTINUOUS
 62
    7
 10
278.14371199999994
 20
13.326912000000021
 11
276.27779199999998
 21
13.326912000000021
  0
LINE
  8
_f-f_
  6
CONTINUOUS
 62
    7
 10
276.24486400000001
 20
13.283008000000024
 11
276.24486400000001
 21
12.975680000000011
  0
LINE
  8
_f-f_
  6
CONTINUOUS
 62
    7
 10
278.23151999999993
 20
13.283008000000024
 11
278.38518399999998
 21
13.195199999999971
  0
LINE
  8
_f-f_
  6
CONTINUOUS
 62
    7
 10
278.38518399999998
 20
13.195199999999971
 11
278.56079999999997
 21
13.107392000000061
  0
LINE
  8
_f-f_
  6
CONTINUOUS
 62
    7
 10
278.56079999999997
 20
13.107392000000061
 11
278.78031999999996
 21
13.019583999999952
  0
LINE
  8
_f-f_
  6
CONTINUOUS
 62
    7
 10
278.78031999999996
 20
13.019583999999952
 11
278.91203199999995
 21
12.975680000000011
  0
LINE
  8
_f-f_
  6
CONTINUOUS
 62
    7
 10
278.9339839999999
 20
12.536639999999977
 11
275.43263999999999
 21
12.536639999999977
  0
LINE
  8
_f-f_
  6
CONTINUOUS
 62
    7
 10
276.66195199999999
 20
12.141503999999998
 11
276.6290239999999
 21
12.0976
  0
LINE
  8
_f-f_
  6
CONTINUOUS
 62
    7
 10
276.6290239999999
 20
12.0976
 11
276.54121599999996
 21
11.921984000000009
  0
LINE
  8
_f-f_
  6
CONTINUOUS
 62
    7
 10
276.54121599999996
 20
11.921984000000009
 11
276.50828799999999
 21
11.878080000000011
  0
LINE
  8
_f-f_
  6
CONTINUOUS
 62
    7
 10
276.50828799999999
 20
11.878080000000011
 11
276.42048
 21
11.70246400000002
  0
LINE
  8
_f-f_
  6
CONTINUOUS
 62
    7
 10
276.42048
 20
11.70246400000002
 11
276.38755199999997
 21
11.658559999999994
  0
LINE
  8
_f-f_
  6
CONTINUOUS
 62
    7
 10
276.38755199999997
 20
11.658559999999994
 11
276.29974399999992
 21
11.482944000000003
  0
LINE
  8
_f-f_
  6
CONTINUOUS
 62
    7
 10
276.29974399999992
 20
11.482944000000003
 11
276.26681599999995
 21
11.439040000000034
  0
LINE
  8
_f-f_
  6
CONTINUOUS
 62
    7
 10
276.26681599999995
 20
11.439040000000034
 11
276.20096000000001
 21
11.307327999999984
  0
LINE
  8
_f-f_
  6
CONTINUOUS
 62
    7
 10
276.20096000000001
 20
11.307327999999984
 11
275.57532799999996
 21
11.263423999999986
  0
LINE
  8
_f-f_
  6
CONTINUOUS
 62
    7
 10
275.57532799999996
 20
11.263423999999986
 11
275.49849599999993
 21
11.219519999999989
  0
LINE
  8
_f-f_
  6
CONTINUOUS
 62
    7
 10
275.49849599999993
 20
11.219519999999989
 11
275.50947199999996
 21
11.175616000000019
  0
LINE
  8
_f-f_
  6
CONTINUOUS
 62
    7
 10
275.50947199999996
 20
11.175616000000019
 11
275.53142400000002
 21
11.131712000000022
  0
LINE
  8
_f-f_
  6
CONTINUOUS
 62
    7
 10
275.53142400000002
 20
11.131712000000022
 11
275.59727999999996
 21
10.868288000000035
  0
LINE
  8
_f-f_
  6
CONTINUOUS
 62
    7
 10
275.59727999999996
 20
10.868288000000035
 11
275.63020799999993
 21
10.824384000000038
  0
LINE
  8
_f-f_
  6
CONTINUOUS
 62
    7
 10
277.81443200000001
 20
12.009792000000004
 11
277.77052800000001
 21
12.009792000000004
  0
LINE
  8
_f-f_
  6
CONTINUOUS
 62
    7
 10
277.77052800000001
 20
12.009792000000004
 11
277.50710400000003
 21
11.834176000000014
  0
LINE
  8
_f-f_
  6
CONTINUOUS
 62
    7
 10
277.50710400000003
 20
11.834176000000014
 11
277.55100799999997
 21
11.790272000000016
  0
LINE
  8
_f-f_
  6
CONTINUOUS
 62
    7
 10
277.55100799999997
 20
11.790272000000016
 11
277.88028799999995
 21
11.52684800000003
  0
LINE
  8
_f-f_
  6
CONTINUOUS
 62
    7
 10
277.88028799999995
 20
11.52684800000003
 11
277.92419200000001
 21
11.482944000000003
  0
LINE
  8
_f-f_
  6
CONTINUOUS
 62
    7
 10
277.92419200000001
 20
11.482944000000003
 11
277.97907199999997
 21
11.439040000000034
  0
LINE
  8
_f-f_
  6
CONTINUOUS
 62
    7
 10
277.97907199999997
 20
11.439040000000034
 11
277.73759999999999
 21
11.395136000000008
  0
LINE
  8
_f-f_
  6
CONTINUOUS
 62
    7
 10
277.73759999999999
 20
11.395136000000008
 11
277.14489600000002
 21
11.35123200000001
  0
LINE
  8
_f-f_
  6
CONTINUOUS
 62
    7
 10
277.14489600000002
 20
11.35123200000001
 11
276.58511999999996
 21
11.35123200000001
  0
LINE
  8
_f-f_
  6
CONTINUOUS
 62
    7
 10
278.26444799999996
 20
11.131712000000022
 11
278.30835200000001
 21
11.087808000000024
  0
LINE
  8
_f-f_
  6
CONTINUOUS
 62
    7
 10
278.30835200000001
 20
11.087808000000024
 11
278.36323199999993
 21
11.043903999999998
  0
LINE
  8
_f-f_
  6
CONTINUOUS
 62
    7
 10
278.36323199999993
 20
11.043903999999998
 11
278.3961599999999
 21
11
  0
LINE
  8
_f-f_
  6
CONTINUOUS
 62
    7
 10
278.3961599999999
 20
11
 11
278.44006399999995
 21
10.956095999999974
  0
LINE
  8
_f-f_
  6
CONTINUOUS
 62
    7
 10
278.44006399999995
 20
10.956095999999974
 11
278.47299199999998
 21
10.912192000000005
  0
LINE
  8
_f-f_
  6
CONTINUOUS
 62
    7
 10
278.47299199999998
 20
10.912192000000005
 11
278.51689599999997
 21
10.868288000000035
  0
LINE
  8
_f-f_
  6
CONTINUOUS
 62
    7
 10
278.51689599999997
 20
10.868288000000035
 11
278.54982399999994
 21
10.824384000000038
  0
LINE
  8
_f-f_
  6
CONTINUOUS
 62
    7
 10
277.05708800000002
 20
14.644031999999967
 11
277.36441599999995
 21
14.600128000000012
  0
LINE
  8
_f-f_
  6
CONTINUOUS
 62
    7
 10
277.36441599999995
 20
14.600128000000012
 11
277.40832
 21
14.556224000000014
  0
LINE
  8
_f-f_
  6
CONTINUOUS
 62
    7
 10
277.40832
 20
14.556224000000014
 11
277.36441599999995
 21
14.512320000000003
  0
LINE
  8
_f-f_
  6
CONTINUOUS
 62
    7
 10
277.36441599999995
 20
14.512320000000003
 11
277.37539199999998
 21
14.468416000000005
  0
LINE
  8
_f-f_
  6
CONTINUOUS
 62
    7
 10
277.37539199999998
 20
14.468416000000005
 11
277.50710400000003
 21
14.292800000000028
  0
LINE
  8
_f-f_
  6
CONTINUOUS
 62
    7
 10
277.50710400000003
 20
14.292800000000028
 11
277.59491200000002
 21
14.204992000000018
  0
LINE
  8
_f-f_
  6
CONTINUOUS
 62
    7
 10
277.59491200000002
 20
14.204992000000018
 11
277.62783999999999
 21
14.161087999999992
  0
LINE
  8
_f-f_
  6
CONTINUOUS
 62
    7
 10
277.62783999999999
 20
14.161087999999992
 11
277.67174399999999
 21
14.117184000000023
  0
LINE
  8
_f-f_
  6
CONTINUOUS
 62
    7
 10
277.67174399999999
 20
14.117184000000023
 11
277.72662399999996
 21
14.073279999999997
  0
LINE
  8
_f-f_
  6
CONTINUOUS
 62
    7
 10
277.72662399999996
 20
14.073279999999997
 11
277.77052800000001
 21
14.029375999999999
  0
LINE
  8
_f-f_
  6
CONTINUOUS
 62
    7
 10
277.77052800000001
 20
14.029375999999999
 11
277.93516799999998
 21
13.897663999999992
  0
LINE
  8
_f-f_
  6
CONTINUOUS
 62
    7
 10
277.93516799999998
 20
13.897663999999992
 11
278.13273600000002
 21
13.765952000000013
  0
LINE
  8
_f-f_
  6
CONTINUOUS
 62
    7
 10
278.13273600000002
 20
13.765952000000013
 11
278.28639999999996
 21
13.678143999999975
  0
LINE
  8
_f-f_
  6
CONTINUOUS
 62
    7
 10
278.28639999999996
 20
13.678143999999975
 11
278.46201599999995
 21
13.590336000000008
  0
LINE
  8
_f-f_
  6
CONTINUOUS
 62
    7
 10
278.46201599999995
 20
13.590336000000008
 11
278.68153599999994
 21
13.502527999999984
  0
LINE
  8
_f-f_
  6
CONTINUOUS
 62
    7
 10
278.68153599999994
 20
13.502527999999984
 11
278.80227199999996
 21
13.458624000000043
  0
LINE
  8
_f-f_
  6
CONTINUOUS
 62
    7
 10
278.80227199999996
 20
13.458624000000043
 11
278.94495999999992
 21
13.414720000000017
  0
LINE
  8
_f-f_
  6
CONTINUOUS
 62
    7
 10
278.94495999999992
 20
13.414720000000017
 11
279.09862399999997
 21
13.370815999999991
  0
LINE
  8
_f-f_
  6
CONTINUOUS
 62
    7
 10
279.09862399999997
 20
13.370815999999991
 11
279.08764799999994
 21
13.326912000000021
  0
LINE
  8
_f-f_
  6
CONTINUOUS
 62
    7
 10
279.08764799999994
 20
13.326912000000021
 11
279.04374399999995
 21
13.239103999999998
  0
LINE
  8
_f-f_
  6
CONTINUOUS
 62
    7
 10
279.04374399999995
 20
13.239103999999998
 11
279.03276799999992
 21
13.195199999999971
  0
LINE
  8
_f-f_
  6
CONTINUOUS
 62
    7
 10
279.03276799999992
 20
13.195199999999971
 11
278.98886399999998
 21
13.107392000000061
  0
LINE
  8
_f-f_
  6
CONTINUOUS
 62
    7
 10
278.98886399999998
 20
13.107392000000061
 11
278.97788799999995
 21
13.063488000000007
  0
LINE
  8
_f-f_
  6
CONTINUOUS
 62
    7
 10
278.97788799999995
 20
13.063488000000007
 11
278.9339839999999
 21
12.975680000000011
  0
LINE
  8
_f-f_
  6
CONTINUOUS
 62
    7
 10
278.9339839999999
 20
12.975680000000011
 11
278.91203199999995
 21
12.975680000000011
  0
LINE
  8
_f-f_
  6
CONTINUOUS
 62
    7
 10
277.17782399999993
 20
14.292800000000028
 11
277.14489600000002
 21
14.292800000000028
  0
LINE
  8
_f-f_
  6
CONTINUOUS
 62
    7
 10
277.14489600000002
 20
14.292800000000028
 11
277.11196799999999
 21
14.248896000000016
  0
LINE
  8
_f-f_
  6
CONTINUOUS
 62
    7
 10
277.11196799999999
 20
14.248896000000016
 11
277.09001599999993
 21
14.204992000000018
  0
LINE
  8
_f-f_
  6
CONTINUOUS
 62
    7
 10
277.09001599999993
 20
14.204992000000018
 11
277.05708800000002
 21
14.161087999999992
  0
LINE
  8
_f-f_
  6
CONTINUOUS
 62
    7
 10
277.05708800000002
 20
14.161087999999992
 11
277.03513599999997
 21
14.117184000000023
  0
LINE
  8
_f-f_
  6
CONTINUOUS
 62
    7
 10
277.03513599999997
 20
14.117184000000023
 11
276.83756799999998
 21
13.853760000000037
  0
LINE
  8
_f-f_
  6
CONTINUOUS
 62
    7
 10
276.83756799999998
 20
13.853760000000037
 11
276.79366399999992
 21
13.809856000000011
  0
LINE
  8
_f-f_
  6
CONTINUOUS
 62
    7
 10
276.79366399999992
 20
13.809856000000011
 11
276.76073599999995
 21
13.765952000000013
  0
LINE
  8
_f-f_
  6
CONTINUOUS
 62
    7
 10
276.76073599999995
 20
13.765952000000013
 11
276.49731199999997
 21
13.502527999999984
  0
LINE
  8
_f-f_
  6
CONTINUOUS
 62
    7
 10
276.49731199999997
 20
13.502527999999984
 11
276.27779199999998
 21
13.326912000000021
  0
LINE
  8
_f-f_
  6
CONTINUOUS
 62
    7
 10
276.24486400000001
 20
13.283008000000024
 11
276.21193599999998
 21
13.283008000000024
  0
LINE
  8
_f-f_
  6
CONTINUOUS
 62
    7
 10
276.21193599999998
 20
13.283008000000024
 11
276.01436799999999
 21
13.151296000000031
  0
LINE
  8
_f-f_
  6
CONTINUOUS
 62
    7
 10
276.01436799999999
 20
13.151296000000031
 11
275.78387199999997
 21
13.019583999999952
  0
LINE
  8
_f-f_
  6
CONTINUOUS
 62
    7
 10
275.78387199999997
 20
13.019583999999952
 11
275.58630399999993
 21
12.931776000000013
  0
LINE
  8
_f-f_
  6
CONTINUOUS
 62
    7
 10
275.58630399999993
 20
12.931776000000013
 11
275.47654399999999
 21
12.887871999999987
  0
LINE
  8
_f-f_
  6
CONTINUOUS
 62
    7
 10
275.47654399999999
 20
12.887871999999987
 11
275.35580800000002
 21
12.887871999999987
  0
LINE
  8
_f-f_
  6
CONTINUOUS
 62
    7
 10
278.23151999999993
 20
13.283008000000024
 11
278.16566399999994
 21
13.283008000000024
  0
LINE
  8
_f-f_
  6
CONTINUOUS
 62
    7
 10
278.16566399999994
 20
13.283008000000024
 11
278.16566399999994
 21
12.975680000000011
  0
LINE
  8
_f-f_
  6
CONTINUOUS
 62
    7
 10
278.16566399999994
 20
12.975680000000011
 11
276.24486400000001
 21
12.975680000000011
  0
LINE
  8
_f-f_
  6
CONTINUOUS
 62
    7
 10
277.05708800000002
 20
12.141503999999998
 11
277.01318399999997
 21
12.053696000000031
  0
LINE
  8
_f-f_
  6
CONTINUOUS
 62
    7
 10
277.01318399999997
 20
12.053696000000031
 11
276.98025599999994
 21
12.009792000000004
  0
LINE
  8
_f-f_
  6
CONTINUOUS
 62
    7
 10
276.98025599999994
 20
12.009792000000004
 11
276.958304
 21
11.965888000000007
  0
LINE
  8
_f-f_
  6
CONTINUOUS
 62
    7
 10
276.958304
 20
11.965888000000007
 11
276.92537599999997
 21
11.921984000000009
  0
LINE
  8
_f-f_
  6
CONTINUOUS
 62
    7
 10
276.92537599999997
 20
11.921984000000009
 11
276.88147199999992
 21
11.834176000000014
  0
LINE
  8
_f-f_
  6
CONTINUOUS
 62
    7
 10
276.88147199999992
 20
11.834176000000014
 11
276.84854399999995
 21
11.790272000000016
  0
LINE
  8
_f-f_
  6
CONTINUOUS
 62
    7
 10
276.84854399999995
 20
11.790272000000016
 11
276.82659199999995
 21
11.746368000000018
  0
LINE
  8
_f-f_
  6
CONTINUOUS
 62
    7
 10
276.82659199999995
 20
11.746368000000018
 11
276.79366399999992
 21
11.70246400000002
  0
LINE
  8
_f-f_
  6
CONTINUOUS
 62
    7
 10
276.79366399999992
 20
11.70246400000002
 11
276.74975999999998
 21
11.614655999999997
  0
LINE
  8
_f-f_
  6
CONTINUOUS
 62
    7
 10
276.74975999999998
 20
11.614655999999997
 11
276.71683199999995
 21
11.570752000000027
  0
LINE
  8
_f-f_
  6
CONTINUOUS
 62
    7
 10
276.71683199999995
 20
11.570752000000027
 11
276.69488000000001
 21
11.52684800000003
  0
LINE
  8
_f-f_
  6
CONTINUOUS
 62
    7
 10
276.69488000000001
 20
11.52684800000003
 11
276.66195199999999
 21
11.482944000000003
  0
LINE
  8
_f-f_
  6
CONTINUOUS
 62
    7
 10
276.66195199999999
 20
11.482944000000003
 11
276.61804799999993
 21
11.395136000000008
  0
LINE
  8
_f-f_
  6
CONTINUOUS
 62
    7
 10
276.61804799999993
 20
11.395136000000008
 11
276.58511999999996
 21
11.35123200000001
  0
LINE
  8
_f-f_
  6
CONTINUOUS
 62
    7
 10
277.81443200000001
 20
12.009792000000004
 11
277.92419200000001
 21
11.921984000000009
  0
LINE
  8
_f-f_
  6
CONTINUOUS
 62
    7
 10
277.92419200000001
 20
11.921984000000009
 11
277.990048
 21
11.878080000000011
  0
LINE
  8
_f-f_
  6
CONTINUOUS
 62
    7
 10
277.990048
 20
11.878080000000011
 11
278.20956799999988
 21
11.70246400000002
  0
LINE
  8
_f-f_
  6
CONTINUOUS
 62
    7
 10
278.20956799999988
 20
11.70246400000002
 11
278.25347199999993
 21
11.658559999999994
  0
LINE
  8
_f-f_
  6
CONTINUOUS
 62
    7
 10
278.25347199999993
 20
11.658559999999994
 11
278.36323199999993
 21
11.570752000000027
  0
LINE
  8
_f-f_
  6
CONTINUOUS
 62
    7
 10
278.36323199999993
 20
11.570752000000027
 11
278.40713599999992
 21
11.52684800000003
  0
LINE
  8
_f-f_
  6
CONTINUOUS
 62
    7
 10
278.40713599999992
 20
11.52684800000003
 11
278.46201599999995
 21
11.482944000000003
  0
LINE
  8
_f-f_
  6
CONTINUOUS
 62
    7
 10
278.46201599999995
 20
11.482944000000003
 11
278.54982399999994
 21
11.395136000000008
  0
LINE
  8
_f-f_
  6
CONTINUOUS
 62
    7
 10
278.54982399999994
 20
11.395136000000008
 11
278.60470399999997
 21
11.35123200000001
  0
LINE
  8
_f-f_
  6
CONTINUOUS
 62
    7
 10
278.60470399999997
 20
11.35123200000001
 11
278.73641599999996
 21
11.219519999999989
  0
LINE
  8
_f-f_
  6
CONTINUOUS
 62
    7
 10
278.73641599999996
 20
11.219519999999989
 11
278.76934399999993
 21
11.175616000000019
  0
LINE
  8
_f-f_
  6
CONTINUOUS
 62
    7
 10
278.76934399999993
 20
11.175616000000019
 11
278.81324799999999
 21
11.131712000000022
  0
LINE
  8
_f-f_
  6
CONTINUOUS
 62
    7
 10
278.81324799999999
 20
11.131712000000022
 11
278.87910399999993
 21
11.043903999999998
  0
LINE
  8
_f-f_
  6
CONTINUOUS
 62
    7
 10
278.87910399999993
 20
11.043903999999998
 11
278.90105599999998
 21
11
  0
LINE
  8
_f-f_
  6
CONTINUOUS
 62
    7
 10
278.90105599999998
 20
11
 11
278.82422399999996
 21
10.956095999999974
  0
LINE
  8
_f-f_
  6
CONTINUOUS
 62
    7
 10
278.82422399999996
 20
10.956095999999974
 11
278.69251199999997
 21
10.868288000000035
  0
LINE
  8
_f-f_
  6
CONTINUOUS
 62
    7
 10
278.69251199999997
 20
10.868288000000035
 11
278.61567999999994
 21
10.824384000000038
  0
LINE
  8
_f-f_
  6
CONTINUOUS
 62
    7
 10
278.61567999999994
 20
10.824384000000038
 11
278.54982399999994
 21
10.824384000000038
  0
LINE
  8
_f-f_
  6
CONTINUOUS
 62
    7
 10
278.26444799999996
 20
11.131712000000022
 11
278.08883199999997
 21
11.131712000000022
  0
LINE
  8
_f-f_
  6
CONTINUOUS
 62
    7
 10
278.08883199999997
 20
11.131712000000022
 11
277.69369599999993
 21
11.087808000000024
  0
LINE
  8
_f-f_
  6
CONTINUOUS
 62
    7
 10
277.69369599999993
 20
11.087808000000024
 11
277.28758399999992
 21
11.043903999999998
  0
LINE
  8
_f-f_
  6
CONTINUOUS
 62
    7
 10
277.28758399999992
 20
11.043903999999998
 11
276.10217599999993
 21
10.912192000000005
  0
LINE
  8
_f-f_
  6
CONTINUOUS
 62
    7
 10
276.10217599999993
 20
10.912192000000005
 11
275.73996799999998
 21
10.868288000000035
  0
LINE
  8
_f-f_
  6
CONTINUOUS
 62
    7
 10
275.73996799999998
 20
10.868288000000035
 11
275.67411199999998
 21
10.824384000000038
  0
LINE
  8
_f-f_
  6
CONTINUOUS
 62
    7
 10
275.67411199999998
 20
10.824384000000038
 11
275.63020799999993
 21
10.824384000000038
  0
LINE
  8
_f-f_
  6
CONTINUOUS
 62
    7
 10
280.723072
 20
14.600128000000012
 11
280.33891199999999
 21
14.600128000000012
  0
LINE
  8
_f-f_
  6
CONTINUOUS
 62
    7
 10
280.82185599999991
 20
13.546432000000038
 11
280.79990399999997
 21
13.502527999999984
  0
LINE
  8
_f-f_
  6
CONTINUOUS
 62
    7
 10
280.79990399999997
 20
13.502527999999984
 11
280.76697599999994
 21
13.458624000000043
  0
LINE
  8
_f-f_
  6
CONTINUOUS
 62
    7
 10
280.76697599999994
 20
13.458624000000043
 11
280.74502399999994
 21
13.414720000000017
  0
LINE
  8
_f-f_
  6
CONTINUOUS
 62
    7
 10
280.74502399999994
 20
13.414720000000017
 11
280.67916799999995
 21
13.326912000000021
  0
LINE
  8
_f-f_
  6
CONTINUOUS
 62
    7
 10
280.67916799999995
 20
13.326912000000021
 11
280.65721599999995
 21
13.283008000000024
  0
LINE
  8
_f-f_
  6
CONTINUOUS
 62
    7
 10
280.65721599999995
 20
13.283008000000024
 11
280.59135999999995
 21
13.195199999999971
  0
LINE
  8
_f-f_
  6
CONTINUOUS
 62
    7
 10
280.59135999999995
 20
13.195199999999971
 11
280.54745600000001
 21
13.151296000000031
  0
LINE
  8
_f-f_
  6
CONTINUOUS
 62
    7
 10
280.54745600000001
 20
13.151296000000031
 11
280.48159999999996
 21
13.063488000000007
  0
LINE
  8
_f-f_
  6
CONTINUOUS
 62
    7
 10
280.48159999999996
 20
13.063488000000007
 11
280.43769599999996
 21
13.019583999999952
  0
LINE
  8
_f-f_
  6
CONTINUOUS
 62
    7
 10
280.43769599999996
 20
13.019583999999952
 11
280.40476799999999
 21
12.975680000000011
  0
LINE
  8
_f-f_
  6
CONTINUOUS
 62
    7
 10
280.40476799999999
 20
12.975680000000011
 11
280.22915199999994
 21
12.800064000000049
  0
LINE
  8
_f-f_
  6
CONTINUOUS
 62
    7
 10
280.22915199999994
 20
12.800064000000049
 11
280.17427199999997
 21
12.756160000000023
  0
LINE
  8
_f-f_
  6
CONTINUOUS
 62
    7
 10
280.17427199999997
 20
12.756160000000023
 11
280.13036799999998
 21
12.712256000000025
  0
LINE
  8
_f-f_
  6
CONTINUOUS
 62
    7
 10
280.13036799999998
 20
12.712256000000025
 11
280.02060799999992
 21
12.624447999999973
  0
LINE
  8
_f-f_
  6
CONTINUOUS
 62
    7
 10
280.02060799999992
 20
12.624447999999973
 11
279.95475199999993
 21
12.580544000000003
  0
LINE
  8
_f-f_
  6
CONTINUOUS
 62
    7
 10
279.95475199999993
 20
12.580544000000003
 11
279.89987199999996
 21
12.536639999999977
  0
LINE
  8
_f-f_
  6
CONTINUOUS
 62
    7
 10
279.89987199999996
 20
12.536639999999977
 11
279.70230399999997
 21
12.404927999999984
  0
LINE
  8
_f-f_
  6
CONTINUOUS
 62
    7
 10
279.70230399999997
 20
12.404927999999984
 11
279.62547199999995
 21
12.361024000000015
  0
LINE
  8
_f-f_
  6
CONTINUOUS
 62
    7
 10
279.62547199999995
 20
12.361024000000015
 11
279.55961599999989
 21
12.317120000000017
  0
LINE
  8
_f-f_
  6
CONTINUOUS
 62
    7
 10
279.55961599999989
 20
12.317120000000017
 11
279.60351999999995
 21
12.229311999999993
  0
LINE
  8
_f-f_
  6
CONTINUOUS
 62
    7
 10
279.60351999999995
 20
12.229311999999993
 11
279.61449599999997
 21
12.185407999999995
  0
LINE
  8
_f-f_
  6
CONTINUOUS
 62
    7
 10
279.61449599999997
 20
12.185407999999995
 11
279.70230399999997
 21
12.009792000000004
  0
LINE
  8
_f-f_
  6
CONTINUOUS
 62
    7
 10
282.59996799999999
 20
14.512320000000003
 11
282.17190399999993
 21
14.512320000000003
  0
LINE
  8
_f-f_
  6
CONTINUOUS
 62
    7
 10
282.17190399999993
 20
14.512320000000003
 11
282.17190399999993
 21
13.502527999999984
  0
LINE
  8
_f-f_
  6
CONTINUOUS
 62
    7
 10
282.17190399999993
 20
13.107392000000061
 11
282.17190399999993
 21
11.35123200000001
  0
LINE
  8
_f-f_
  6
CONTINUOUS
 62
    7
 10
281.11820799999992
 20
13.941568000000032
 11
281.08528000000001
 21
13.941568000000032
  0
LINE
  8
_f-f_
  6
CONTINUOUS
 62
    7
 10
281.08528000000001
 20
13.941568000000032
 11
281.06332799999996
 21
13.897663999999992
  0
LINE
  8
_f-f_
  6
CONTINUOUS
 62
    7
 10
281.06332799999996
 20
13.897663999999992
 11
280.69014399999992
 21
13.897663999999992
  0
LINE
  8
_f-f_
  6
CONTINUOUS
 62
    7
 10
280.33891199999999
 20
12.448831999999982
 11
280.33891199999999
 21
10.78048000000004
  0
LINE
  8
_f-f_
  6
CONTINUOUS
 62
    7
 10
280.69014399999992
 20
12.448831999999982
 11
280.76697599999994
 21
12.404927999999984
  0
LINE
  8
_f-f_
  6
CONTINUOUS
 62
    7
 10
280.76697599999994
 20
12.404927999999984
 11
281.03039999999999
 21
12.229311999999993
  0
LINE
  8
_f-f_
  6
CONTINUOUS
 62
    7
 10
281.03039999999999
 20
12.229311999999993
 11
281.14015999999992
 21
12.141503999999998
  0
LINE
  8
_f-f_
  6
CONTINUOUS
 62
    7
 10
281.14015999999992
 20
12.141503999999998
 11
281.20601599999998
 21
12.0976
  0
LINE
  8
_f-f_
  6
CONTINUOUS
 62
    7
 10
280.723072
 20
14.600128000000012
 11
280.67916799999995
 21
14.556224000000014
  0
LINE
  8
_f-f_
  6
CONTINUOUS
 62
    7
 10
280.67916799999995
 20
14.556224000000014
 11
280.66819199999998
 21
14.512320000000003
  0
LINE
  8
_f-f_
  6
CONTINUOUS
 62
    7
 10
280.66819199999998
 20
14.512320000000003
 11
280.66819199999998
 21
13.941568000000032
  0
LINE
  8
_f-f_
  6
CONTINUOUS
 62
    7
 10
280.66819199999998
 20
13.941568000000032
 11
280.69014399999992
 21
13.897663999999992
  0
LINE
  8
_f-f_
  6
CONTINUOUS
 62
    7
 10
282.59996799999999
 20
14.512320000000003
 11
282.62191999999993
 21
14.468416000000005
  0
LINE
  8
_f-f_
  6
CONTINUOUS
 62
    7
 10
282.62191999999993
 20
14.468416000000005
 11
282.57801599999993
 21
14.424512000000007
  0
LINE
  8
_f-f_
  6
CONTINUOUS
 62
    7
 10
282.57801599999993
 20
14.424512000000007
 11
282.55606399999994
 21
14.380608000000009
  0
LINE
  8
_f-f_
  6
CONTINUOUS
 62
    7
 10
282.55606399999994
 20
14.380608000000009
 11
282.55606399999994
 21
13.502527999999984
  0
LINE
  8
_f-f_
  6
CONTINUOUS
 62
    7
 10
282.55606399999994
 20
13.107392000000061
 11
282.55606399999994
 21
11.35123200000001
  0
LINE
  8
_f-f_
  6
CONTINUOUS
 62
    7
 10
283.5
 20
11
 11
281.16211199999998
 21
11
  0
LINE
  8
_f-f_
  6
CONTINUOUS
 62
    7
 10
281.11820799999992
 20
13.941568000000032
 11
281.33772799999997
 21
13.722048000000001
  0
LINE
  8
_f-f_
  6
CONTINUOUS
 62
    7
 10
281.33772799999997
 20
13.722048000000001
 11
281.29382399999997
 21
13.678143999999975
  0
LINE
  8
_f-f_
  6
CONTINUOUS
 62
    7
 10
281.29382399999997
 20
13.678143999999975
 11
281.22796799999992
 21
13.634240000000005
  0
LINE
  8
_f-f_
  6
CONTINUOUS
 62
    7
 10
281.22796799999992
 20
13.634240000000005
 11
281.16211199999998
 21
13.502527999999984
  0
LINE
  8
_f-f_
  6
CONTINUOUS
 62
    7
 10
281.16211199999998
 20
13.502527999999984
 11
281.12918399999995
 21
13.458624000000043
  0
LINE
  8
_f-f_
  6
CONTINUOUS
 62
    7
 10
281.12918399999995
 20
13.458624000000043
 11
281.08528000000001
 21
13.370815999999991
  0
LINE
  8
_f-f_
  6
CONTINUOUS
 62
    7
 10
281.08528000000001
 20
13.370815999999991
 11
281.05235199999998
 21
13.326912000000021
  0
LINE
  8
_f-f_
  6
CONTINUOUS
 62
    7
 10
281.05235199999998
 20
13.326912000000021
 11
281.03039999999999
 21
13.283008000000024
  0
LINE
  8
_f-f_
  6
CONTINUOUS
 62
    7
 10
281.03039999999999
 20
13.283008000000024
 11
280.93161599999996
 21
13.151296000000031
  0
LINE
  8
_f-f_
  6
CONTINUOUS
 62
    7
 10
280.93161599999996
 20
13.151296000000031
 11
280.90966400000002
 21
13.107392000000061
  0
LINE
  8
_f-f_
  6
CONTINUOUS
 62
    7
 10
280.90966400000002
 20
13.107392000000061
 11
280.74502399999994
 21
12.887871999999987
  0
LINE
  8
_f-f_
  6
CONTINUOUS
 62
    7
 10
280.74502399999994
 20
12.887871999999987
 11
280.70111999999995
 21
12.84396799999999
  0
LINE
  8
_f-f_
  6
CONTINUOUS
 62
    7
 10
280.70111999999995
 20
12.84396799999999
 11
280.66819199999998
 21
12.800064000000049
  0
LINE
  8
_f-f_
  6
CONTINUOUS
 62
    7
 10
280.66819199999998
 20
12.800064000000049
 11
280.75599999999997
 21
12.756160000000023
  0
LINE
  8
_f-f_
  6
CONTINUOUS
 62
    7
 10
280.75599999999997
 20
12.756160000000023
 11
280.87673599999994
 21
12.712256000000025
  0
LINE
  8
_f-f_
  6
CONTINUOUS
 62
    7
 10
280.87673599999994
 20
12.712256000000025
 11
281.07430399999998
 21
12.624447999999973
  0
LINE
  8
_f-f_
  6
CONTINUOUS
 62
    7
 10
281.07430399999998
 20
12.624447999999973
 11
281.16211199999998
 21
12.580544000000003
  0
LINE
  8
_f-f_
  6
CONTINUOUS
 62
    7
 10
281.16211199999998
 20
12.580544000000003
 11
281.31577599999991
 21
12.492735999999979
  0
LINE
  8
_f-f_
  6
CONTINUOUS
 62
    7
 10
281.31577599999991
 20
12.492735999999979
 11
281.38163199999997
 21
12.448831999999982
  0
LINE
  8
_f-f_
  6
CONTINUOUS
 62
    7
 10
281.38163199999997
 20
12.448831999999982
 11
281.40358399999991
 21
12.404927999999984
  0
LINE
  8
_f-f_
  6
CONTINUOUS
 62
    7
 10
281.40358399999991
 20
12.404927999999984
 11
281.24991999999997
 21
12.0976
  0
LINE
  8
_f-f_
  6
CONTINUOUS
 62
    7
 10
281.24991999999997
 20
12.0976
 11
281.20601599999998
 21
12.0976
  0
LINE
  8
_f-f_
  6
CONTINUOUS
 62
    7
 10
280.33891199999999
 20
12.448831999999982
 11
280.31695999999999
 21
12.448831999999982
  0
LINE
  8
_f-f_
  6
CONTINUOUS
 62
    7
 10
280.31695999999999
 20
12.448831999999982
 11
280.27305599999988
 21
12.404927999999984
  0
LINE
  8
_f-f_
  6
CONTINUOUS
 62
    7
 10
280.27305599999988
 20
12.404927999999984
 11
280.05353599999995
 21
12.229311999999993
  0
LINE
  8
_f-f_
  6
CONTINUOUS
 62
    7
 10
280.05353599999995
 20
12.229311999999993
 11
279.98767999999995
 21
12.185407999999995
  0
LINE
  8
_f-f_
  6
CONTINUOUS
 62
    7
 10
279.98767999999995
 20
12.185407999999995
 11
279.93279999999993
 21
12.141503999999998
  0
LINE
  8
_f-f_
  6
CONTINUOUS
 62
    7
 10
279.93279999999993
 20
12.141503999999998
 11
279.80108799999994
 21
12.053696000000031
  0
LINE
  8
_f-f_
  6
CONTINUOUS
 62
    7
 10
279.80108799999994
 20
12.053696000000031
 11
279.72425599999997
 21
12.009792000000004
  0
LINE
  8
_f-f_
  6
CONTINUOUS
 62
    7
 10
279.72425599999997
 20
12.009792000000004
 11
279.70230399999997
 21
12.009792000000004
  0
LINE
  8
_f-f_
  6
CONTINUOUS
 62
    7
 10
280.69014399999992
 20
12.448831999999982
 11
280.66819199999998
 21
12.448831999999982
  0
LINE
  8
_f-f_
  6
CONTINUOUS
 62
    7
 10
280.66819199999998
 20
12.448831999999982
 11
280.66819199999998
 21
10.78048000000004
  0
LINE
  8
_f-f_
  6
CONTINUOUS
 62
    7
 10
280.66819199999998
 20
10.78048000000004
 11
280.33891199999999
 21
10.78048000000004
  0
LINE
  8
_f-f_
  6
CONTINUOUS
 62
    7
 10
261.69803650015848
 20
10.818143377298185
 11
261.46786978015854
 21
11.320637828498263
  0
ARC
  8
_f-f_
  6
CONTINUOUS
 62
    7
 10
261.14397350815852
 20
13.801814490098195
 40
2.5022283551999998
 50
277.43740700000006
 51
318.25330200000008
  0
LINE
  8
_f-f_
  6
CONTINUOUS
 62
    7
 10
259.91794882015853
 20
11.278091559698225
 11
259.38451522015851
 21
10.85915849409821
  0
ARC
  8
_f-f_
  6
CONTINUOUS
 62
    7
 10
248.43833509135854
 20
2.5524020556982236
 40
13.741217431199997
 50
37.193868000000002
 51
44.067300000000003
  0
ARC
  8
_f-f_
  6
CONTINUOUS
 62
    7
 10
251.63328789295852
 20
5.1972563964982612
 40
9.6114510576000001
 50
45.985430000000001
 51
52.858862000000002
  0
LINE
  8
_f-f_
  6
CONTINUOUS
 62
    7
 10
257.43649474015854
 20
12.859030695698209
 11
257.84546050015854
 21
13.256932647698193
  0
ARC
  8
_f-f_
  6
CONTINUOUS
 62
    7
 10
259.60822146655852
 20
14.802502172498251
 40
1.5138771480000004
 50
335.50113199999998
 51
353.79681699999998
  0
ARC
  8
_f-f_
  6
CONTINUOUS
 62
    7
 10
255.5557247609585
 20
17.049016618898278
 40
6.1438791120000014
 50
318.37204700000001
 51
332.10656799999998
  0
ARC
  8
_f-f_
  6
CONTINUOUS
 62
    7
 10
253.24143214255852
 20
15.569703169298236
 40
3.3701116512000007
 50
327.63748900000002
 51
343.65418099999999
  0
ARC
  8
_f-f_
  6
CONTINUOUS
 62
    7
 10
253.40907764575854
 20
15.622958446898267
 40
3.2597962655999995
 50
295.64126099999999
 51
325.26891000000001
  0
LINE
  8
_f-f_
  6
CONTINUOUS
 62
    7
 10
254.81970658015848
 20
12.68418301569821
 11
254.54706274015854
 21
13.113498279698177
  0
LINE
  8
_f-f_
  6
CONTINUOUS
 62
    7
 10
253.63923778015851
 20
15.293364807698225
 11
253.08308386015847
 21
15.228364935698238
  0
LINE
  8
_f-f_
  6
CONTINUOUS
 62
    7
 10
253.74691234015856
 20
10.796371383698215
 11
254.30800546015854
 21
10.877532318098247
  0
LINE
  8
_f-f_
  6
CONTINUOUS
 62
    7
 10
251.82161218015855
 20
14.621238471698234
 11
251.82161218015855
 21
14.055798855698214
  0
LINE
  8
_f-f_
  6
CONTINUOUS
 62
    7
 10
265.43503522015851
 20
13.13197088769823
 11
265.43799874015849
 21
13.697410503698194
  0
LINE
  8
_f-f_
  6
CONTINUOUS
 62
    7
 10
265.43799874015849
 20
13.697410503698194
 11
261.28709506015849
 21
13.697410503698194
  0
LINE
  8
_f-f_
  6
CONTINUOUS
 62
    7
 10
261.28709506015849
 20
13.697410503698194
 11
261.28709506015849
 21
13.13197088769823
  0
LINE
  8
_f-f_
  6
CONTINUOUS
 62
    7
 10
261.62197282015848
 20
14.929049415698273
 11
261.62197282015848
 21
14.363609799698224
  0
LINE
  8
_f-f_
  6
CONTINUOUS
 62
    7
 10
261.62197282015848
 20
14.363609799698224
 11
264.40866946015854
 21
14.363609799698224
  0
LINE
  8
_f-f_
  6
CONTINUOUS
 62
    7
 10
261.11323522015851
 20
14.63892080769827
 11
256.72228642015853
 21
14.63892080769827
  0
LINE
  8
_f-f_
  6
CONTINUOUS
 62
    7
 10
256.72228642015853
 20
14.63892080769827
 11
256.72228642015853
 21
14.073678759698211
  0
LINE
  8
_f-f_
  6
CONTINUOUS
 62
    7
 10
248.28712066015856
 20
15.250196199698237
 11
247.73096674015852
 21
15.185295111698224
  0
LINE
  8
_f-f_
  6
CONTINUOUS
 62
    7
 10
248.17648258015853
 20
10.813381988498236
 11
248.73757570015857
 21
10.894552801298175
  0
LINE
  8
_f-f_
  6
CONTINUOUS
 62
    7
 10
240.27079906015857
 20
13.902288519698203
 11
240.87041794015852
 21
13.944370503698195
  0
ARC
  8
_f-f_
  6
CONTINUOUS
 62
    7
 10
236.74753516495866
 20
13.76305823409821
 40
4.1268670632000006
 50
321.70218699999998
 51
2.5180820000000264
  0
ARC
  8
_f-f_
  6
CONTINUOUS
 62
    7
 10
238.33115299375856
 20
13.078716433298212
 40
2.4997389984000002
 50
293.16671400000001
 51
311.462399
  0
LINE
  8
_f-f_
  6
CONTINUOUS
 62
    7
 10
239.31456994015855
 20
10.780546186898221
 11
238.93326370015848
 21
11.179910142098237
  0
ARC
  8
_f-f_
  6
CONTINUOUS
 62
    7
 10
237.93835982095854
 20
13.317551449298207
 40
2.3578267271999995
 50
294.95826699999998
 51
355.396568
  0
ARC
  8
_f-f_
  6
CONTINUOUS
 62
    7
 10
236.41950066655863
 20
13.426618863698252
 40
3.8805615072000004
 50
355.59126199999997
 51
7.040883000000008
  0
LINE
  8
_f-f_
  6
CONTINUOUS
 62
    7
 10
250.53149314015846
 20
12.585794151698195
 11
250.53346882015853
 21
13.151233767698216
  0
LINE
  8
_f-f_
  6
CONTINUOUS
 62
    7
 10
246.08917666015856
 20
13.151233767698216
 11
246.08917666015856
 21
12.585794151698195
  0
LINE
  8
_f-f_
  6
CONTINUOUS
 62
    7
 10
250.33491298015849
 20
14.089879335698242
 11
250.33787650015853
 21
14.65531895169822
  0
LINE
  8
_f-f_
  6
CONTINUOUS
 62
    7
 10
246.3025501001585
 20
14.65531895169822
 11
246.3025501001585
 21
14.089879335698242
  0
LINE
  8
_f-f_
  6
CONTINUOUS
 62
    7
 10
245.69107714015851
 20
12.768050631698202
 11
245.69305282015858
 21
13.333292679698218
  0
LINE
  8
_f-f_
  6
CONTINUOUS
 62
    7
 10
245.69305282015858
 20
13.333292679698218
 11
242.56061218015859
 21
13.333292679698218
  0
LINE
  8
_f-f_
  6
CONTINUOUS
 62
    7
 10
242.56061218015859
 20
13.333292679698218
 11
242.56061218015859
 21
12.768050631698202
  0
LINE
  8
_f-f_
  6
CONTINUOUS
 62
    7
 10
242.56061218015859
 20
12.768050631698202
 11
245.69107714015851
 21
12.768050631698202
  0
LINE
  8
_f-f_
  6
CONTINUOUS
 62
    7
 10
242.94685762015857
 20
15.086511111698243
 11
238.61320354015854
 21
15.086511111698243
  0
LINE
  8
_f-f_
  6
CONTINUOUS
 62
    7
 10
238.61320354015854
 20
15.086511111698243
 11
238.61320354015854
 21
14.526603399698274
  0
LINE
  8
_f-f_
  6
CONTINUOUS
 62
    7
 10
241.43249890015855
 20
12.940725063698153
 11
241.04921698015858
 21
13.386537255698215
  0
LINE
  8
_f-f_
  6
CONTINUOUS
 62
    7
 10
264.40866946015854
 20
14.363609799698224
 11
264.41163298015852
 21
14.929049415698273
  0
LINE
  8
_f-f_
  6
CONTINUOUS
 62
    7
 10
264.41163298015852
 20
14.929049415698273
 11
261.62197282015848
 21
14.929049415698273
  0
LINE
  8
_f-f_
  6
CONTINUOUS
 62
    7
 10
264.76923106015852
 20
15.129383367698281
 11
264.76923106015852
 21
14.298116007698198
  0
LINE
  8
_f-f_
  6
CONTINUOUS
 62
    7
 10
264.76923106015852
 20
14.298116007698198
 11
265.18906306015845
 21
14.298116007698198
  0
LINE
  8
_f-f_
  6
CONTINUOUS
 62
    7
 10
265.18906306015845
 20
14.298116007698198
 11
265.18906306015845
 21
15.129383367698281
  0
LINE
  8
_f-f_
  6
CONTINUOUS
 62
    7
 10
265.18906306015845
 20
15.129383367698281
 11
264.76923106015852
 21
15.129383367698281
  0
LINE
  8
_f-f_
  6
CONTINUOUS
 62
    7
 10
265.35403234015854
 20
15.129383367698281
 11
265.35403234015854
 21
14.298116007698198
  0
LINE
  8
_f-f_
  6
CONTINUOUS
 62
    7
 10
265.35403234015854
 20
14.298116007698198
 11
265.77386434015853
 21
14.298116007698198
  0
LINE
  8
_f-f_
  6
CONTINUOUS
 62
    7
 10
265.77386434015853
 20
14.298116007698198
 11
265.77386434015853
 21
15.129383367698281
  0
LINE
  8
_f-f_
  6
CONTINUOUS
 62
    7
 10
265.77386434015853
 20
15.129383367698281
 11
265.35403234015854
 21
15.129383367698281
  0
ARC
  8
_f-f_
  6
CONTINUOUS
 62
    7
 10
240.40335977935854
 20
15.112665822098251
 40
1.8430007399999995
 50
290.51408900000007
 51
341.45836900000006
  0
ARC
  8
_f-f_
  6
CONTINUOUS
 62
    7
 10
240.32372670415859
 20
15.330920014898268
 40
2.6348450520000002
 50
294.88580100000001
 51
354.697475
  0
LINE
  8
_f-f_
  6
CONTINUOUS
 62
    7
 10
250.33787650015853
 20
14.65531895169822
 11
248.34864168895854
 21
14.65531895169822
  0
LINE
  8
_f-f_
  6
CONTINUOUS
 62
    7
 10
247.78497359935855
 20
14.65531895169822
 11
246.3025501001585
 21
14.65531895169822
  0
LINE
  8
_f-f_
  6
CONTINUOUS
 62
    7
 10
246.3025501001585
 20
14.089879335698242
 11
247.84259348335851
 21
14.089879335698242
  0
LINE
  8
_f-f_
  6
CONTINUOUS
 62
    7
 10
248.40711852415853
 20
14.089879335698242
 11
250.33491298015849
 21
14.089879335698242
  0
LINE
  8
_f-f_
  6
CONTINUOUS
 62
    7
 10
250.53346882015853
 20
13.151233767698216
 11
248.50419273775856
 21
13.151233767698216
  0
LINE
  8
_f-f_
  6
CONTINUOUS
 62
    7
 10
247.93824603055856
 20
13.151233767698216
 11
246.08917666015856
 21
13.151233767698216
  0
LINE
  8
_f-f_
  6
CONTINUOUS
 62
    7
 10
246.08917666015856
 20
12.585794151698195
 11
247.99586591455852
 21
12.585794151698195
  0
LINE
  8
_f-f_
  6
CONTINUOUS
 62
    7
 10
248.5626695729585
 20
12.585794151698195
 11
250.53149314015846
 21
12.585794151698195
  0
LINE
  8
_f-f_
  6
CONTINUOUS
 62
    7
 10
248.34864168895854
 20
14.65531895169822
 11
248.28712066015856
 21
15.250196199698237
  0
LINE
  8
_f-f_
  6
CONTINUOUS
 62
    7
 10
247.73096674015852
 20
15.185295111698224
 11
247.78497359935855
 21
14.65531895169822
  0
LINE
  8
_f-f_
  6
CONTINUOUS
 62
    7
 10
247.84259348335851
 20
14.089879335698242
 11
247.93824603055856
 21
13.151233767698216
  0
LINE
  8
_f-f_
  6
CONTINUOUS
 62
    7
 10
247.99586591455852
 20
12.585794151698195
 11
248.17648258015853
 21
10.813381988498236
  0
LINE
  8
_f-f_
  6
CONTINUOUS
 62
    7
 10
248.73757570015857
 20
10.894552801298175
 11
248.5626695729585
 21
12.585794151698195
  0
LINE
  8
_f-f_
  6
CONTINUOUS
 62
    7
 10
248.50419273775856
 20
13.151233767698216
 11
248.40711852415853
 21
14.089879335698242
  0
LINE
  8
_f-f_
  6
CONTINUOUS
 62
    7
 10
256.47532642015847
 20
14.621238471698234
 11
253.74102975295853
 21
14.621238471698234
  0
LINE
  8
_f-f_
  6
CONTINUOUS
 62
    7
 10
253.1740194713586
 20
14.621238471698234
 11
251.82161218015855
 21
14.621238471698234
  0
LINE
  8
_f-f_
  6
CONTINUOUS
 62
    7
 10
251.82161218015855
 20
14.055798855698214
 11
253.25871193375849
 21
14.055798855698214
  0
LINE
  8
_f-f_
  6
CONTINUOUS
 62
    7
 10
253.08308386015847
 20
15.228364935698238
 11
253.1740194713586
 21
14.621238471698234
  0
LINE
  8
_f-f_
  6
CONTINUOUS
 62
    7
 10
253.25871193375849
 20
14.055798855698214
 11
253.74691234015856
 21
10.796371383698215
  0
LINE
  8
_f-f_
  6
CONTINUOUS
 62
    7
 10
254.30800546015854
 20
10.877532318098247
 11
253.82666395615848
 21
14.055798855698214
  0
LINE
  8
_f-f_
  6
CONTINUOUS
 62
    7
 10
253.74102975295853
 20
14.621238471698234
 11
253.63923778015851
 21
15.293364807698225
  0
ARC
  8
_f-f_
  6
CONTINUOUS
 62
    7
 10
253.30606651375854
 20
15.707678898098237
 40
2.8757339520000005
 50
295.56537500000002
 51
324.94094800000005
  0
LINE
  8
_f-f_
  6
CONTINUOUS
 62
    7
 10
253.82666395615848
 20
14.055798855698214
 11
255.66727330015857
 21
14.055798855698214
  0
ARC
  8
_f-f_
  6
CONTINUOUS
 62
    7
 10
255.50034562735851
 20
17.562717291698277
 40
6.535748654399999
 50
304.14080200000001
 51
315.32696499999997
  0
ARC
  8
_f-f_
  6
CONTINUOUS
 62
    7
 10
251.77672308415856
 20
5.0645516172982639
 40
10.241466597600002
 50
37.351568999999991
 51
43.801712000000002
  0
ARC
  8
_f-f_
  6
CONTINUOUS
 62
    7
 10
251.93372790415847
 20
4.8052798380982154
 40
10.3140201528
 50
48.700563000000002
 51
55.028115999999997
  0
ARC
  8
_f-f_
  6
CONTINUOUS
 62
    7
 10
257.08223226655855
 20
15.662920690898247
 40
3.5238129696000002
 50
298.08031299999999
 51
333.19209899999998
  0
LINE
  8
_f-f_
  6
CONTINUOUS
 62
    7
 10
256.72228642015853
 20
14.073678759698211
 11
260.22731890495857
 21
14.073678759698211
  0
ARC
  8
_f-f_
  6
CONTINUOUS
 62
    7
 10
261.53521000975854
 20
13.090698932498213
 40
2.2783813415999994
 50
274.09817199999998
 51
1.0379469999999982
  0
ARC
  8
_f-f_
  6
CONTINUOUS
 62
    7
 10
261.63552269215853
 20
12.913413757298173
 40
1.5799941024000002
 50
330.51444500000002
 51
7.9510959999999775
  0
LINE
  8
_f-f_
  6
CONTINUOUS
 62
    7
 10
261.28709506015849
 20
13.13197088769823
 11
263.20032710815855
 21
13.13197088769823
  0
LINE
  8
_f-f_
  6
CONTINUOUS
 62
    7
 10
263.8132176185585
 20
13.13197088769823
 11
265.43503522015851
 21
13.13197088769823
  0
LINE
  8
_f-f_
  6
CONTINUOUS
 62
    7
 10
238.61320354015854
 20
14.526603399698274
 11
242.15069562415852
 21
14.526603399698274
  0
LINE
  8
_f-f_
  6
CONTINUOUS
 62
    7
 10
269.23119999999994
 20
13.941568000000032
 11
270.02147199999996
 21
13.941568000000032
  0
LINE
  8
_f-f_
  6
CONTINUOUS
 62
    7
 10
269.23119999999994
 20
13.546432000000038
 11
270.02147199999996
 21
13.546432000000038
  0
LINE
  8
_f-f_
  6
CONTINUOUS
 62
    7
 10
270.02147199999996
 20
13.941568000000032
 11
270.02147199999996
 21
13.546432000000038
  0
LINE
  8
_f-f_
  6
CONTINUOUS
 62
    7
 10
267.06892800000003
 20
13.853760000000037
 11
266.48719999999992
 21
13.853760000000037
  0
LINE
  8
_f-f_
  6
CONTINUOUS
 62
    7
 10
266.48719999999992
 20
13.853760000000037
 11
266.48719999999992
 21
13.458624000000043
  0
LINE
  8
_f-f_
  6
CONTINUOUS
 62
    7
 10
267.04697599999997
 20
13.458624000000043
 11
266.48719999999992
 21
13.458624000000043
  0
LINE
  8
_f-f_
  6
CONTINUOUS
 62
    7
 10
267.38723200000004
 20
13.853760000000037
 11
267.87017599999996
 21
13.853760000000037
  0
LINE
  8
_f-f_
  6
CONTINUOUS
 62
    7
 10
267.87017599999996
 20
13.853760000000037
 11
267.87017599999996
 21
13.458624000000043
  0
LINE
  8
_f-f_
  6
CONTINUOUS
 62
    7
 10
267.38723200000004
 20
13.458624000000043
 11
267.87017599999996
 21
13.458624000000043
  0
LINE
  8
_f-f_
  6
CONTINUOUS
 62
    7
 10
268.9019199999999
 20
13.019583999999952
 11
267.89212799999996
 21
13.019583999999952
  0
LINE
  8
_f-f_
  6
CONTINUOUS
 62
    7
 10
267.89212799999996
 20
13.019583999999952
 11
267.89212799999996
 21
12.624447999999973
  0
LINE
  8
_f-f_
  6
CONTINUOUS
 62
    7
 10
268.87996799999996
 20
12.624447999999973
 11
267.89212799999996
 21
12.624447999999973
  0
LINE
  8
_f-f_
  6
CONTINUOUS
 62
    7
 10
269.23119999999994
 20
13.019583999999952
 11
270.306848
 21
13.019583999999952
  0
LINE
  8
_f-f_
  6
CONTINUOUS
 62
    7
 10
270.306848
 20
13.019583999999952
 11
270.306848
 21
12.624447999999973
  0
LINE
  8
_f-f_
  6
CONTINUOUS
 62
    7
 10
269.26412799999991
 20
12.624447999999973
 11
270.306848
 21
12.624447999999973
  0
LINE
  8
_f-f_
  6
CONTINUOUS
 62
    7
 10
273.07279999999992
 20
13.853760000000037
 11
270.97638399999994
 21
13.853760000000037
  0
LINE
  8
_f-f_
  6
CONTINUOUS
 62
    7
 10
270.97638399999994
 20
13.853760000000037
 11
270.97638399999994
 21
13.458624000000043
  0
LINE
  8
_f-f_
  6
CONTINUOUS
 62
    7
 10
273.083776
 20
13.458624000000043
 11
270.97638399999994
 21
13.458624000000043
  0
LINE
  8
_f-f_
  6
CONTINUOUS
 62
    7
 10
273.44598400000001
 20
13.853760000000037
 11
274.64236799999992
 21
13.853760000000037
  0
LINE
  8
_f-f_
  6
CONTINUOUS
 62
    7
 10
274.64236799999992
 20
13.853760000000037
 11
274.64236799999992
 21
13.458624000000043
  0
LINE
  8
_f-f_
  6
CONTINUOUS
 62
    7
 10
273.44598400000001
 20
13.458624000000043
 11
274.64236799999992
 21
13.458624000000043
  0
LINE
  8
_f-f_
  6
CONTINUOUS
 62
    7
 10
272.16179199999999
 20
12.536639999999977
 11
272.16179199999999
 21
12.522973737441333
  0
LINE
  8
_f-f_
  6
CONTINUOUS
 62
    7
 10
272.16179199999999
 20
12.522973737441333
 11
272.16179199999999
 21
11.658559999999994
  0
LINE
  8
_f-f_
  6
CONTINUOUS
 62
    7
 10
271.15199999999993
 20
12.84396799999999
 11
271.15199999999993
 21
12.536639999999977
  0
LINE
  8
_f-f_
  6
CONTINUOUS
 62
    7
 10
271.83251199999995
 20
12.536639999999977
 11
271.15199999999993
 21
12.536639999999977
  0
LINE
  8
_f-f_
  6
CONTINUOUS
 62
    7
 10
272.16179199999999
 20
12.522973737441333
 11
272.83132799999998
 21
12.522973737441333
  0
LINE
  8
_f-f_
  6
CONTINUOUS
 62
    7
 10
272.83132799999998
 20
12.84396799999999
 11
272.83132799999998
 21
12.522973737441333
  0
LINE
  8
_f-f_
  6
CONTINUOUS
 62
    7
 10
277.05708800000002
 20
12.141503999999998
 11
278.9339839999999
 21
12.141503999999998
  0
LINE
  8
_f-f_
  6
CONTINUOUS
 62
    7
 10
278.9339839999999
 20
12.536639999999977
 11
278.9339839999999
 21
12.141503999999998
  0
LINE
  8
_f-f_
  6
CONTINUOUS
 62
    7
 10
276.66195199999999
 20
12.141503999999998
 11
275.43263999999999
 21
12.141503999999998
  0
LINE
  8
_f-f_
  6
CONTINUOUS
 62
    7
 10
275.43263999999999
 20
12.536639999999977
 11
275.43263999999999
 21
12.141503999999998
  0
LINE
  8
_f-f_
  6
CONTINUOUS
 62
    7
 10
280.33891199999999
 20
14.600128000000012
 11
280.33891199999999
 21
13.897663999999992
  0
LINE
  8
_f-f_
  6
CONTINUOUS
 62
    7
 10
280.33891199999999
 20
13.897663999999992
 11
279.70230399999997
 21
13.897663999999992
  0
LINE
  8
_f-f_
  6
CONTINUOUS
 62
    7
 10
279.70230399999997
 20
13.897663999999992
 11
279.70230399999997
 21
13.546432000000038
  0
LINE
  8
_f-f_
  6
CONTINUOUS
 62
    7
 10
280.82185599999991
 20
13.546432000000038
 11
279.70230399999997
 21
13.546432000000038
  0
LINE
  8
_f-f_
  6
CONTINUOUS
 62
    7
 10
282.17190399999993
 20
13.502527999999984
 11
281.43651199999999
 21
13.502527999999984
  0
LINE
  8
_f-f_
  6
CONTINUOUS
 62
    7
 10
281.43651199999999
 20
13.502527999999984
 11
281.43651199999999
 21
13.107392000000061
  0
LINE
  8
_f-f_
  6
CONTINUOUS
 62
    7
 10
282.17190399999993
 20
13.107392000000061
 11
281.43651199999999
 21
13.107392000000061
  0
LINE
  8
_f-f_
  6
CONTINUOUS
 62
    7
 10
282.55606399999994
 20
13.107392000000061
 11
283.34633599999995
 21
13.107392000000061
  0
LINE
  8
_f-f_
  6
CONTINUOUS
 62
    7
 10
283.34633599999995
 20
13.502527999999984
 11
283.34633599999995
 21
13.107392000000061
  0
LINE
  8
_f-f_
  6
CONTINUOUS
 62
    7
 10
282.55606399999994
 20
13.502527999999984
 11
283.34633599999995
 21
13.502527999999984
  0
LINE
  8
_f-f_
  6
CONTINUOUS
 62
    7
 10
283.5
 20
11.35123200000001
 11
283.5
 21
11
  0
LINE
  8
_f-f_
  6
CONTINUOUS
 62
    7
 10
282.55606399999994
 20
11.35123200000001
 11
283.5
 21
11.35123200000001
  0
LINE
  8
_f-f_
  6
CONTINUOUS
 62
    7
 10
281.16211199999998
 20
11.35123200000001
 11
281.16211199999998
 21
11
  0
LINE
  8
_f-f_
  6
CONTINUOUS
 62
    7
 10
282.17190399999993
 20
11.35123200000001
 11
281.16211199999998
 21
11.35123200000001
  0
LINE
  8
_f-f_
  6
CONTINUOUS
 62
    7
 10
233.5
 20
17
 11
233.5
 21
27
  0
LINE
  8
_f-f_
  6
CONTINUOUS
 62
    7
 10
183.5
 20
17
 11
183.5
 21
27
  0
LINE
  8
_f-f_
  6
CONTINUOUS
 62
    7
 10
253.5
 20
17
 11
253.5
 21
27
  0
TEXT
  8
_e-e_
 62
    7
 10
165.5
 20
20
 40
4
 41
1
 50
0
  1
図面名称
  0
TEXT
  8
_e-e_
 62
    7
 10
237.5
 20
20
 40
4
 41
1
 50
0
  1
作成日
  0
LINE
  8
_f-f_
  6
CONTINUOUS
 62
    7
 10
163.5
 20
17
 11
163.5
 21
27
  0
LINE
  8
_f-f_
  6
CONTINUOUS
 62
    7
 10
283.5
 20
27
 11
188.61822686063675
 21
27
  0
LINE
  8
_f-f_
  6
CONTINUOUS
 62
    7
 10
188.61822686063675
 20
27
 11
163.5
 21
27
  0
LINE
  8
_f-f_
  6
CONTINUOUS
 62
    7
 10
248.5
 20
197
 11
248.5
 21
187
  0
TEXT
  8
_e-e_
 62
    7
 10
237
 20
190
 40
4
 41
1
 50
0
  1
縮尺
  0
LINE
  8
_f-f_
  6
CONTINUOUS
 62
    7
 10
233.5
 20
197
 11
233.5
 21
187
  0
LINE
  8
_f-f_
  6
CONTINUOUS
 62
    7
 10
233.5
 20
187
 11
283.5
 21
187
  0
TEXT
  8
_e-e_
 62
    7
 10
255
 20
190
 40
4
 41
1
 50
0
  1
Ａ４：１/５
  0
TEXT
  8
_e-e_
 62
    7
 10
188.5
 20
22.5
 40
4
 41
1
 50
0
  1
あご下納まり例
  0
TEXT
  8
_e-e_
 62
    7
 10
258.5
 20
20
 40
4
 41
1
 50
0
  1
2020.03.11
  0
TEXT
  8
_e-e_
 62
    7
 10
188.5
 20
17.5
 40
4
 41
1
 50
0
  1
（モルタル詰め）
  0
LINE
  8
_1-a_元図__躯体
  6
CONTINUOUS
 62
    7
 10
84.552631800924161
 20
128.50088496906545
 11
123.57368180092416
 21
167.52198496906547
  0
LINE
  8
_1-a_元図__躯体
  6
CONTINUOUS
 62
    7
 10
84.552631800924161
 20
71.932334969065451
 11
112.55263180092416
 21
99.932334969065451
  0
LINE
  8
_1-a_元図__躯体
  6
CONTINUOUS
 62
    7
 10
165.14798180092416
 20
35.02518496906545
 11
183.40578180092416
 21
53.283034969065454
  0
LINE
  8
_1-a_元図__躯体
  6
CONTINUOUS
 62
    7
 10
84.552631800924161
 20
169.35053496906545
 11
84.552631800924161
 21
35.02518496906545
  0
LINE
  8
_1-a_元図__躯体
  6
CONTINUOUS
 62
    7
 10
134.55263180092416
 20
164.00748496906547
 11
134.55263180092416
 21
144.08303496906547
  0
LINE
  8
_1-a_元図__躯体
  6
CONTINUOUS
 62
    7
 10
131.55263180092416
 20
141.08303496906547
 11
134.55263180092416
 21
144.08303496906547
  0
LINE
  8
_1-a_元図__躯体
  6
CONTINUOUS
 62
    7
 10
134.55263180092416
 20
141.08303496906547
 11
134.55263180092416
 21
70.883034969065449
  0
LINE
  8
_1-a_元図__躯体
  6
CONTINUOUS
 62
    7
 10
131.55593180092416
 20
167.14788496906547
 11
134.55263180092416
 21
164.00748496906547
  0
LINE
  8
_1-a_元図__躯体
  6
CONTINUOUS
 62
    7
 10
84.552631800924161
 20
169.35053496906545
 11
131.55593180092416
 21
167.14788496906547
  0
LINE
  8
_1-a_元図__躯体
  6
CONTINUOUS
 62
    7
 10
112.55263180092416
 20
141.08303496906547
 11
112.55263180092416
 21
53.283034969065454
  0
LINE
  8
_1-a_元図__躯体
  6
CONTINUOUS
 62
    7
 10
113.35263180092416
 20
70.883034969065449
 11
210.20643180092418
 21
70.883034969065449
  0
LINE
  8
_1-a_元図__躯体
  6
CONTINUOUS
 62
    7
 10
112.55263180092416
 20
53.283034969065454
 11
210.20643180092418
 21
53.283034969065454
  0
LINE
  8
_1-a_元図__躯体
  6
CONTINUOUS
 62
    7
 10
112.55263180092416
 20
141.08303496906547
 11
125.15823180092417
 21
141.08303496906547
  0
LINE
  8
_1-a_元図__躯体
  6
CONTINUOUS
 62
    7
 10
128.54623180092418
 20
141.08303496906547
 11
134.55263180092416
 21
141.08303496906547
  0
LINE
  8
_1-a_元図__躯体
  6
CONTINUOUS
 62
    7
 10
129.75263180092418
 20
141.08303496906547
 11
131.55263180092416
 21
141.08303496906547
  0
LINE
  8
_1-a_元図__躯体
  6
CONTINUOUS
 62
    7
 10
139.97163180092417
 20
54.083034969065444
 11
156.77163180092415
 21
70.883034969065449
  0
LINE
  8
_1-a_元図__躯体
  6
CONTINUOUS
 62
    7
 10
128.95263180092417
 20
141.08303496906547
 11
128.95263180092417
 21
70.883034969065449
  0
LINE
  8
_1-a_元図__躯体
  6
CONTINUOUS
 62
    7
 10
126.00523180092416
 20
143.62403496906546
 11
128.54623180092418
 21
143.62403496906546
  0
LINE
  8
_1-a_元図__躯体
  6
CONTINUOUS
 62
    7
 10
128.54623180092418
 20
143.62403496906546
 11
128.54623180092418
 21
141.08303496906547
  0
LINE
  8
_1-a_元図__躯体
  6
CONTINUOUS
 62
    7
 10
126.00523180092416
 20
143.62403496906546
 11
125.15823180092417
 21
141.08303496906547
  0
LINE
  8
_1-a_元図__躯体
  6
CONTINUOUS
 62
    7
 10
84.552631800924161
 20
129.63228496906547
 11
122.49298180092417
 21
167.57258496906547
  0
LINE
  8
_1-a_元図__躯体
  6
CONTINUOUS
 62
    7
 10
84.552631800924161
 20
127.36953496906546
 11
124.65443180092417
 21
167.47133496906545
  0
LINE
  8
_1-a_元図__躯体
  6
CONTINUOUS
 62
    7
 10
84.552631800924161
 20
73.06373496906545
 11
112.55263180092416
 21
101.06373496906545
  0
LINE
  8
_1-a_元図__躯体
  6
CONTINUOUS
 62
    7
 10
84.552631800924161
 20
70.800984969065453
 11
112.55263180092416
 21
98.800984969065453
  0
LINE
  8
_1-a_元図__躯体
  6
CONTINUOUS
 62
    7
 10
141.10298180092417
 20
54.083034969065444
 11
157.90298180092415
 21
70.883034969065449
  0
LINE
  8
_1-a_元図__躯体
  6
CONTINUOUS
 62
    7
 10
138.84023180092416
 20
54.083034969065444
 11
155.64023180092417
 21
70.883034969065449
  0
LINE
  8
_1-a_元図__躯体
  6
CONTINUOUS
 62
    7
 10
166.27933180092415
 20
35.02518496906545
 11
184.53718180092415
 21
53.283034969065454
  0
LINE
  8
_1-a_元図__躯体
  6
CONTINUOUS
 62
    7
 10
164.01658180092417
 20
35.02518496906545
 11
182.27443180092416
 21
53.283034969065454
  0
LINE
  8
_1-c_アンカ__類②
  6
CONTINUOUS
 62
    4
 10
138.9746818009242
 20
69.403034969065459
 11
138.87468180092424
 21
69.783034969065454
  0
LINE
  8
_1-c_アンカ__類②
  6
CONTINUOUS
 62
    4
 10
140.23068180092423
 20
69.783034969065454
 11
140.13068180092421
 21
69.403034969065459
  0
LINE
  8
_1-c_アンカ__類②
  6
CONTINUOUS
 62
    4
 10
140.13068180092421
 20
70.783034969065454
 11
138.9746818009242
 21
70.783034969065454
  0
LINE
  8
_1-c_アンカ__類②
  6
CONTINUOUS
 62
    4
 10
140.13068180092421
 20
70.563034969065455
 11
138.9746818009242
 21
70.563034969065455
  0
LINE
  8
_1-c_アンカ__類②
  6
CONTINUOUS
 62
    4
 10
139.13268180092422
 20
64.783034969065454
 11
138.95268180092421
 21
65.463034969065461
  0
LINE
  8
_1-c_アンカ__類②
  6
CONTINUOUS
 62
    4
 10
139.97268180092419
 20
64.783034969065454
 11
139.13268180092422
 21
64.783034969065454
  0
LINE
  8
_1-c_アンカ__類②
  6
CONTINUOUS
 62
    4
 10
139.97268180092419
 20
64.783034969065454
 11
140.1526818009242
 21
65.463034969065461
  0
LINE
  8
_1-c_アンカ__類②
  6
CONTINUOUS
 62
    4
 10
140.1526818009242
 20
65.983034969065443
 11
140.1526818009242
 21
66.343034969065457
  0
LINE
  8
_1-c_アンカ__類②
  6
CONTINUOUS
 62
    4
 10
138.95268180092421
 20
65.983034969065443
 11
138.95268180092421
 21
66.343034969065457
  0
LINE
  8
_1-c_アンカ__類②
  6
CONTINUOUS
 62
    4
 10
140.13768180092421
 20
65.873034969065458
 11
139.92768180092423
 21
65.873034969065458
  0
LINE
  8
_1-c_アンカ__類②
  6
CONTINUOUS
 62
    4
 10
139.17768180092423
 20
65.873034969065458
 11
138.9676818009242
 21
65.873034969065458
  0
LINE
  8
_1-c_アンカ__類②
  6
CONTINUOUS
 62
    4
 10
140.13768180092421
 20
65.773034969065463
 11
139.92768180092423
 21
65.773034969065463
  0
LINE
  8
_1-c_アンカ__類②
  6
CONTINUOUS
 62
    4
 10
140.13768180092421
 20
65.673034969065441
 11
139.92768180092423
 21
65.673034969065441
  0
LINE
  8
_1-c_アンカ__類②
  6
CONTINUOUS
 62
    4
 10
139.17768180092423
 20
65.673034969065441
 11
138.9676818009242
 21
65.673034969065441
  0
LINE
  8
_1-c_アンカ__類②
  6
CONTINUOUS
 62
    4
 10
140.13768180092421
 20
65.573034969065446
 11
139.92768180092423
 21
65.573034969065446
  0
LINE
  8
_1-c_アンカ__類②
  6
CONTINUOUS
 62
    4
 10
139.17768180092423
 20
65.573034969065446
 11
138.9676818009242
 21
65.573034969065446
  0
LINE
  8
_1-c_アンカ__類②
  6
CONTINUOUS
 62
    4
 10
139.17768180092423
 20
65.463034969065461
 11
139.17768180092423
 21
65.983034969065443
  0
LINE
  8
_1-c_アンカ__類②
  6
CONTINUOUS
 62
    4
 10
139.92768180092423
 20
65.463034969065461
 11
139.92768180092423
 21
65.983034969065443
  0
LINE
  8
_1-c_アンカ__類②
  6
CONTINUOUS
 62
    4
 10
139.17768180092423
 20
65.773034969065463
 11
138.9676818009242
 21
65.773034969065463
  0
LINE
  8
_1-c_アンカ__類②
  6
CONTINUOUS
 62
    4
 10
140.15248180092419
 20
65.463034969065461
 11
139.92768180092423
 21
65.463034969065461
  0
LINE
  8
_1-c_アンカ__類②
  6
CONTINUOUS
 62
    4
 10
139.17768180092423
 20
65.463034969065461
 11
138.95268180092421
 21
65.463034969065461
  0
LINE
  8
_1-c_アンカ__類②
  6
CONTINUOUS
 62
    4
 10
140.1526818009242
 20
65.983034969065443
 11
139.92768180092423
 21
65.983034969065443
  0
LINE
  8
_1-c_アンカ__類②
  6
CONTINUOUS
 62
    4
 10
139.17768180092423
 20
65.983034969065443
 11
138.95268180092421
 21
65.983034969065443
  0
LINE
  8
_1-c_アンカ__類②
  6
CONTINUOUS
 62
    4
 10
139.17768180092423
 20
66.343034969065457
 11
138.95268180092421
 21
66.343034969065457
  0
LINE
  8
_1-c_アンカ__類②
  6
CONTINUOUS
 62
    4
 10
139.55268180092423
 20
65.343034969065457
 11
139.83193180092422
 21
65.706034969065456
  0
LINE
  8
_1-c_アンカ__類②
  6
CONTINUOUS
 62
    4
 10
139.55268180092423
 20
65.443034969065451
 11
139.8347318009242
 21
65.809684969065444
  0
LINE
  8
_1-c_アンカ__類②
  6
CONTINUOUS
 62
    4
 10
139.55268180092423
 20
65.343034969065457
 11
139.27343180092424
 21
65.706034969065456
  0
LINE
  8
_1-c_アンカ__類②
  6
CONTINUOUS
 62
    4
 10
139.55268180092423
 20
65.443034969065451
 11
139.27058180092422
 21
65.809684969065444
  0
LINE
  8
_1-c_アンカ__類②
  6
CONTINUOUS
 62
    4
 10
139.85268180092424
 20
65.80358496906544
 11
139.85268180092424
 21
65.767034969065463
  0
LINE
  8
_1-c_アンカ__類②
  6
CONTINUOUS
 62
    4
 10
139.25268180092422
 20
65.80358496906544
 11
139.25268180092422
 21
65.767034969065463
  0
LINE
  8
_1-c_アンカ__類②
  6
CONTINUOUS
 62
    4
 10
139.55268180092423
 20
64.883034969065449
 11
139.83193180092422
 21
65.246034969065448
  0
LINE
  8
_1-c_アンカ__類②
  6
CONTINUOUS
 62
    4
 10
139.55268180092423
 20
64.983034969065443
 11
139.8347318009242
 21
65.349684969065464
  0
LINE
  8
_1-c_アンカ__類②
  6
CONTINUOUS
 62
    4
 10
139.85268180092424
 20
65.343584969065461
 11
139.85268180092424
 21
65.307034969065455
  0
LINE
  8
_1-c_アンカ__類②
  6
CONTINUOUS
 62
    4
 10
139.55268180092423
 20
64.983034969065443
 11
139.27058180092422
 21
65.349684969065464
  0
LINE
  8
_1-c_アンカ__類②
  6
CONTINUOUS
 62
    4
 10
139.25268180092422
 20
65.343584969065461
 11
139.25268180092422
 21
65.307034969065455
  0
LINE
  8
_1-c_アンカ__類②
  6
CONTINUOUS
 62
    4
 10
139.55268180092423
 20
64.883034969065449
 11
139.27343180092424
 21
65.246034969065448
  0
LINE
  8
_1-c_アンカ__類②
  6
CONTINUOUS
 62
    4
 10
139.17768180092423
 20
66.343034969065457
 11
139.14268180092421
 21
67.103034969065448
  0
LINE
  8
_1-c_アンカ__類②
  6
CONTINUOUS
 62
    4
 10
139.92768180092423
 20
66.343034969065457
 11
139.9626818009242
 21
67.103034969065448
  0
LINE
  8
_1-c_アンカ__類②
  6
CONTINUOUS
 62
    4
 10
140.17768180092423
 20
67.443034969065451
 11
139.9626818009242
 21
67.443034969065451
  0
LINE
  8
_1-c_アンカ__類②
  6
CONTINUOUS
 62
    4
 10
139.14268180092421
 20
67.443034969065451
 11
138.92768180092423
 21
67.443034969065451
  0
LINE
  8
_1-c_アンカ__類②
  6
CONTINUOUS
 62
    4
 10
140.16993180092419
 20
67.103034969065448
 11
139.9626818009242
 21
67.103034969065448
  0
LINE
  8
_1-c_アンカ__類②
  6
CONTINUOUS
 62
    4
 10
139.14268180092421
 20
67.103034969065448
 11
138.93538180092423
 21
67.103034969065448
  0
LINE
  8
_1-c_アンカ__類②
  6
CONTINUOUS
 62
    4
 10
138.93538180092423
 20
67.103034969065448
 11
138.92768180092423
 21
67.443034969065451
  0
LINE
  8
_1-c_アンカ__類②
  6
CONTINUOUS
 62
    4
 10
140.16993180092419
 20
67.103034969065448
 11
140.17768180092423
 21
67.443034969065451
  0
LINE
  8
_1-c_アンカ__類②
  6
CONTINUOUS
 62
    4
 10
139.1454318009242
 20
67.043034969065445
 11
138.93988180092424
 21
67.043034969065445
  0
LINE
  8
_1-c_アンカ__類②
  6
CONTINUOUS
 62
    4
 10
140.1526818009242
 20
66.343034969065457
 11
139.92768180092423
 21
66.343034969065457
  0
LINE
  8
_1-c_アンカ__類②
  6
CONTINUOUS
 62
    4
 10
140.1655818009242
 20
67.043034969065445
 11
139.95828180092423
 21
67.043034969065445
  0
LINE
  8
_1-c_アンカ__類②
  6
CONTINUOUS
 62
    4
 10
139.00268180092422
 20
65.463034969065461
 11
139.00268180092422
 21
65.983034969065443
  0
LINE
  8
_1-c_アンカ__類②
  6
CONTINUOUS
 62
    4
 10
140.10268180092424
 20
65.463034969065461
 11
140.10268180092424
 21
65.983034969065443
  0
LINE
  8
_1-c_アンカ__類②
  6
CONTINUOUS
 62
    4
 10
139.00268180092422
 20
66.343034969065457
 11
138.9676818009242
 21
67.103034969065448
  0
LINE
  8
_1-c_アンカ__類②
  6
CONTINUOUS
 62
    4
 10
138.90768180092419
 20
68.243034969065462
 11
138.90768180092419
 21
68.583034969065437
  0
LINE
  8
_1-c_アンカ__類②
  6
CONTINUOUS
 62
    4
 10
140.19768180092422
 20
68.243034969065462
 11
140.19768180092422
 21
68.583034969065437
  0
LINE
  8
_1-c_アンカ__類②
  6
CONTINUOUS
 62
    4
 10
139.14268180092421
 20
67.443034969065451
 11
139.12268180092423
 21
68.243034969065462
  0
LINE
  8
_1-c_アンカ__類②
  6
CONTINUOUS
 62
    4
 10
139.9626818009242
 20
67.443034969065451
 11
139.98268180092424
 21
68.243034969065462
  0
LINE
  8
_1-c_アンカ__類②
  6
CONTINUOUS
 62
    4
 10
140.19768180092422
 20
68.243034969065462
 11
139.98268180092424
 21
68.243034969065462
  0
LINE
  8
_1-c_アンカ__類②
  6
CONTINUOUS
 62
    4
 10
139.12268180092423
 20
68.243034969065462
 11
138.90768180092419
 21
68.243034969065462
  0
LINE
  8
_1-c_アンカ__類②
  6
CONTINUOUS
 62
    4
 10
139.17308180092419
 20
66.463034969065461
 11
138.95033180092423
 21
66.463034969065461
  0
LINE
  8
_1-c_アンカ__類②
  6
CONTINUOUS
 62
    4
 10
139.16848180092421
 20
66.583034969065437
 11
138.9481818009242
 21
66.583034969065437
  0
LINE
  8
_1-c_アンカ__類②
  6
CONTINUOUS
 62
    4
 10
139.16388180092423
 20
66.703034969065442
 11
138.94598180092424
 21
66.703034969065442
  0
LINE
  8
_1-c_アンカ__類②
  6
CONTINUOUS
 62
    4
 10
139.1592318009242
 20
66.823034969065446
 11
138.94383180092422
 21
66.823034969065446
  0
LINE
  8
_1-c_アンカ__類②
  6
CONTINUOUS
 62
    4
 10
139.15003180092424
 20
66.943034969065451
 11
138.94168180092424
 21
66.943034969065451
  0
LINE
  8
_1-c_アンカ__類②
  6
CONTINUOUS
 62
    4
 10
140.1633318009242
 20
66.943034969065451
 11
139.95528180092424
 21
66.943034969065451
  0
LINE
  8
_1-c_アンカ__類②
  6
CONTINUOUS
 62
    4
 10
140.16058180092421
 20
66.823034969065446
 11
139.94608180092422
 21
66.823034969065446
  0
LINE
  8
_1-c_アンカ__類②
  6
CONTINUOUS
 62
    4
 10
140.15783180092421
 20
66.703034969065442
 11
139.94148180092424
 21
66.703034969065442
  0
LINE
  8
_1-c_アンカ__類②
  6
CONTINUOUS
 62
    4
 10
140.15513180092421
 20
66.583034969065437
 11
139.9368818009242
 21
66.583034969065437
  0
LINE
  8
_1-c_アンカ__類②
  6
CONTINUOUS
 62
    4
 10
140.15238180092422
 20
66.463034969065461
 11
139.93228180092422
 21
66.463034969065461
  0
LINE
  8
_1-c_アンカ__類②
  6
CONTINUOUS
 62
    4
 10
140.10268180092424
 20
66.343034969065457
 11
140.11993180092423
 21
67.103034969065448
  0
LINE
  8
_1-c_アンカ__類②
  6
CONTINUOUS
 62
    4
 10
138.95993180092421
 20
67.443034969065451
 11
138.93993180092423
 21
68.243034969065462
  0
LINE
  8
_1-c_アンカ__類②
  6
CONTINUOUS
 62
    4
 10
140.14538180092421
 20
67.443034969065451
 11
140.16538180092419
 21
68.243034969065462
  0
LINE
  8
_1-c_アンカ__類②
  6
CONTINUOUS
 62
    4
 10
140.17898180092419
 20
67.563034969065455
 11
139.96568180092424
 21
67.563034969065455
  0
LINE
  8
_1-c_アンカ__類②
  6
CONTINUOUS
 62
    4
 10
140.18198180092423
 20
67.68303496906546
 11
139.97188180092422
 21
67.68303496906546
  0
LINE
  8
_1-c_アンカ__類②
  6
CONTINUOUS
 62
    4
 10
140.18498180092422
 20
67.803034969065465
 11
139.97168180092422
 21
67.803034969065465
  0
LINE
  8
_1-c_アンカ__類②
  6
CONTINUOUS
 62
    4
 10
140.18798180092421
 20
67.923034969065441
 11
139.9746818009242
 21
67.923034969065441
  0
LINE
  8
_1-c_アンカ__類②
  6
CONTINUOUS
 62
    4
 10
140.19098180092419
 20
68.043034969065445
 11
139.97768180092424
 21
68.043034969065445
  0
LINE
  8
_1-c_アンカ__類②
  6
CONTINUOUS
 62
    4
 10
140.19398180092423
 20
68.16303496906545
 11
139.98068180092423
 21
68.16303496906545
  0
LINE
  8
_1-c_アンカ__類②
  6
CONTINUOUS
 62
    4
 10
139.13968180092422
 20
67.563034969065455
 11
138.92638180092422
 21
67.563034969065455
  0
LINE
  8
_1-c_アンカ__類②
  6
CONTINUOUS
 62
    4
 10
139.13668180092424
 20
67.68303496906546
 11
138.92338180092423
 21
67.68303496906546
  0
LINE
  8
_1-c_アンカ__類②
  6
CONTINUOUS
 62
    4
 10
139.13368180092419
 20
67.803034969065465
 11
138.92038180092419
 21
67.803034969065465
  0
LINE
  8
_1-c_アンカ__類②
  6
CONTINUOUS
 62
    4
 10
139.13068180092421
 20
67.923034969065441
 11
138.9173818009242
 21
67.923034969065441
  0
LINE
  8
_1-c_アンカ__類②
  6
CONTINUOUS
 62
    4
 10
139.12768180092422
 20
68.043034969065445
 11
138.91438180092422
 21
68.043034969065445
  0
LINE
  8
_1-c_アンカ__類②
  6
CONTINUOUS
 62
    4
 10
139.12468180092424
 20
68.16303496906545
 11
138.91138180092423
 21
68.16303496906545
  0
LINE
  8
_1-c_アンカ__類②
  6
CONTINUOUS
 62
    4
 10
138.9746818009242
 20
69.343034969065457
 11
138.9746818009242
 21
70.783034969065454
  0
LINE
  8
_1-c_アンカ__類②
  6
CONTINUOUS
 62
    4
 10
140.13068180092421
 20
69.343034969065457
 11
140.13068180092421
 21
70.783034969065454
  0
LINE
  8
_1-c_アンカ__類②
  6
CONTINUOUS
 62
    4
 10
138.93993180092423
 20
68.583034969065437
 11
139.00693180092424
 21
69.343034969065457
  0
LINE
  8
_1-c_アンカ__類②
  6
CONTINUOUS
 62
    4
 10
140.16538180092419
 20
68.583034969065437
 11
140.09838180092424
 21
69.343034969065457
  0
LINE
  8
_1-c_アンカ__類②
  6
CONTINUOUS
 62
    4
 10
140.13068180092421
 20
69.343034969065457
 11
139.95268180092421
 21
69.343034969065457
  0
LINE
  8
_1-c_アンカ__類②
  6
CONTINUOUS
 62
    4
 10
139.1526818009242
 20
69.343034969065457
 11
138.9746818009242
 21
69.343034969065457
  0
LINE
  8
_1-c_アンカ__類②
  6
CONTINUOUS
 62
    4
 10
139.1526818009242
 20
69.823034969065446
 11
138.9746818009242
 21
69.823034969065446
  0
LINE
  8
_1-c_アンカ__類②
  6
CONTINUOUS
 62
    4
 10
139.1526818009242
 20
69.923034969065441
 11
138.9746818009242
 21
69.923034969065441
  0
LINE
  8
_1-c_アンカ__類②
  6
CONTINUOUS
 62
    4
 10
139.1526818009242
 20
70.023034969065463
 11
138.9746818009242
 21
70.023034969065463
  0
LINE
  8
_1-c_アンカ__類②
  6
CONTINUOUS
 62
    4
 10
139.1526818009242
 20
70.123034969065458
 11
138.9746818009242
 21
70.123034969065458
  0
LINE
  8
_1-c_アンカ__類②
  6
CONTINUOUS
 62
    4
 10
139.1526818009242
 20
70.223034969065452
 11
138.9746818009242
 21
70.223034969065452
  0
LINE
  8
_1-c_アンカ__類②
  6
CONTINUOUS
 62
    4
 10
139.1581318009242
 20
70.323034969065446
 11
138.9746818009242
 21
70.323034969065446
  0
LINE
  8
_1-c_アンカ__類②
  6
CONTINUOUS
 62
    4
 10
139.1526818009242
 20
70.423034969065441
 11
138.9746818009242
 21
70.423034969065441
  0
LINE
  8
_1-c_アンカ__類②
  6
CONTINUOUS
 62
    4
 10
139.1526818009242
 20
69.343034969065457
 11
139.1526818009242
 21
70.563034969065455
  0
LINE
  8
_1-c_アンカ__類②
  6
CONTINUOUS
 62
    4
 10
140.13068180092421
 20
69.823034969065446
 11
139.95268180092421
 21
69.823034969065446
  0
LINE
  8
_1-c_アンカ__類②
  6
CONTINUOUS
 62
    4
 10
140.13068180092421
 20
69.923034969065441
 11
139.95268180092421
 21
69.923034969065441
  0
LINE
  8
_1-c_アンカ__類②
  6
CONTINUOUS
 62
    4
 10
140.13068180092421
 20
70.023034969065463
 11
139.95268180092421
 21
70.023034969065463
  0
LINE
  8
_1-c_アンカ__類②
  6
CONTINUOUS
 62
    4
 10
140.13068180092421
 20
70.123034969065458
 11
139.95268180092421
 21
70.123034969065458
  0
LINE
  8
_1-c_アンカ__類②
  6
CONTINUOUS
 62
    4
 10
140.13068180092421
 20
70.223034969065452
 11
139.95268180092421
 21
70.223034969065452
  0
LINE
  8
_1-c_アンカ__類②
  6
CONTINUOUS
 62
    4
 10
140.13068180092421
 20
70.323034969065446
 11
139.95268180092421
 21
70.323034969065446
  0
LINE
  8
_1-c_アンカ__類②
  6
CONTINUOUS
 62
    4
 10
140.13068180092421
 20
70.423034969065441
 11
139.95268180092421
 21
70.423034969065441
  0
LINE
  8
_1-c_アンカ__類②
  6
CONTINUOUS
 62
    4
 10
139.95268180092421
 20
69.343034969065457
 11
139.95268180092421
 21
70.563034969065455
  0
LINE
  8
_1-c_アンカ__類②
  6
CONTINUOUS
 62
    4
 10
140.13068180092421
 20
69.703034969065442
 11
139.95268180092421
 21
69.703034969065442
  0
LINE
  8
_1-c_アンカ__類②
  6
CONTINUOUS
 62
    4
 10
139.1526818009242
 20
69.703034969065442
 11
138.9746818009242
 21
69.703034969065442
  0
LINE
  8
_1-c_アンカ__類②
  6
CONTINUOUS
 62
    4
 10
140.13248180092421
 20
69.303034969065465
 11
139.95288180092422
 21
69.303034969065465
  0
LINE
  8
_1-c_アンカ__類②
  6
CONTINUOUS
 62
    4
 10
139.12268180092423
 20
68.243034969065462
 11
139.12448180092423
 21
68.584734969065437
  0
LINE
  8
_1-c_アンカ__類②
  6
CONTINUOUS
 62
    4
 10
139.98268180092424
 20
68.243034969065462
 11
139.98088180092424
 21
68.582334969065442
  0
LINE
  8
_1-c_アンカ__類②
  6
CONTINUOUS
 62
    4
 10
139.12448180092423
 20
68.583034969065437
 11
139.1526818009242
 21
69.343034969065457
  0
LINE
  8
_1-c_アンカ__類②
  6
CONTINUOUS
 62
    4
 10
139.98088180092424
 20
68.582334969065442
 11
139.95268180092421
 21
69.343034969065457
  0
LINE
  8
_1-c_アンカ__類②
  6
CONTINUOUS
 62
    4
 10
139.12893180092419
 20
68.703034969065442
 11
138.91993180092419
 21
68.703034969065442
  0
LINE
  8
_1-c_アンカ__類②
  6
CONTINUOUS
 62
    4
 10
139.13338180092421
 20
68.823034969065446
 11
138.9305318009242
 21
68.823034969065446
  0
LINE
  8
_1-c_アンカ__類②
  6
CONTINUOUS
 62
    4
 10
139.13783180092423
 20
68.943034969065451
 11
138.94113180092421
 21
68.943034969065451
  0
LINE
  8
_1-c_アンカ__類②
  6
CONTINUOUS
 62
    4
 10
139.1422818009242
 20
69.063034969065455
 11
138.95168180092423
 21
69.063034969065455
  0
LINE
  8
_1-c_アンカ__類②
  6
CONTINUOUS
 62
    4
 10
139.14673180092421
 20
69.18303496906546
 11
138.96228180092425
 21
69.18303496906546
  0
LINE
  8
_1-c_アンカ__類②
  6
CONTINUOUS
 62
    4
 10
139.15118180092423
 20
69.303034969065465
 11
138.97283180092421
 21
69.303034969065465
  0
LINE
  8
_1-c_アンカ__類②
  6
CONTINUOUS
 62
    4
 10
140.14308180092422
 20
69.18303496906546
 11
139.95863180092419
 21
69.18303496906546
  0
LINE
  8
_1-c_アンカ__類②
  6
CONTINUOUS
 62
    4
 10
140.15368180092423
 20
69.063034969065455
 11
139.96308180092421
 21
69.063034969065455
  0
LINE
  8
_1-c_アンカ__類②
  6
CONTINUOUS
 62
    4
 10
140.1642318009242
 20
68.943034969065451
 11
139.96753180092423
 21
68.943034969065451
  0
LINE
  8
_1-c_アンカ__類②
  6
CONTINUOUS
 62
    4
 10
140.17483180092421
 20
68.823034969065446
 11
139.9719818009242
 21
68.823034969065446
  0
LINE
  8
_1-c_アンカ__類②
  6
CONTINUOUS
 62
    4
 10
140.18538180092423
 20
68.703034969065442
 11
139.97643180092422
 21
68.703034969065442
  0
LINE
  8
_1-c_アンカ__類②
  6
CONTINUOUS
 62
    4
 10
139.12448180092423
 20
68.583034969065437
 11
138.90768180092419
 21
68.583034969065437
  0
LINE
  8
_1-c_アンカ__類②
  6
CONTINUOUS
 62
    4
 10
140.19768180092422
 20
68.583034969065437
 11
139.98088180092424
 21
68.583034969065437
  0
LINE
  8
_1-c_アンカ__類②
  6
CONTINUOUS
 62
    4
 10
139.28268180092419
 20
69.64303496906544
 11
139.28268180092419
 21
69.823984969065464
  0
LINE
  8
_1-c_アンカ__類②
  6
CONTINUOUS
 62
    4
 10
139.28268180092419
 20
69.362034969065462
 11
139.28268180092419
 21
69.543034969065445
  0
LINE
  8
_1-c_アンカ__類②
  6
CONTINUOUS
 62
    4
 10
139.22268180092419
 20
69.64303496906544
 11
139.22268180092419
 21
69.823984969065464
  0
LINE
  8
_1-c_アンカ__類②
  6
CONTINUOUS
 62
    4
 10
139.22268180092419
 20
69.362034969065462
 11
139.22268180092419
 21
69.543034969065445
  0
LINE
  8
_1-c_アンカ__類②
  6
CONTINUOUS
 62
    4
 10
139.58268180092421
 20
65.583034969065437
 11
139.5226818009242
 21
65.583034969065437
  0
LINE
  8
_1-c_アンカ__類②
  6
CONTINUOUS
 62
    4
 10
139.58268180092421
 20
65.583034969065437
 11
139.58268180092421
 21
65.61778496906544
  0
LINE
  8
_1-c_アンカ__類②
  6
CONTINUOUS
 62
    4
 10
139.5226818009242
 20
65.583034969065437
 11
139.5226818009242
 21
65.61778496906544
  0
LINE
  8
_1-c_アンカ__類②
  6
CONTINUOUS
 62
    4
 10
139.37418180092419
 20
67.791984969065453
 11
139.76373180092423
 21
68.043634969065437
  0
LINE
  8
_1-c_アンカ__類②
  6
CONTINUOUS
 62
    4
 10
139.28268180092419
 20
67.162034969065445
 11
139.28268180092419
 21
67.623984969065447
  0
LINE
  8
_1-c_アンカ__類②
  6
CONTINUOUS
 62
    4
 10
139.34163180092423
 20
67.842384969065449
 11
139.73118180092422
 21
68.094034969065461
  0
LINE
  8
_1-c_アンカ__類②
  6
CONTINUOUS
 62
    4
 10
139.22268180092419
 20
67.162034969065445
 11
139.22268180092419
 21
67.623984969065447
  0
LINE
  8
_1-c_アンカ__類②
  6
CONTINUOUS
 62
    4
 10
139.88268180092422
 20
68.262034969065439
 11
139.88268180092422
 21
68.723984969065441
  0
LINE
  8
_1-c_アンカ__類②
  6
CONTINUOUS
 62
    4
 10
139.37418180092419
 20
69.194034969065456
 11
139.76373180092423
 21
68.942384969065444
  0
LINE
  8
_1-c_アンカ__類②
  6
CONTINUOUS
 62
    4
 10
139.82268180092422
 20
68.262034969065439
 11
139.82268180092422
 21
68.723984969065441
  0
LINE
  8
_1-c_アンカ__類②
  6
CONTINUOUS
 62
    4
 10
139.34163180092423
 20
69.143634969065459
 11
139.73118180092422
 21
68.891984969065447
  0
LINE
  8
_1-c_アンカ__類②
  6
CONTINUOUS
 62
    4
 10
139.34163180092423
 20
70.042384969065438
 11
139.73118180092422
 21
70.29403496906545
  0
LINE
  8
_1-c_アンカ__類②
  6
CONTINUOUS
 62
    4
 10
139.37418180092419
 20
69.991984969065442
 11
139.76373180092423
 21
70.243634969065454
  0
LINE
  8
_1-c_アンカ__類②
  6
CONTINUOUS
 62
    4
 10
139.88268180092422
 20
70.462034969065456
 11
139.88268180092422
 21
70.563034969065455
  0
LINE
  8
_1-c_アンカ__類②
  6
CONTINUOUS
 62
    4
 10
139.82268180092422
 20
70.462034969065456
 11
139.82268180092422
 21
70.563034969065455
  0
LINE
  8
_1-c_アンカ__類②
  6
CONTINUOUS
 62
    4
 10
139.28268180092419
 20
69.64303496906544
 11
139.22268180092419
 21
69.64303496906544
  0
LINE
  8
_1-c_アンカ__類②
  6
CONTINUOUS
 62
    4
 10
139.28268180092419
 20
69.543034969065445
 11
139.22268180092419
 21
69.543034969065445
  0
LINE
  8
_1-c_アンカ__類②
  6
CONTINUOUS
 62
    4
 10
139.37418180092419
 20
66.994034969065439
 11
139.72373180092421
 21
66.768234969065446
  0
LINE
  8
_1-c_アンカ__類②
  6
CONTINUOUS
 62
    4
 10
139.8426818009242
 20
66.036184969065459
 11
139.8426818009242
 21
66.549834969065444
  0
LINE
  8
_1-c_アンカ__類②
  6
CONTINUOUS
 62
    4
 10
139.6741818009242
 20
65.785784969065446
 11
139.72373180092421
 21
65.817784969065457
  0
LINE
  8
_1-c_アンカ__類②
  6
CONTINUOUS
 62
    4
 10
139.64163180092424
 20
65.836184969065442
 11
139.6911818009242
 21
65.868184969065453
  0
LINE
  8
_1-c_アンカ__類②
  6
CONTINUOUS
 62
    4
 10
139.34163180092423
 20
66.943634969065442
 11
139.6911818009242
 21
66.71783496906545
  0
LINE
  8
_1-c_アンカ__類②
  6
CONTINUOUS
 62
    4
 10
139.78268180092419
 20
66.036184969065459
 11
139.78268180092419
 21
66.549834969065444
  0
LINE
  8
_1-c_アンカ__類②
  6
CONTINUOUS
 62
    4
 10
138.81768180092422
 20
71.093034969065457
 11
138.81768180092422
 21
71.183034969065446
  0
LINE
  8
_1-c_アンカ__類②
  6
CONTINUOUS
 62
    4
 10
140.28768180092419
 20
71.183034969065446
 11
138.81768180092422
 21
71.183034969065446
  0
LINE
  8
_1-c_アンカ__類②
  6
CONTINUOUS
 62
    4
 10
140.28768180092419
 20
71.093034969065457
 11
140.28768180092419
 21
71.183034969065446
  0
LINE
  8
_1-c_アンカ__類②
  6
CONTINUOUS
 62
    4
 10
140.28768180092419
 20
71.093034969065457
 11
138.81768180092422
 21
71.093034969065457
  0
LINE
  8
_1-c_アンカ__類②
  6
CONTINUOUS
 62
    4
 10
138.9746818009242
 20
70.923034969065441
 11
138.81768180092422
 21
71.093034969065457
  0
LINE
  8
_1-c_アンカ__類②
  6
CONTINUOUS
 62
    4
 10
140.13068180092421
 20
70.923034969065441
 11
138.9746818009242
 21
70.923034969065441
  0
LINE
  8
_1-c_アンカ__類②
  6
CONTINUOUS
 62
    4
 10
140.13068180092421
 20
70.923034969065441
 11
140.28768180092419
 21
71.093034969065457
  0
LINE
  8
_1-c_アンカ__類②
  6
CONTINUOUS
 62
    4
 10
139.60268180092424
 20
70.923034969065441
 11
139.55268180092423
 21
70.823034969065446
  0
LINE
  8
_1-c_アンカ__類②
  6
CONTINUOUS
 62
    4
 10
139.55268180092423
 20
70.823034969065446
 11
139.50268180092422
 21
70.923034969065441
  0
LINE
  8
_1-c_アンカ__類②
  6
CONTINUOUS
 62
    4
 10
138.87468180092424
 20
69.783034969065454
 11
138.87468180092424
 21
70.823034969065446
  0
LINE
  8
_1-c_アンカ__類②
  6
CONTINUOUS
 62
    4
 10
138.99468180092424
 20
70.923034969065441
 11
138.87468180092424
 21
70.823034969065446
  0
LINE
  8
_1-c_アンカ__類②
  6
CONTINUOUS
 62
    4
 10
140.23068180092423
 20
70.823034969065446
 11
140.11068180092423
 21
70.923034969065441
  0
LINE
  8
_1-c_アンカ__類②
  6
CONTINUOUS
 62
    4
 10
140.23068180092423
 20
69.783034969065454
 11
140.23068180092423
 21
70.823034969065446
  0
LINE
  8
_1-c_アンカ__類②
  6
CONTINUOUS
 62
    4
 10
139.50268180092422
 20
70.783034969065454
 11
139.55268180092423
 21
70.823034969065446
  0
LINE
  8
_1-c_アンカ__類②
  6
CONTINUOUS
 62
    4
 10
139.60268180092424
 20
70.783034969065454
 11
139.55268180092423
 21
70.823034969065446
  0
LINE
  8
_1-c_アンカ__類②
  6
CONTINUOUS
 62
    4
 10
139.50268180092422
 20
70.783034969065454
 11
139.50268180092422
 21
70.923034969065441
  0
LINE
  8
_1-c_アンカ__類②
  6
CONTINUOUS
 62
    4
 10
139.60268180092424
 20
70.783034969065454
 11
139.60268180092424
 21
70.923034969065441
  0
LINE
  8
_1-c_アンカ__類②
  6
CONTINUOUS
 62
    4
 10
138.99468180092424
 20
70.783034969065454
 11
138.99468180092424
 21
70.923034969065441
  0
LINE
  8
_1-c_アンカ__類②
  6
CONTINUOUS
 62
    4
 10
140.11068180092423
 20
70.783034969065454
 11
140.11068180092423
 21
70.923034969065441
  0
ARC
  8
_1-c_アンカ__類②
  6
CONTINUOUS
 62
    4
 10
139.75268180092422
 20
65.767034969065463
 40
0.1
 50
322.43100000000004
 51
0.0000000000000572
  0
ARC
  8
_1-c_アンカ__類②
  6
CONTINUOUS
 62
    4
 10
139.8426818009242
 20
65.80358496906544
 40
0.01
 50
0
 51
142.43100000000004
  0
ARC
  8
_1-c_アンカ__類②
  6
CONTINUOUS
 62
    4
 10
139.35268180092424
 20
65.767034969065463
 40
0.1
 50
180.00000000000006
 51
217.56900000000005
  0
ARC
  8
_1-c_アンカ__類②
  6
CONTINUOUS
 62
    4
 10
139.26268180092421
 20
65.80358496906544
 40
0.01
 50
37.56900000000001
 51
180.00000000000003
  0
ARC
  8
_1-c_アンカ__類②
  6
CONTINUOUS
 62
    4
 10
139.75268180092422
 20
65.307034969065455
 40
0.1
 50
322.43100000000004
 51
0.0000000000000572
  0
ARC
  8
_1-c_アンカ__類②
  6
CONTINUOUS
 62
    4
 10
139.8426818009242
 20
65.343584969065461
 40
0.01
 50
0
 51
142.43100000000004
  0
ARC
  8
_1-c_アンカ__類②
  6
CONTINUOUS
 62
    4
 10
139.26268180092421
 20
65.343584969065461
 40
0.01
 50
37.56900000000001
 51
180.00000000000003
  0
ARC
  8
_1-c_アンカ__類②
  6
CONTINUOUS
 62
    4
 10
139.35268180092424
 20
65.307034969065455
 40
0.1
 50
180.00000000000006
 51
217.56900000000005
  0
ARC
  8
_1-c_アンカ__類②
  6
CONTINUOUS
 62
    4
 10
139.78268180092419
 20
65.61778496906544
 40
0.26
 50
122.85800000000002
 51
180.00000000000003
  0
ARC
  8
_1-c_アンカ__類②
  6
CONTINUOUS
 62
    4
 10
139.78268180092419
 20
65.61778496906544
 40
0.2
 50
122.85800000000002
 51
180.00000000000003
  0
ARC
  8
_1-c_アンカ__類②
  6
CONTINUOUS
 62
    4
 10
139.48268180092424
 20
67.623984969065447
 40
0.2
 50
122.85800000000002
 51
180.00000000000003
  0
ARC
  8
_1-c_アンカ__類②
  6
CONTINUOUS
 62
    4
 10
139.48268180092424
 20
67.623984969065447
 40
0.26
 50
122.85800000000002
 51
180.00000000000003
  0
ARC
  8
_1-c_アンカ__類②
  6
CONTINUOUS
 62
    4
 10
139.48268180092424
 20
67.162034969065445
 40
0.2
 50
180.00000000000006
 51
237.14200000000005
  0
ARC
  8
_1-c_アンカ__類②
  6
CONTINUOUS
 62
    4
 10
139.48268180092424
 20
67.162034969065445
 40
0.26
 50
180.00000000000006
 51
237.14200000000005
  0
ARC
  8
_1-c_アンカ__類②
  6
CONTINUOUS
 62
    4
 10
139.62268180092423
 20
68.262034969065439
 40
0.26
 50
302.85800000000006
 51
0.0000000000000826
  0
ARC
  8
_1-c_アンカ__類②
  6
CONTINUOUS
 62
    4
 10
139.62268180092423
 20
68.723984969065441
 40
0.26
 50
0
 51
57.142000000000017
  0
ARC
  8
_1-c_アンカ__類②
  6
CONTINUOUS
 62
    4
 10
139.62268180092423
 20
68.723984969065441
 40
0.2
 50
0.0000000000001017
 51
57.14200000000011
  0
ARC
  8
_1-c_アンカ__類②
  6
CONTINUOUS
 62
    4
 10
139.62268180092423
 20
68.262034969065439
 40
0.2
 50
302.85800000000006
 51
0.0000000000000826
  0
ARC
  8
_1-c_アンカ__類②
  6
CONTINUOUS
 62
    4
 10
139.48268180092424
 20
69.362034969065462
 40
0.2
 50
180.00000000000006
 51
237.14200000000005
  0
ARC
  8
_1-c_アンカ__類②
  6
CONTINUOUS
 62
    4
 10
139.48268180092424
 20
69.362034969065462
 40
0.26
 50
180.00000000000006
 51
237.14200000000005
  0
ARC
  8
_1-c_アンカ__類②
  6
CONTINUOUS
 62
    4
 10
139.48268180092424
 20
69.823984969065464
 40
0.26
 50
122.85800000000002
 51
180.00000000000003
  0
ARC
  8
_1-c_アンカ__類②
  6
CONTINUOUS
 62
    4
 10
139.62268180092423
 20
70.462034969065456
 40
0.26
 50
302.85800000000006
 51
0.0000000000000826
  0
ARC
  8
_1-c_アンカ__類②
  6
CONTINUOUS
 62
    4
 10
139.48268180092424
 20
69.823984969065464
 40
0.2
 50
122.85800000000002
 51
180.00000000000003
  0
ARC
  8
_1-c_アンカ__類②
  6
CONTINUOUS
 62
    4
 10
139.62268180092423
 20
70.462034969065456
 40
0.2
 50
302.85800000000006
 51
0.0000000000000826
  0
ARC
  8
_1-c_アンカ__類②
  6
CONTINUOUS
 62
    4
 10
139.58268180092421
 20
66.549834969065444
 40
0.26
 50
0
 51
57.142000000000017
  0
ARC
  8
_1-c_アンカ__類②
  6
CONTINUOUS
 62
    4
 10
139.58268180092421
 20
66.036184969065459
 40
0.26
 50
302.85800000000006
 51
0.0000000000000826
  0
ARC
  8
_1-c_アンカ__類②
  6
CONTINUOUS
 62
    4
 10
139.58268180092421
 20
66.036184969065459
 40
0.2
 50
302.85800000000006
 51
0.0000000000000826
  0
ARC
  8
_1-c_アンカ__類②
  6
CONTINUOUS
 62
    4
 10
139.58268180092421
 20
66.549834969065444
 40
0.2
 50
0.0000000000001017
 51
57.14200000000011
  0
ARC
  8
_1-4_リベットル__フ
  6
CONTINUOUS
 62
    6
 10
145.26588180092415
 20
71.983034969065471
 40
0.4
 50
225.00000000000006
 51
270.00000000000006
  0
ARC
  8
_1-4_リベットル__フ
  6
CONTINUOUS
 62
    6
 10
145.26588180092415
 20
71.983034969065471
 40
0.4
 50
225.00000000000006
 51
270.00000000000006
  0
LINE
  8
_1-4_リベットル__フ
  6
CONTINUOUS
 62
    6
 10
131.60063180092413
 20
167.24593496906547
 11
134.65263180092415
 21
164.04753496906548
  0
LINE
  8
_1-4_リベットル__フ
  6
CONTINUOUS
 62
    6
 10
131.73468180092414
 20
167.53998496906547
 11
134.95263180092417
 21
164.16768496906548
  0
LINE
  8
_1-4_リベットル__フ
  6
CONTINUOUS
 62
    6
 10
87.261981800924175
 20
169.42378496906548
 11
93.519681800924175
 21
169.13053496906548
  0
LINE
  8
_1-4_リベットル__フ
  6
CONTINUOUS
 62
    6
 10
87.276031800924173
 20
169.72348496906551
 11
93.563631800924171
 21
169.42883496906546
  0
LINE
  8
_1-4_リベットル__フ
  6
CONTINUOUS
 62
    6
 10
93.901931800924174
 20
169.01253496906548
 11
131.60063180092413
 21
167.24593496906547
  0
LINE
  8
_1-4_リベットル__フ
  6
CONTINUOUS
 62
    6
 10
93.945931800924157
 20
169.31078496906548
 11
131.73468180092414
 21
167.53998496906547
  0
LINE
  8
_1-4_リベットル__フ
  6
CONTINUOUS
 62
    6
 10
134.95263180092417
 20
164.16768496906548
 11
134.95263180092417
 21
72.883034969065477
  0
LINE
  8
_1-4_リベットル__フ
  6
CONTINUOUS
 62
    6
 10
144.61733180092415
 20
72.065834969065463
 11
144.98303180092415
 21
71.700184969065475
  0
LINE
  8
_1-4_リベットル__フ
  6
CONTINUOUS
 62
    6
 10
144.29308180092414
 20
71.883034969065477
 11
144.25263180092412
 21
71.883034969065477
  0
LINE
  8
_1-4_リベットル__フ
  6
CONTINUOUS
 62
    6
 10
144.43448180092412
 20
71.824434969065464
 11
144.85873180092415
 21
71.400184969065492
  0
LINE
  8
_1-4_リベットル__フ
  6
CONTINUOUS
 62
    6
 10
134.95263180092417
 20
71.883034969065477
 11
134.95263180092417
 21
72.183034969065488
  0
LINE
  8
_1-4_リベットル__フ
  6
CONTINUOUS
 62
    6
 10
143.85263180092414
 20
72.483034969065471
 11
143.85263180092414
 21
72.183034969065488
  0
LINE
  8
_1-4_リベットル__フ
  6
CONTINUOUS
 62
    6
 10
135.35263180092414
 20
72.483034969065471
 11
143.85263180092414
 21
72.483034969065471
  0
LINE
  8
_1-4_リベットル__フ
  6
CONTINUOUS
 62
    6
 10
145.26588180092415
 20
71.583034969065466
 11
210.20643180092412
 21
71.583034969065466
  0
LINE
  8
_1-4_リベットル__フ
  6
CONTINUOUS
 62
    6
 10
145.14158180092414
 20
71.283034969065483
 11
210.20643180092412
 21
71.283034969065483
  0
LINE
  8
_1-4_リベットル__フ
  6
CONTINUOUS
 62
    6
 10
134.65263180092415
 20
164.04753496906548
 11
134.65263180092415
 21
72.883034969065477
  0
LINE
  8
_1-4_リベットル__フ
  6
CONTINUOUS
 62
    6
 10
144.29308180092414
 20
71.883034969065477
 11
134.95263180092417
 21
71.883034969065477
  0
LINE
  8
_1-4_リベットル__フ
  6
CONTINUOUS
 62
    6
 10
144.33448180092415
 20
72.183034969065488
 11
134.95263180092417
 21
72.183034969065488
  0
LINE
  8
_1-4_リベットル__フ
  6
CONTINUOUS
 62
    6
 10
135.35263180092414
 20
72.183034969065488
 11
143.85263180092414
 21
72.183034969065488
  0
LINE
  8
_1-4_リベットル__フ
  6
CONTINUOUS
 62
    6
 10
93.751831800924165
 20
169.37158496906551
 11
93.757731800924162
 21
169.36803496906549
  0
LINE
  8
_1-4_リベットル__フ
  6
CONTINUOUS
 62
    6
 10
87.261981800924175
 20
169.42378496906548
 11
87.276031800924173
 21
169.72348496906551
  0
LINE
  8
ADD_LINE
  6
DOT
 62
    6
 10
93.707831800924126
 20
169.07333496906546
 11
93.713731800924123
 21
169.06973496906545
  0
LINE
  8
_1-4_リベットル__フ
  6
DASHED1
 62
    6
 10
134.55263180092413
 20
71.183034969065488
 11
210.20643180092412
 21
71.183034969065488
  0
ARC
  8
_1-4_リベットル__フ
  6
CONTINUOUS
 62
    6
 10
144.33448180092415
 20
71.783034969065483
 40
0.4
 50
45.000000000000014
 51
90.000000000000028
  0
ARC
  8
_1-4_リベットル__フ
  6
CONTINUOUS
 62
    6
 10
145.14158180092414
 20
71.683034969065488
 40
0.4
 50
225.00000000000006
 51
270.00000000000006
  0
ARC
  8
_1-4_リベットル__フ
  6
CONTINUOUS
 62
    6
 10
144.29308180092414
 20
71.683034969065488
 40
0.2
 50
45.000000000000014
 51
90.000000000000028
  0
ARC
  8
_1-4_リベットル__フ
  6
CONTINUOUS
 62
    6
 10
135.35263180092414
 20
72.883034969065477
 40
0.4
 50
180.00000000000006
 51
270.00000000000006
  0
ARC
  8
_1-4_リベットル__フ
  6
CONTINUOUS
 62
    6
 10
135.35263180092414
 20
72.883034969065477
 40
0.7
 50
180.00000000000006
 51
270.00000000000006
  0
ARC
  8
_1-4_リベットル__フ
  6
CONTINUOUS
 62
    6
 10
93.964631800924124
 20
169.71033496906551
 40
0.4
 50
238.85200000000009
 51
267.31700000000012
  0
ARC
  8
_1-4_リベットル__フ
  6
CONTINUOUS
 62
    6
 10
93.544931800924147
 20
169.02923496906544
 40
0.4
 50
58.852000000000011
 51
87.317000000000007
  0
ARC
  8
_1-4_リベットル__フ
  6
CONTINUOUS
 62
    6
 10
93.920631800924141
 20
169.41208496906546
 40
0.4
 50
238.85200000000009
 51
267.31700000000012
  0
ARC
  8
_1-4_リベットル__フ
  6
CONTINUOUS
 62
    6
 10
93.500931800924164
 20
168.73098496906547
 40
0.4
 50
58.852000000000011
 51
87.317000000000007
  0
LINE
  8
_1-2_ハッチング
  6
CONTINUOUS
 62
    4
 10
132.55328180092414
 20
141.08303496906547
 11
132.0529818009241
 21
141.58333496906545
  0
LINE
  8
_1-2_ハッチング
  6
CONTINUOUS
 62
    4
 10
133.61393180092415
 20
141.08303496906547
 11
132.58328180092411
 21
142.11368496906545
  0
LINE
  8
_1-2_ハッチング
  6
CONTINUOUS
 62
    4
 10
134.55263180092413
 20
141.20498496906546
 11
133.11363180092411
 21
142.64398496906546
  0
LINE
  8
_1-2_ハッチング
  6
CONTINUOUS
 62
    4
 10
134.55263180092413
 20
142.26563496906545
 11
133.64393180092412
 21
143.17433496906546
  0
LINE
  8
_1-2_ハッチング
  6
CONTINUOUS
 62
    4
 10
134.55263180092413
 20
143.32628496906545
 11
134.17428180092412
 21
143.70463496906547
  0
LINE
  8
_1-2_ハッチング
  6
CONTINUOUS
 62
    4
 10
134.55263180092413
 20
144.08303496906547
 11
134.55263180092413
 21
141.08303496906547
  0
LINE
  8
_1-2_ハッチング
  6
CONTINUOUS
 62
    4
 10
85.863931800924163
 20
169.28908496906547
 11
85.687831800924144
 21
169.48248496906547
  0
LINE
  8
_1-2_ハッチング
  6
CONTINUOUS
 62
    4
 10
86.217131800924122
 20
169.27253496906545
 11
85.867081800924169
 21
169.65698496906543
  0
LINE
  8
_1-2_ハッチング
  6
CONTINUOUS
 62
    4
 10
86.57028180092415
 20
169.25598496906542
 11
86.074681800924125
 21
169.80033496906543
  0
LINE
  8
_1-2_ハッチング
  6
CONTINUOUS
 62
    4
 10
86.923431800924121
 20
169.23943496906543
 11
86.310531800924153
 21
169.91258496906545
  0
LINE
  8
_1-2_ハッチング
  6
CONTINUOUS
 62
    4
 10
87.253781800924131
 20
169.24798496906544
 11
86.586481800924119
 21
169.98088496906547
  0
LINE
  8
_1-2_ハッチング
  6
CONTINUOUS
 62
    4
 10
87.270331800924126
 20
169.60118496906546
 11
86.913181800924136
 21
169.99338496906546
  0
LINE
  8
_1-2_ハッチング
  6
CONTINUOUS
 62
    4
 10
87.506881800924148
 20
169.71263496906545
 11
87.333631800924152
 21
169.90298496906547
  0
ARC
  8
_1-2_ハッチング
  6
CONTINUOUS
 62
    4
 10
86.813531800924139
 20
168.52198496906547
 40
1.4799
 50
52.966000000000008
 51
148.12500000000003
  0
LINE
  8
_1-b_その他
  6
CONTINUOUS
 62
    5
 10
87.257581800924143
 20
169.32908496906543
 11
87.356681800924164
 21
169.4193349690654
  0
LINE
  8
_1-b_その他
  6
CONTINUOUS
 62
    5
 10
87.32413180092415
 20
169.22068496906542
 11
87.533281800924115
 21
169.41108496906543
  0
LINE
  8
_1-b_その他
  6
CONTINUOUS
 62
    5
 10
87.500731800924157
 20
169.21238496906545
 11
87.709831800924135
 21
169.40278496906541
  0
LINE
  8
_1-b_その他
  6
CONTINUOUS
 62
    5
 10
87.677281800924121
 20
169.20413496906542
 11
87.886431800924143
 21
169.39453496906543
  0
LINE
  8
_1-b_その他
  6
CONTINUOUS
 62
    5
 10
87.853881800924128
 20
169.19583496906546
 11
88.063031800924151
 21
169.38623496906541
  0
LINE
  8
_1-b_その他
  6
CONTINUOUS
 62
    5
 10
88.030481800924136
 20
169.18758496906543
 11
88.239581800924114
 21
169.37798496906544
  0
LINE
  8
_1-b_その他
  6
CONTINUOUS
 62
    5
 10
88.207031800924156
 20
169.17928496906541
 11
88.416181800924122
 21
169.36968496906542
  0
LINE
  8
_1-b_その他
  6
CONTINUOUS
 62
    5
 10
88.383631800924107
 20
169.17103496906543
 11
88.592781800924129
 21
169.36143496906544
  0
LINE
  8
_1-b_その他
  6
CONTINUOUS
 62
    5
 10
88.560231800924115
 20
169.16273496906541
 11
88.769331800924149
 21
169.35313496906542
  0
LINE
  8
_1-b_その他
  6
CONTINUOUS
 62
    5
 10
88.736781800924135
 20
169.15448496906544
 11
88.945931800924157
 21
169.34488496906545
  0
LINE
  8
_1-b_その他
  6
CONTINUOUS
 62
    5
 10
88.913381800924142
 20
169.14618496906542
 11
89.122531800924165
 21
169.33658496906543
  0
LINE
  8
_1-b_その他
  6
CONTINUOUS
 62
    5
 10
89.08998180092415
 20
169.13793496906544
 11
89.299081800924128
 21
169.32833496906545
  0
LINE
  8
_1-b_その他
  6
CONTINUOUS
 62
    5
 10
89.26653180092417
 20
169.12963496906542
 11
89.475681800924136
 21
169.32003496906543
  0
LINE
  8
_1-b_その他
  6
CONTINUOUS
 62
    5
 10
89.443131800924121
 20
169.12138496906545
 11
89.652281800924143
 21
169.31178496906546
  0
LINE
  8
_1-b_その他
  6
CONTINUOUS
 62
    5
 10
89.619731800924129
 20
169.11308496906543
 11
89.828831800924164
 21
169.30348496906544
  0
LINE
  8
_1-b_その他
  6
CONTINUOUS
 62
    5
 10
89.796281800924149
 20
169.10483496906545
 11
90.005431800924114
 21
169.2952349690654
  0
LINE
  8
_1-b_その他
  6
CONTINUOUS
 62
    5
 10
89.972881800924156
 20
169.09653496906543
 11
90.182031800924122
 21
169.28693496906544
  0
LINE
  8
_1-b_その他
  6
CONTINUOUS
 62
    5
 10
90.14943180092412
 20
169.08828496906546
 11
90.358581800924142
 21
169.27868496906541
  0
LINE
  8
_1-b_その他
  6
CONTINUOUS
 62
    5
 10
90.326031800924127
 20
169.07998496906544
 11
90.53518180092415
 21
169.27038496906545
  0
LINE
  8
_1-b_その他
  6
CONTINUOUS
 62
    5
 10
90.502631800924135
 20
169.07173496906546
 11
90.711781800924157
 21
169.26213496906541
  0
LINE
  8
_1-b_その他
  6
CONTINUOUS
 62
    5
 10
90.679181800924155
 20
169.06343496906544
 11
90.888331800924121
 21
169.25383496906545
  0
LINE
  8
_1-b_その他
  6
CONTINUOUS
 62
    5
 10
90.855781800924163
 20
169.05518496906541
 11
91.064931800924128
 21
169.24558496906542
  0
LINE
  8
_1-b_その他
  6
CONTINUOUS
 62
    5
 10
91.032381800924171
 20
169.04688496906545
 11
91.241531800924136
 21
169.23728496906546
  0
LINE
  8
_1-b_その他
  6
CONTINUOUS
 62
    5
 10
91.208931800924134
 20
169.03863496906541
 11
91.418081800924156
 21
169.22903496906542
  0
LINE
  8
_1-b_その他
  6
CONTINUOUS
 62
    5
 10
91.385531800924142
 20
169.03033496906545
 11
91.594681800924107
 21
169.22073496906546
  0
LINE
  8
_1-b_その他
  6
CONTINUOUS
 62
    5
 10
91.562131800924149
 20
169.02208496906542
 11
91.771281800924115
 21
169.21248496906543
  0
LINE
  8
_1-b_その他
  6
CONTINUOUS
 62
    5
 10
91.738681800924113
 20
169.01378496906545
 11
91.947831800924135
 21
169.20418496906541
  0
LINE
  8
_1-b_その他
  6
CONTINUOUS
 62
    5
 10
91.91528180092412
 20
169.00553496906542
 11
91.960131800924117
 21
169.04633496906541
  0
LINE
  8
_1-b_その他
  6
CONTINUOUS
 62
    5
 10
91.960131800924117
 20
169.04633496906541
 11
92.124431800924143
 21
169.19593496906543
  0
LINE
  8
_1-b_その他
  6
CONTINUOUS
 62
    5
 10
92.091881800924128
 20
168.99723496906543
 11
92.30103180092415
 21
169.18763496906541
  0
LINE
  8
_1-b_その他
  6
CONTINUOUS
 62
    5
 10
92.268431800924148
 20
168.98898496906546
 11
92.47758180092417
 21
169.17938496906544
  0
LINE
  8
_1-b_その他
  6
CONTINUOUS
 62
    5
 10
92.445031800924156
 20
168.98068496906549
 11
92.654181800924121
 21
169.17108496906542
  0
LINE
  8
_1-b_その他
  6
CONTINUOUS
 62
    5
 10
92.621631800924163
 20
168.97243496906546
 11
92.830781800924129
 21
169.16283496906544
  0
LINE
  8
_1-b_その他
  6
CONTINUOUS
 62
    5
 10
92.798181800924127
 20
168.96413496906544
 11
93.007331800924149
 21
169.15453496906542
  0
LINE
  8
_1-b_その他
  6
CONTINUOUS
 62
    5
 10
92.974781800924134
 20
168.95588496906547
 11
93.183931800924157
 21
169.14628496906545
  0
LINE
  8
_1-b_その他
  6
CONTINUOUS
 62
    5
 10
93.151381800924142
 20
168.94758496906545
 11
93.250481800924163
 21
169.03783496906544
  0
LINE
  8
_1-b_その他
  6
CONTINUOUS
 62
    5
 10
87.252631800924135
 20
169.22403496906543
 11
93.246081800924131
 21
168.94313496906548
  0
LINE
  8
_1-b_その他
  6
CONTINUOUS
 62
    5
 10
93.246081800924131
 20
168.94313496906548
 11
93.255431800924114
 21
169.14293496906544
  0
LINE
  8
_1-b_その他
  6
CONTINUOUS
 62
    5
 10
93.255431800924114
 20
169.14293496906544
 11
87.261981800924119
 21
169.42378496906542
  0
LINE
  8
_1-b_その他
  6
CONTINUOUS
 62
    5
 10
87.261981800924119
 20
169.42378496906542
 11
87.252631800924135
 21
169.22403496906543
  0
LINE
  8
_1-5_ＦＬ鋼板__ディスク
  6
CONTINUOUS
 62
    5
 10
138.19158180092418
 20
71.663034969065421
 11
134.85273180092418
 21
71.663034969065421
  0
LINE
  8
_1-5_ＦＬ鋼板__ディスク
  6
CONTINUOUS
 62
    5
 10
134.85273180092418
 20
71.283034969065426
 11
136.15273180092419
 21
71.443034969065394
  0
LINE
  8
_1-5_ＦＬ鋼板__ディスク
  6
CONTINUOUS
 62
    5
 10
134.85273180092418
 20
71.883034969065392
 11
144.25248180092419
 21
71.883034969065392
  0
LINE
  8
_1-5_ＦＬ鋼板__ディスク
  6
CONTINUOUS
 62
    5
 10
144.25248180092419
 20
71.283034969065426
 11
142.95248180092418
 21
71.443034969065394
  0
LINE
  8
_1-5_ＦＬ鋼板__ディスク
  6
CONTINUOUS
 62
    5
 10
142.97933180092417
 20
71.661384969065381
 11
142.95248180092418
 21
71.443034969065394
  0
LINE
  8
_1-5_ＦＬ鋼板__ディスク
  6
CONTINUOUS
 62
    5
 10
144.26163180092416
 20
71.503534969065385
 11
142.97933180092417
 21
71.661384969065381
  0
LINE
  8
_1-5_ＦＬ鋼板__ディスク
  6
CONTINUOUS
 62
    5
 10
140.91388180092417
 20
71.663034969065421
 11
144.25248180092419
 21
71.663034969065421
  0
LINE
  8
_1-5_ＦＬ鋼板__ディスク
  6
CONTINUOUS
 62
    5
 10
138.95063180092419
 20
71.183034969065403
 11
138.19158180092418
 21
71.663034969065421
  0
LINE
  8
_1-5_ＦＬ鋼板__ディスク
  6
CONTINUOUS
 62
    5
 10
138.95063180092419
 20
71.437034969065422
 11
138.95063180092419
 21
71.183034969065403
  0
LINE
  8
_1-5_ＦＬ鋼板__ディスク
  6
CONTINUOUS
 62
    5
 10
138.95063180092419
 20
71.437034969065422
 11
138.25053180092416
 21
71.883034969065392
  0
LINE
  8
_1-5_ＦＬ鋼板__ディスク
  6
CONTINUOUS
 62
    5
 10
140.15473180092417
 20
71.183034969065403
 11
140.91388180092417
 21
71.663034969065421
  0
LINE
  8
_1-5_ＦＬ鋼板__ディスク
  6
CONTINUOUS
 62
    5
 10
140.15473180092417
 20
71.437034969065422
 11
140.15473180092417
 21
71.183034969065403
  0
LINE
  8
_1-5_ＦＬ鋼板__ディスク
  6
CONTINUOUS
 62
    5
 10
140.15473180092417
 20
71.437034969065422
 11
140.85493180092419
 21
71.883034969065392
  0
LINE
  8
_1-5_ＦＬ鋼板__ディスク
  6
CONTINUOUS
 62
    5
 10
134.84358180092417
 20
71.503534969065385
 11
136.12588180092419
 21
71.661384969065381
  0
LINE
  8
_1-5_ＦＬ鋼板__ディスク
  6
CONTINUOUS
 62
    5
 10
136.12588180092419
 20
71.661384969065381
 11
136.15273180092419
 21
71.443034969065394
  0
ARC
  8
_1-5_ＦＬ鋼板__ディスク
  6
CONTINUOUS
 62
    5
 10
134.85273180092418
 20
71.58303496906538
 40
0.08
 50
90.000000000000028
 51
263.40600000000006
  0
ARC
  8
_1-5_ＦＬ鋼板__ディスク
  6
CONTINUOUS
 62
    5
 10
134.85273180092418
 20
71.58303496906538
 40
0.3
 50
90.000000000000028
 51
270.00000000000011
  0
ARC
  8
_1-5_ＦＬ鋼板__ディスク
  6
CONTINUOUS
 62
    5
 10
144.25248180092419
 20
71.58303496906538
 40
0.3
 50
270.00000000000006
 51
90.000000000000099
  0
ARC
  8
_1-5_ＦＬ鋼板__ディスク
  6
CONTINUOUS
 62
    5
 10
144.25248180092419
 20
71.58303496906538
 40
0.08
 50
276.59400000000005
 51
90.000000000000071
  0
LINE
  8
_1-6_アンカ__類
  6
CONTINUOUS
 62
    4
 10
139.12608180092417
 20
71.261584969065495
 11
138.65268180092417
 21
71.735034969065509
  0
LINE
  8
_1-6_アンカ__類
  6
CONTINUOUS
 62
    4
 10
139.97923180092417
 20
71.261584969065495
 11
140.45268180092415
 21
71.735034969065509
  0
LINE
  8
_1-6_アンカ__類
  6
CONTINUOUS
 62
    4
 10
139.92068180092417
 20
71.20303496906547
 11
139.18468180092415
 21
71.20303496906547
  0
LINE
  8
_1-6_アンカ__類
  6
CONTINUOUS
 62
    4
 10
138.65268180092417
 20
71.883034969065477
 11
138.65268180092417
 21
71.735034969065509
  0
LINE
  8
_1-6_アンカ__類
  6
CONTINUOUS
 62
    4
 10
140.45268180092415
 20
71.883034969065477
 11
140.45268180092415
 21
71.735034969065509
  0
LINE
  8
_1-6_アンカ__類
  6
CONTINUOUS
 62
    4
 10
140.45268180092415
 20
71.735034969065509
 11
138.65268180092417
 21
71.735034969065509
  0
LINE
  8
_1-6_アンカ__類
  6
CONTINUOUS
 62
    4
 10
140.45268180092415
 20
71.883034969065477
 11
138.65268180092417
 21
71.883034969065477
  0
LINE
  8
_1-6_アンカ__類
  6
CONTINUOUS
 62
    4
 10
139.92068180092417
 20
70.883034969065477
 11
139.18468180092415
 21
70.883034969065477
  0
LINE
  8
_1-6_アンカ__類
  6
CONTINUOUS
 62
    4
 10
139.80778180092415
 20
64.442184969065465
 11
139.27348180092415
 21
64.259884969065467
  0
LINE
  8
_1-6_アンカ__類
  6
CONTINUOUS
 62
    4
 10
139.27348180092415
 20
64.259884969065467
 11
139.38648180092414
 21
64.18718496906547
  0
LINE
  8
_1-6_アンカ__類
  6
CONTINUOUS
 62
    4
 10
139.88178180092416
 20
64.376434969065485
 11
139.27348180092415
 21
64.259884969065467
  0
LINE
  8
_1-6_アンカ__類
  6
CONTINUOUS
 62
    4
 10
139.38648180092414
 20
64.18718496906547
 11
139.88178180092416
 21
64.376434969065485
  0
LINE
  8
_1-6_アンカ__類
  6
CONTINUOUS
 62
    4
 10
139.88178180092416
 20
64.376434969065485
 11
139.80778180092415
 21
64.442184969065465
  0
LINE
  8
_1-6_アンカ__類
  6
CONTINUOUS
 62
    4
 10
139.86948180092415
 20
64.82313496906545
 11
139.13543180092415
 21
64.588684969065469
  0
LINE
  8
_1-6_アンカ__類
  6
CONTINUOUS
 62
    4
 10
139.27973180092417
 20
64.523484969065464
 11
140.01563180092415
 21
64.75738496906547
  0
LINE
  8
_1-6_アンカ__類
  6
CONTINUOUS
 62
    4
 10
140.01563180092415
 20
64.75738496906547
 11
139.13543180092415
 21
64.588684969065469
  0
LINE
  8
_1-6_アンカ__類
  6
CONTINUOUS
 62
    4
 10
139.13543180092415
 20
64.588684969065469
 11
139.27973180092417
 21
64.523484969065464
  0
LINE
  8
_1-6_アンカ__類
  6
CONTINUOUS
 62
    4
 10
140.01563180092415
 20
64.75738496906547
 11
139.86948180092415
 21
64.82313496906545
  0
LINE
  8
_1-6_アンカ__類
  6
CONTINUOUS
 62
    4
 10
139.08768180092414
 20
64.959034969065499
 11
139.23313180092416
 21
64.893284969065462
  0
LINE
  8
_1-6_アンカ__類
  6
CONTINUOUS
 62
    4
 10
139.23313180092416
 20
64.893284969065462
 11
140.01848180092415
 21
65.137384969065465
  0
LINE
  8
_1-6_アンカ__類
  6
CONTINUOUS
 62
    4
 10
139.23308180092417
 20
65.27323496906547
 11
139.23308180092417
 21
65.004234969065465
  0
LINE
  8
_1-6_アンカ__類
  6
CONTINUOUS
 62
    4
 10
139.87228180092416
 20
65.091934969065505
 11
139.87228180092416
 21
64.897634969065507
  0
LINE
  8
_1-6_アンカ__類
  6
CONTINUOUS
 62
    4
 10
139.87228180092416
 20
65.471934969065501
 11
139.87228180092416
 21
65.203134969065445
  0
LINE
  8
_1-6_アンカ__類
  6
CONTINUOUS
 62
    4
 10
140.01848180092415
 20
65.137384969065465
 11
139.08768180092414
 21
64.959034969065499
  0
LINE
  8
_1-6_アンカ__類
  6
CONTINUOUS
 62
    4
 10
139.87228180092416
 20
65.203134969065445
 11
139.08768180092414
 21
64.959034969065499
  0
LINE
  8
_1-6_アンカ__類
  6
CONTINUOUS
 62
    4
 10
140.01848180092415
 20
65.137384969065465
 11
139.87228180092416
 21
65.203134969065445
  0
LINE
  8
_1-6_アンカ__類
  6
CONTINUOUS
 62
    4
 10
139.23308180092417
 20
65.653234969065466
 11
139.23308180092417
 21
65.38423496906546
  0
LINE
  8
_1-6_アンカ__類
  6
CONTINUOUS
 62
    4
 10
139.87228180092416
 20
65.851934969065496
 11
139.87228180092416
 21
65.583134969065497
  0
LINE
  8
_1-6_アンカ__類
  6
CONTINUOUS
 62
    4
 10
140.01848180092415
 20
65.517384969065461
 11
139.08768180092414
 21
65.33898496906545
  0
LINE
  8
_1-6_アンカ__類
  6
CONTINUOUS
 62
    4
 10
139.87228180092416
 20
65.583134969065497
 11
139.08768180092414
 21
65.33898496906545
  0
LINE
  8
_1-6_アンカ__類
  6
CONTINUOUS
 62
    4
 10
140.01848180092415
 20
65.517384969065461
 11
139.87228180092416
 21
65.583134969065497
  0
LINE
  8
_1-6_アンカ__類
  6
CONTINUOUS
 62
    4
 10
139.08768180092414
 20
65.33898496906545
 11
139.23308180092417
 21
65.27323496906547
  0
LINE
  8
_1-6_アンカ__類
  6
CONTINUOUS
 62
    4
 10
139.23308180092417
 20
65.27323496906547
 11
140.01848180092415
 21
65.517384969065461
  0
LINE
  8
_1-6_アンカ__類
  6
CONTINUOUS
 62
    4
 10
139.23308180092417
 20
66.033234969065461
 11
139.23308180092417
 21
65.764234969065456
  0
LINE
  8
_1-6_アンカ__類
  6
CONTINUOUS
 62
    4
 10
139.87228180092416
 20
66.231934969065492
 11
139.87228180092416
 21
65.963084969065449
  0
LINE
  8
_1-6_アンカ__類
  6
CONTINUOUS
 62
    4
 10
139.23308180092417
 20
66.413784969065489
 11
139.23308180092417
 21
66.144234969065451
  0
LINE
  8
_1-6_アンカ__類
  6
CONTINUOUS
 62
    4
 10
139.87228180092416
 20
66.6118849690655
 11
139.87228180092416
 21
66.343084969065444
  0
LINE
  8
_1-6_アンカ__類
  6
CONTINUOUS
 62
    4
 10
139.23308180092417
 20
66.793184969065464
 11
139.23308180092417
 21
66.524184969065459
  0
LINE
  8
_1-6_アンカ__類
  6
CONTINUOUS
 62
    4
 10
139.87228180092416
 20
66.991884969065495
 11
139.87228180092416
 21
66.723084969065496
  0
LINE
  8
_1-6_アンカ__類
  6
CONTINUOUS
 62
    4
 10
139.23308180092417
 20
67.17318496906546
 11
139.23308180092417
 21
66.904184969065454
  0
LINE
  8
_1-6_アンカ__類
  6
CONTINUOUS
 62
    4
 10
139.87228180092416
 20
67.371884969065491
 11
139.87228180092416
 21
67.103084969065492
  0
LINE
  8
_1-6_アンカ__類
  6
CONTINUOUS
 62
    4
 10
139.23308180092417
 20
67.553184969065455
 11
139.23308180092417
 21
67.28418496906545
  0
LINE
  8
_1-6_アンカ__類
  6
CONTINUOUS
 62
    4
 10
139.87228180092416
 20
67.751884969065486
 11
139.87228180092416
 21
67.483084969065487
  0
LINE
  8
_1-6_アンカ__類
  6
CONTINUOUS
 62
    4
 10
139.23308180092417
 20
67.933784969065471
 11
139.23308180092417
 21
67.664184969065445
  0
LINE
  8
_1-6_アンカ__類
  6
CONTINUOUS
 62
    4
 10
139.87228180092416
 20
68.132484969065445
 11
139.87228180092416
 21
67.863084969065483
  0
LINE
  8
_1-6_アンカ__類
  6
CONTINUOUS
 62
    4
 10
139.23308180092417
 20
68.314334969065499
 11
139.23308180092417
 21
68.044784969065461
  0
LINE
  8
_1-6_アンカ__類
  6
CONTINUOUS
 62
    4
 10
139.87228180092416
 20
68.513034969065473
 11
139.87228180092416
 21
68.243634969065511
  0
LINE
  8
_1-6_アンカ__類
  6
CONTINUOUS
 62
    4
 10
139.23308180092417
 20
68.694584969065488
 11
139.23308180092417
 21
68.425334969065489
  0
LINE
  8
_1-6_アンカ__類
  6
CONTINUOUS
 62
    4
 10
139.87228180092416
 20
68.893034969065468
 11
139.87228180092416
 21
68.624234969065469
  0
LINE
  8
_1-6_アンカ__類
  6
CONTINUOUS
 62
    4
 10
139.87228180092416
 20
69.273034969065463
 11
139.87228180092416
 21
69.004484969065459
  0
LINE
  8
_1-6_アンカ__類
  6
CONTINUOUS
 62
    4
 10
139.23308180092417
 20
69.07433496906549
 11
139.23308180092417
 21
68.805334969065484
  0
LINE
  8
_1-6_アンカ__類
  6
CONTINUOUS
 62
    4
 10
139.23308180092417
 20
69.454934969065448
 11
139.23308180092417
 21
69.18533496906548
  0
LINE
  8
_1-6_アンカ__類
  6
CONTINUOUS
 62
    4
 10
139.87228180092416
 20
69.653634969065479
 11
139.87228180092416
 21
69.38423496906546
  0
LINE
  8
_1-6_アンカ__類
  6
CONTINUOUS
 62
    4
 10
139.87228180092416
 20
70.033584969065487
 11
139.87228180092416
 21
69.764784969065488
  0
LINE
  8
_1-6_アンカ__類
  6
CONTINUOUS
 62
    4
 10
139.23308180092417
 20
69.835484969065476
 11
139.23308180092417
 21
69.565934969065495
  0
LINE
  8
_1-6_アンカ__類
  6
CONTINUOUS
 62
    4
 10
139.23308180092417
 20
70.214884969065452
 11
139.23308180092417
 21
69.94593496906549
  0
LINE
  8
_1-6_アンカ__類
  6
CONTINUOUS
 62
    4
 10
139.87228180092416
 20
70.413584969065482
 11
139.87228180092416
 21
70.145034969065478
  0
LINE
  8
_1-6_アンカ__類
  6
CONTINUOUS
 62
    4
 10
139.87228180092416
 20
70.793584969065478
 11
139.87228180092416
 21
70.524784969065479
  0
LINE
  8
_1-6_アンカ__類
  6
CONTINUOUS
 62
    4
 10
139.23308180092417
 20
70.594884969065447
 11
139.23308180092417
 21
70.325884969065498
  0
LINE
  8
_1-6_アンカ__類
  6
CONTINUOUS
 62
    4
 10
139.23308180092417
 20
70.883034969065477
 11
139.23308180092417
 21
70.705884969065494
  0
LINE
  8
_1-6_アンカ__類
  6
CONTINUOUS
 62
    4
 10
139.80233180092415
 20
70.883034969065477
 11
139.08768180092414
 21
70.660684969065471
  0
LINE
  8
_1-6_アンカ__類
  6
CONTINUOUS
 62
    4
 10
140.01848180092415
 20
70.839034969065494
 11
139.92068180092417
 21
70.883034969065477
  0
LINE
  8
_1-6_アンカ__類
  6
CONTINUOUS
 62
    4
 10
140.01848180092415
 20
70.839034969065494
 11
139.08768180092414
 21
70.660684969065471
  0
LINE
  8
_1-6_アンカ__類
  6
CONTINUOUS
 62
    4
 10
139.08768180092414
 20
70.660684969065471
 11
139.23308180092417
 21
70.594884969065447
  0
LINE
  8
_1-6_アンカ__類
  6
CONTINUOUS
 62
    4
 10
139.23308180092417
 20
70.594884969065447
 11
140.01848180092415
 21
70.839034969065494
  0
LINE
  8
_1-6_アンカ__類
  6
CONTINUOUS
 62
    4
 10
140.01848180092415
 20
70.459034969065499
 11
139.08768180092414
 21
70.280684969065476
  0
LINE
  8
_1-6_アンカ__類
  6
CONTINUOUS
 62
    4
 10
139.87228180092416
 20
70.524784969065479
 11
139.08768180092414
 21
70.280684969065476
  0
LINE
  8
_1-6_アンカ__類
  6
CONTINUOUS
 62
    4
 10
140.01848180092415
 20
70.459034969065499
 11
139.87228180092416
 21
70.524784969065479
  0
LINE
  8
_1-6_アンカ__類
  6
CONTINUOUS
 62
    4
 10
139.08768180092414
 20
70.280684969065476
 11
139.23308180092417
 21
70.214884969065452
  0
LINE
  8
_1-6_アンカ__類
  6
CONTINUOUS
 62
    4
 10
139.23308180092417
 20
70.214884969065452
 11
140.01848180092415
 21
70.459034969065499
  0
LINE
  8
_1-6_アンカ__類
  6
CONTINUOUS
 62
    4
 10
140.01923180092416
 20
70.079284969065498
 11
139.08848180092417
 21
69.900934969065474
  0
LINE
  8
_1-6_アンカ__類
  6
CONTINUOUS
 62
    4
 10
139.87308180092415
 20
70.145034969065478
 11
139.08848180092417
 21
69.900934969065474
  0
LINE
  8
_1-6_アンカ__類
  6
CONTINUOUS
 62
    4
 10
140.01923180092416
 20
70.079284969065498
 11
139.87308180092415
 21
70.145034969065478
  0
LINE
  8
_1-6_アンカ__類
  6
CONTINUOUS
 62
    4
 10
139.08848180092417
 20
69.900934969065474
 11
139.23383180092415
 21
69.835134969065507
  0
LINE
  8
_1-6_アンカ__類
  6
CONTINUOUS
 62
    4
 10
139.23383180092415
 20
69.835134969065507
 11
140.01923180092416
 21
70.079284969065498
  0
LINE
  8
_1-6_アンカ__類
  6
CONTINUOUS
 62
    4
 10
140.01848180092415
 20
69.699034969065451
 11
139.08768180092414
 21
69.520684969065485
  0
LINE
  8
_1-6_アンカ__類
  6
CONTINUOUS
 62
    4
 10
139.87228180092416
 20
69.764784969065488
 11
139.08768180092414
 21
69.520684969065485
  0
LINE
  8
_1-6_アンカ__類
  6
CONTINUOUS
 62
    4
 10
140.01848180092415
 20
69.699034969065451
 11
139.87228180092416
 21
69.764784969065488
  0
LINE
  8
_1-6_アンカ__類
  6
CONTINUOUS
 62
    4
 10
139.08768180092414
 20
69.520684969065485
 11
139.23308180092417
 21
69.454934969065448
  0
LINE
  8
_1-6_アンカ__類
  6
CONTINUOUS
 62
    4
 10
139.23308180092417
 20
69.454934969065448
 11
140.01848180092415
 21
69.699034969065451
  0
LINE
  8
_1-6_アンカ__類
  6
CONTINUOUS
 62
    4
 10
140.01848180092415
 20
69.31848496906548
 11
139.08768180092414
 21
69.14008496906547
  0
LINE
  8
_1-6_アンカ__類
  6
CONTINUOUS
 62
    4
 10
139.87228180092416
 20
69.38423496906546
 11
139.08768180092414
 21
69.14008496906547
  0
LINE
  8
_1-6_アンカ__類
  6
CONTINUOUS
 62
    4
 10
140.01848180092415
 20
69.31848496906548
 11
139.87228180092416
 21
69.38423496906546
  0
LINE
  8
_1-6_アンカ__類
  6
CONTINUOUS
 62
    4
 10
139.08768180092414
 20
69.14008496906547
 11
139.23308180092417
 21
69.07433496906549
  0
LINE
  8
_1-6_アンカ__類
  6
CONTINUOUS
 62
    4
 10
139.23308180092417
 20
69.07433496906549
 11
140.01848180092415
 21
69.31848496906548
  0
LINE
  8
_1-6_アンカ__類
  6
CONTINUOUS
 62
    4
 10
140.01923180092416
 20
68.938734969065479
 11
139.08848180092417
 21
68.760334969065468
  0
LINE
  8
_1-6_アンカ__類
  6
CONTINUOUS
 62
    4
 10
139.87308180092415
 20
69.004484969065459
 11
139.08848180092417
 21
68.760334969065468
  0
LINE
  8
_1-6_アンカ__類
  6
CONTINUOUS
 62
    4
 10
140.01923180092416
 20
68.938734969065479
 11
139.87308180092415
 21
69.004484969065459
  0
LINE
  8
_1-6_アンカ__類
  6
CONTINUOUS
 62
    4
 10
139.08848180092417
 20
68.760334969065468
 11
139.23383180092415
 21
68.694584969065488
  0
LINE
  8
_1-6_アンカ__類
  6
CONTINUOUS
 62
    4
 10
139.23383180092415
 20
68.694584969065488
 11
140.01923180092416
 21
68.938734969065479
  0
LINE
  8
_1-6_アンカ__類
  6
CONTINUOUS
 62
    4
 10
140.01848180092415
 20
68.558484969065489
 11
139.08768180092414
 21
68.380134969065466
  0
LINE
  8
_1-6_アンカ__類
  6
CONTINUOUS
 62
    4
 10
139.87228180092416
 20
68.624234969065469
 11
139.08768180092414
 21
68.380134969065466
  0
LINE
  8
_1-6_アンカ__類
  6
CONTINUOUS
 62
    4
 10
140.01848180092415
 20
68.558484969065489
 11
139.87228180092416
 21
68.624234969065469
  0
LINE
  8
_1-6_アンカ__類
  6
CONTINUOUS
 62
    4
 10
139.08768180092414
 20
68.380134969065466
 11
139.23308180092417
 21
68.314334969065499
  0
LINE
  8
_1-6_アンカ__類
  6
CONTINUOUS
 62
    4
 10
139.23308180092417
 20
68.314334969065499
 11
140.01848180092415
 21
68.558484969065489
  0
LINE
  8
_1-6_アンカ__類
  6
CONTINUOUS
 62
    4
 10
140.01848180092415
 20
68.177884969065474
 11
139.08768180092414
 21
67.999534969065508
  0
LINE
  8
_1-6_アンカ__類
  6
CONTINUOUS
 62
    4
 10
139.87228180092416
 20
68.243634969065511
 11
139.08768180092414
 21
67.999534969065508
  0
LINE
  8
_1-6_アンカ__類
  6
CONTINUOUS
 62
    4
 10
140.01848180092415
 20
68.177884969065474
 11
139.87228180092416
 21
68.243634969065511
  0
LINE
  8
_1-6_アンカ__類
  6
CONTINUOUS
 62
    4
 10
139.08768180092414
 20
67.999534969065508
 11
139.23308180092417
 21
67.933784969065471
  0
LINE
  8
_1-6_アンカ__類
  6
CONTINUOUS
 62
    4
 10
139.23308180092417
 20
67.933784969065471
 11
140.01848180092415
 21
68.177884969065474
  0
LINE
  8
_1-6_アンカ__類
  6
CONTINUOUS
 62
    4
 10
140.01848180092415
 20
67.797334969065446
 11
139.08768180092414
 21
67.618934969065492
  0
LINE
  8
_1-6_アンカ__類
  6
CONTINUOUS
 62
    4
 10
139.87228180092416
 20
67.863084969065483
 11
139.08768180092414
 21
67.618934969065492
  0
LINE
  8
_1-6_アンカ__類
  6
CONTINUOUS
 62
    4
 10
140.01848180092415
 20
67.797334969065446
 11
139.87228180092416
 21
67.863084969065483
  0
LINE
  8
_1-6_アンカ__類
  6
CONTINUOUS
 62
    4
 10
139.08768180092414
 20
67.618934969065492
 11
139.23308180092417
 21
67.553184969065455
  0
LINE
  8
_1-6_アンカ__類
  6
CONTINUOUS
 62
    4
 10
139.23308180092417
 20
67.553184969065455
 11
140.01848180092415
 21
67.797334969065446
  0
LINE
  8
_1-6_アンカ__類
  6
CONTINUOUS
 62
    4
 10
140.01848180092415
 20
67.41733496906545
 11
139.08768180092414
 21
67.238934969065497
  0
LINE
  8
_1-6_アンカ__類
  6
CONTINUOUS
 62
    4
 10
139.87228180092416
 20
67.483084969065487
 11
139.08768180092414
 21
67.238934969065497
  0
LINE
  8
_1-6_アンカ__類
  6
CONTINUOUS
 62
    4
 10
140.01848180092415
 20
67.41733496906545
 11
139.87228180092416
 21
67.483084969065487
  0
LINE
  8
_1-6_アンカ__類
  6
CONTINUOUS
 62
    4
 10
139.08768180092414
 20
67.238934969065497
 11
139.23308180092417
 21
67.17318496906546
  0
LINE
  8
_1-6_アンカ__類
  6
CONTINUOUS
 62
    4
 10
139.23308180092417
 20
67.17318496906546
 11
140.01848180092415
 21
67.41733496906545
  0
LINE
  8
_1-6_アンカ__類
  6
CONTINUOUS
 62
    4
 10
140.01848180092415
 20
67.037334969065455
 11
139.08768180092414
 21
66.858984969065489
  0
LINE
  8
_1-6_アンカ__類
  6
CONTINUOUS
 62
    4
 10
139.87228180092416
 20
67.103084969065492
 11
139.08768180092414
 21
66.858984969065489
  0
LINE
  8
_1-6_アンカ__類
  6
CONTINUOUS
 62
    4
 10
140.01848180092415
 20
67.037334969065455
 11
139.87228180092416
 21
67.103084969065492
  0
LINE
  8
_1-6_アンカ__類
  6
CONTINUOUS
 62
    4
 10
139.08768180092414
 20
66.858984969065489
 11
139.23308180092417
 21
66.793184969065464
  0
LINE
  8
_1-6_アンカ__類
  6
CONTINUOUS
 62
    4
 10
139.23308180092417
 20
66.793184969065464
 11
140.01848180092415
 21
67.037334969065455
  0
LINE
  8
_1-6_アンカ__類
  6
CONTINUOUS
 62
    4
 10
140.01923180092416
 20
66.65758496906551
 11
139.08848180092417
 21
66.479234969065487
  0
LINE
  8
_1-6_アンカ__類
  6
CONTINUOUS
 62
    4
 10
139.87308180092415
 20
66.72333496906549
 11
139.08848180092417
 21
66.479234969065487
  0
LINE
  8
_1-6_アンカ__類
  6
CONTINUOUS
 62
    4
 10
140.01923180092416
 20
66.65758496906551
 11
139.87308180092415
 21
66.72333496906549
  0
LINE
  8
_1-6_アンカ__類
  6
CONTINUOUS
 62
    4
 10
139.08848180092417
 20
66.479234969065487
 11
139.23383180092415
 21
66.413434969065463
  0
LINE
  8
_1-6_アンカ__類
  6
CONTINUOUS
 62
    4
 10
139.23383180092415
 20
66.413434969065463
 11
140.01923180092416
 21
66.65758496906551
  0
LINE
  8
_1-6_アンカ__類
  6
CONTINUOUS
 62
    4
 10
140.01848180092415
 20
66.277334969065464
 11
139.08768180092414
 21
66.098984969065498
  0
LINE
  8
_1-6_アンカ__類
  6
CONTINUOUS
 62
    4
 10
139.87228180092416
 20
66.343084969065444
 11
139.08768180092414
 21
66.098984969065498
  0
LINE
  8
_1-6_アンカ__類
  6
CONTINUOUS
 62
    4
 10
140.01848180092415
 20
66.277334969065464
 11
139.87228180092416
 21
66.343084969065444
  0
LINE
  8
_1-6_アンカ__類
  6
CONTINUOUS
 62
    4
 10
139.08768180092414
 20
66.098984969065498
 11
139.23308180092417
 21
66.033234969065461
  0
LINE
  8
_1-6_アンカ__類
  6
CONTINUOUS
 62
    4
 10
139.23308180092417
 20
66.033234969065461
 11
140.01848180092415
 21
66.277334969065464
  0
LINE
  8
_1-6_アンカ__類
  6
CONTINUOUS
 62
    4
 10
140.01848180092415
 20
65.897334969065469
 11
139.08768180092414
 21
65.718984969065446
  0
LINE
  8
_1-6_アンカ__類
  6
CONTINUOUS
 62
    4
 10
139.87228180092416
 20
65.963084969065449
 11
139.08768180092414
 21
65.718984969065446
  0
LINE
  8
_1-6_アンカ__類
  6
CONTINUOUS
 62
    4
 10
140.01848180092415
 20
65.897334969065469
 11
139.87228180092416
 21
65.963084969065449
  0
LINE
  8
_1-6_アンカ__類
  6
CONTINUOUS
 62
    4
 10
139.08768180092414
 20
65.718984969065446
 11
139.23308180092417
 21
65.653234969065466
  0
LINE
  8
_1-6_アンカ__類
  6
CONTINUOUS
 62
    4
 10
139.23308180092417
 20
65.653234969065466
 11
140.01848180092415
 21
65.897334969065469
  0
LINE
  8
_1-6_アンカ__類
  6
CONTINUOUS
 62
    4
 10
139.18468180092415
 20
71.120184969065463
 11
139.18468180092415
 21
70.883034969065477
  0
LINE
  8
_1-6_アンカ__類
  6
CONTINUOUS
 62
    4
 10
139.92068180092417
 20
71.120184969065463
 11
139.92068180092417
 21
70.883034969065477
  0
LINE
  8
_1-6_アンカ__類
  6
CONTINUOUS
 62
    4
 10
91.381881800924162
 20
169.31083496906547
 11
91.622231800924155
 21
169.09933496906547
  0
LINE
  8
_1-6_アンカ__類
  6
CONTINUOUS
 62
    4
 10
92.301531800924167
 20
169.06748496906545
 11
92.560581800924169
 21
169.25558496906547
  0
LINE
  8
_1-6_アンカ__類
  6
CONTINUOUS
 62
    4
 10
91.622231800924155
 20
169.09933496906547
 11
92.301531800924167
 21
169.06748496906545
  0
LINE
  8
_1-6_アンカ__類
  6
CONTINUOUS
 62
    4
 10
92.253131800924152
 20
168.56923496906549
 11
92.258031800924158
 21
168.67408496906549
  0
LINE
  8
_1-6_アンカ__類
  6
CONTINUOUS
 62
    4
 10
92.211931800924162
 20
167.69018496906548
 11
92.240031800924157
 21
168.28953496906547
  0
LINE
  8
_1-6_アンカ__類
  6
CONTINUOUS
 62
    4
 10
91.610731800924157
 20
168.31903496906548
 11
91.582631800924162
 21
167.7196849690655
  0
LINE
  8
_1-6_アンカ__類
  6
CONTINUOUS
 62
    4
 10
91.628731800924157
 20
168.70358496906547
 11
91.623831800924151
 21
168.59873496906548
  0
LINE
  8
_1-6_アンカ__類
  6
CONTINUOUS
 62
    4
 10
91.582631800924162
 20
167.7196849690655
 11
91.398231800924165
 21
167.72833496906549
  0
LINE
  8
_1-6_アンカ__類
  6
CONTINUOUS
 62
    4
 10
92.396331800924159
 20
167.68153496906547
 11
92.211931800924162
 21
167.69018496906548
  0
LINE
  8
_1-6_アンカ__類
  6
CONTINUOUS
 62
    4
 10
91.589181800924152
 20
167.85953496906549
 11
91.404781800924169
 21
167.86818496906548
  0
LINE
  8
_1-6_アンカ__類
  6
CONTINUOUS
 62
    4
 10
92.402881800924163
 20
167.82138496906549
 11
92.218481800924152
 21
167.83003496906548
  0
LINE
  8
_1-6_アンカ__類
  6
CONTINUOUS
 62
    4
 10
91.593881800924166
 20
167.95943496906548
 11
91.409481800924155
 21
167.96803496906549
  0
LINE
  8
_1-6_アンカ__類
  6
CONTINUOUS
 62
    4
 10
92.407531800924161
 20
167.92128496906548
 11
92.223181800924166
 21
167.92993496906547
  0
LINE
  8
_1-6_アンカ__類
  6
CONTINUOUS
 62
    4
 10
91.598531800924164
 20
168.05928496906549
 11
91.414181800924169
 21
168.06793496906548
  0
LINE
  8
_1-6_アンカ__類
  6
CONTINUOUS
 62
    4
 10
92.412231800924161
 20
168.02118496906547
 11
92.227831800924164
 21
168.02983496906549
  0
LINE
  8
_1-6_アンカ__類
  6
CONTINUOUS
 62
    4
 10
91.603231800924164
 20
168.15918496906548
 11
91.418831800924167
 21
168.1678349690655
  0
LINE
  8
_1-6_アンカ__類
  6
CONTINUOUS
 62
    4
 10
92.416931800924161
 20
168.12108496906549
 11
92.23253180092415
 21
168.12968496906547
  0
LINE
  8
_1-6_アンカ__類
  6
CONTINUOUS
 62
    4
 10
91.607881800924162
 20
168.2590849690655
 11
91.423531800924152
 21
168.26773496906549
  0
LINE
  8
_1-6_アンカ__類
  6
CONTINUOUS
 62
    4
 10
92.421581800924159
 20
168.22093496906547
 11
92.237231800924164
 21
168.22958496906548
  0
LINE
  8
_1-6_アンカ__類
  6
CONTINUOUS
 62
    4
 10
92.240031800924157
 20
168.28953496906547
 11
92.424381800924166
 21
168.28088496906548
  0
LINE
  8
_1-6_アンカ__類
  6
CONTINUOUS
 62
    4
 10
91.42633180092416
 20
168.32763496906549
 11
91.610731800924157
 21
168.31903496906548
  0
LINE
  8
_1-6_アンカ__類
  6
CONTINUOUS
 62
    4
 10
91.628481800924163
 20
168.69858496906548
 11
91.444131800924154
 21
168.7072349690655
  0
LINE
  8
_1-6_アンカ__類
  6
CONTINUOUS
 62
    4
 10
92.44218180092416
 20
168.66048496906549
 11
92.257831800924166
 21
168.66913496906548
  0
LINE
  8
_1-6_アンカ__類
  6
CONTINUOUS
 62
    4
 10
91.647831800924152
 20
168.79778496906548
 11
91.448831800924168
 21
168.80713496906549
  0
LINE
  8
_1-6_アンカ__類
  6
CONTINUOUS
 62
    4
 10
92.44688180092416
 20
168.76038496906548
 11
92.24783180092416
 21
168.76968496906548
  0
LINE
  8
_1-6_アンカ__類
  6
CONTINUOUS
 62
    4
 10
91.705381800924158
 20
168.89523496906548
 11
91.453481800924166
 21
168.90703496906548
  0
LINE
  8
_1-6_アンカ__類
  6
CONTINUOUS
 62
    4
 10
92.451531800924158
 20
168.86023496906549
 11
92.199631800924166
 21
168.87203496906548
  0
LINE
  8
_1-6_アンカ__類
  6
CONTINUOUS
 62
    4
 10
92.240031800924157
 20
168.28953496906547
 11
92.424381800924166
 21
168.28088496906548
  0
LINE
  8
_1-6_アンカ__類
  6
CONTINUOUS
 62
    4
 10
91.42633180092416
 20
168.32763496906549
 11
91.610731800924157
 21
168.31903496906548
  0
LINE
  8
_1-6_アンカ__類
  6
CONTINUOUS
 62
    4
 10
92.253131800924152
 20
168.56923496906549
 11
92.437531800924162
 21
168.56058496906547
  0
LINE
  8
_1-6_アンカ__類
  6
CONTINUOUS
 62
    4
 10
91.439431800924169
 20
168.60733496906548
 11
91.623831800924151
 21
168.59873496906548
  0
LINE
  8
_1-6_アンカ__類
  6
CONTINUOUS
 62
    4
 10
92.424381800924166
 20
168.28088496906548
 11
92.457181800924161
 21
168.98013496906549
  0
LINE
  8
_1-6_アンカ__類
  6
CONTINUOUS
 62
    4
 10
91.42633180092416
 20
168.32763496906549
 11
91.459081800924153
 21
169.02688496906546
  0
LINE
  8
_1-6_アンカ__類
  6
CONTINUOUS
 62
    4
 10
92.424381800924166
 20
168.28088496906548
 11
92.402881800924163
 21
167.82138496906549
  0
LINE
  8
_1-6_アンカ__類
  6
CONTINUOUS
 62
    4
 10
91.42633180092416
 20
168.32763496906549
 11
91.404781800924169
 21
167.86818496906548
  0
LINE
  8
_1-6_アンカ__類
  6
CONTINUOUS
 62
    4
 10
91.333781800924157
 20
166.35258496906548
 11
91.333831800924159
 21
166.35228496906547
  0
LINE
  8
_1-6_アンカ__類
  6
CONTINUOUS
 62
    4
 10
91.304781800924161
 20
165.73353496906549
 11
91.304831800924163
 21
165.73323496906548
  0
LINE
  8
_1-6_アンカ__類
  6
CONTINUOUS
 62
    4
 10
91.27578180092415
 20
165.11448496906547
 11
91.27578180092415
 21
165.11418496906549
  0
LINE
  8
_1-6_アンカ__類
  6
CONTINUOUS
 62
    4
 10
91.246781800924154
 20
164.49543496906549
 11
91.246781800924154
 21
164.49513496906548
  0
LINE
  8
_1-6_アンカ__類
  6
CONTINUOUS
 62
    4
 10
91.218331800924162
 20
163.88903496906548
 11
91.218381800924163
 21
163.88873496906547
  0
LINE
  8
_1-6_アンカ__類
  6
CONTINUOUS
 62
    4
 10
92.216381800924168
 20
163.84223496906549
 11
92.216331800924152
 21
163.84198496906549
  0
LINE
  8
_1-6_アンカ__類
  6
CONTINUOUS
 62
    4
 10
92.24483180092416
 20
164.44868496906548
 11
92.244731800924157
 21
164.44838496906547
  0
LINE
  8
_1-6_アンカ__類
  6
CONTINUOUS
 62
    4
 10
92.273831800924157
 20
165.0677349690655
 11
92.273781800924169
 21
165.06743496906549
  0
LINE
  8
_1-6_アンカ__類
  6
CONTINUOUS
 62
    4
 10
92.302831800924153
 20
165.68678496906549
 11
92.302781800924166
 21
165.68648496906548
  0
LINE
  8
_1-6_アンカ__類
  6
CONTINUOUS
 62
    4
 10
92.302831800924153
 20
165.68678496906549
 11
92.088181800924161
 21
165.69683496906549
  0
LINE
  8
_1-6_アンカ__類
  6
CONTINUOUS
 62
    4
 10
92.331831800924164
 20
166.30583496906547
 11
92.331781800924162
 21
166.30553496906549
  0
LINE
  8
_1-6_アンカ__類
  6
CONTINUOUS
 62
    4
 10
91.490181800924162
 20
163.31918496906547
 11
91.640781800924159
 21
163.31213496906548
  0
LINE
  8
_1-6_アンカ__類
  6
CONTINUOUS
 62
    4
 10
91.74183180092416
 20
163.30738496906548
 11
91.892431800924157
 21
163.30033496906549
  0
LINE
  8
_1-6_アンカ__類
  6
CONTINUOUS
 62
    4
 10
91.670981800924167
 20
163.95643496906547
 11
91.772031800924154
 21
163.95168496906547
  0
LINE
  8
_1-6_アンカ__類
  6
CONTINUOUS
 62
    4
 10
91.675731800924169
 20
164.0575349690655
 11
91.776781800924155
 21
164.0527849690655
  0
LINE
  8
_1-6_アンカ__類
  6
CONTINUOUS
 62
    4
 10
92.302831800924153
 20
165.68678496906549
 11
92.402881800924163
 21
167.82138496906549
  0
LINE
  8
_1-6_アンカ__類
  6
CONTINUOUS
 62
    4
 10
92.088181800924161
 20
165.69683496906549
 11
91.854331800924157
 21
165.70778496906547
  0
LINE
  8
_1-6_アンカ__類
  6
CONTINUOUS
 62
    4
 10
93.036931800924165
 20
168.9529349690655
 11
92.86028180092417
 21
169.24153496906547
  0
LINE
  8
_1-6_アンカ__類
  6
CONTINUOUS
 62
    4
 10
91.082231800924163
 20
169.32488496906547
 11
92.86028180092417
 21
169.24153496906547
  0
LINE
  8
_1-6_アンカ__類
  6
CONTINUOUS
 62
    4
 10
90.879331800924163
 20
169.05408496906546
 11
91.082231800924163
 21
169.32488496906547
  0
LINE
  8
_1-6_アンカ__類
  6
CONTINUOUS
 62
    4
 10
90.879331800924163
 20
169.05408496906546
 11
93.036931800924165
 21
168.9529349690655
  0
LINE
  8
_1-6_アンカ__類
  6
CONTINUOUS
 62
    4
 10
91.304781800924161
 20
165.73353496906549
 11
91.404781800924169
 21
167.86818496906548
  0
LINE
  8
_1-6_アンカ__類
  6
CONTINUOUS
 62
    4
 10
91.304781800924161
 20
165.73353496906549
 11
91.753281800924157
 21
165.71253496906547
  0
LINE
  8
_1-6_アンカ__類
  6
CONTINUOUS
 62
    4
 10
91.218331800924162
 20
163.88903496906548
 11
91.218381800924163
 21
163.88873496906547
  0
LINE
  8
_1-6_アンカ__類
  6
CONTINUOUS
 62
    4
 10
91.246781800924154
 20
164.49543496906549
 11
91.246781800924154
 21
164.49513496906548
  0
LINE
  8
_1-6_アンカ__類
  6
CONTINUOUS
 62
    4
 10
91.27578180092415
 20
165.11448496906547
 11
91.27578180092415
 21
165.11418496906549
  0
LINE
  8
_1-6_アンカ__類
  6
CONTINUOUS
 62
    4
 10
91.413931800924161
 20
165.40103496906548
 11
91.400231800924161
 21
165.10863496906549
  0
LINE
  8
_1-6_アンカ__類
  6
CONTINUOUS
 62
    4
 10
91.384881800924163
 20
164.78198496906549
 11
91.371181800924163
 21
164.48958496906548
  0
LINE
  8
_1-6_アンカ__類
  6
CONTINUOUS
 62
    4
 10
91.356481800924158
 20
164.17558496906548
 11
91.342781800924158
 21
163.8831849690655
  0
LINE
  8
_1-6_アンカ__類
  6
CONTINUOUS
 62
    4
 10
91.892431800924157
 20
163.30033496906549
 11
91.74183180092416
 21
163.30738496906548
  0
LINE
  8
_1-6_アンカ__類
  6
CONTINUOUS
 62
    4
 10
91.640781800924159
 20
163.31213496906548
 11
91.490181800924162
 21
163.31918496906547
  0
LINE
  8
_1-6_アンカ__類
  6
CONTINUOUS
 62
    4
 10
92.302781800924166
 20
165.68648496906548
 11
91.983231800924159
 21
165.23738496906549
  0
LINE
  8
_1-6_アンカ__類
  6
CONTINUOUS
 62
    4
 10
92.273831800924157
 20
165.0677349690655
 11
91.954181800924161
 21
164.61833496906547
  0
LINE
  8
_1-6_アンカ__類
  6
CONTINUOUS
 62
    4
 10
92.244731800924157
 20
164.44838496906547
 11
91.925781800924156
 21
164.01193496906549
  0
LINE
  8
_1-6_アンカ__類
  6
CONTINUOUS
 62
    4
 10
92.169331800924155
 20
165.49893496906549
 11
92.149381800924161
 21
165.07353496906549
  0
LINE
  8
_1-6_アンカ__類
  6
CONTINUOUS
 62
    4
 10
92.140331800924159
 20
164.87998496906548
 11
92.120381800924164
 21
164.45448496906548
  0
LINE
  8
_1-6_アンカ__類
  6
CONTINUOUS
 62
    4
 10
92.111531800924169
 20
164.26608496906547
 11
92.09198180092416
 21
163.8480849690655
  0
LINE
  8
_1-6_アンカ__類
  6
CONTINUOUS
 62
    4
 10
91.975931800924158
 20
165.08168496906549
 11
91.983231800924159
 21
165.23738496906549
  0
LINE
  8
_1-6_アンカ__類
  6
CONTINUOUS
 62
    4
 10
92.273831800924157
 20
165.0677349690655
 11
91.975931800924158
 21
165.08168496906549
  0
LINE
  8
_1-6_アンカ__類
  6
CONTINUOUS
 62
    4
 10
91.946931800924162
 20
164.46263496906548
 11
91.954181800924161
 21
164.61833496906547
  0
LINE
  8
_1-6_アンカ__類
  6
CONTINUOUS
 62
    4
 10
92.24483180092416
 20
164.44868496906548
 11
91.946931800924162
 21
164.46263496906548
  0
LINE
  8
_1-6_アンカ__類
  6
CONTINUOUS
 62
    4
 10
91.91848180092417
 20
163.8562349690655
 11
91.925781800924156
 21
164.01193496906549
  0
LINE
  8
_1-6_アンカ__類
  6
CONTINUOUS
 62
    4
 10
92.216381800924168
 20
163.84223496906549
 11
91.91848180092417
 21
163.8562349690655
  0
LINE
  8
_1-6_アンカ__類
  6
CONTINUOUS
 62
    4
 10
92.030931800924165
 20
163.29383496906547
 11
91.892431800924157
 21
163.30033496906549
  0
LINE
  8
_1-6_アンカ__類
  6
CONTINUOUS
 62
    4
 10
92.216331800924152
 20
163.84198496906549
 11
92.030931800924165
 21
163.29383496906547
  0
LINE
  8
_1-6_アンカ__類
  6
CONTINUOUS
 62
    4
 10
91.74183180092416
 20
163.30738496906548
 11
91.920381800924162
 21
167.11693496906548
  0
LINE
  8
_1-6_アンカ__類
  6
CONTINUOUS
 62
    4
 10
91.640781800924159
 20
163.31213496906548
 11
91.819281800924159
 21
167.12168496906548
  0
LINE
  8
_1-6_アンカ__類
  6
CONTINUOUS
 62
    4
 10
91.691331800924161
 20
163.30973496906549
 11
91.74183180092416
 21
163.30738496906548
  0
LINE
  8
_1-6_アンカ__類
  6
CONTINUOUS
 62
    4
 10
91.691331800924161
 20
163.30973496906549
 11
91.640781800924159
 21
163.31213496906548
  0
LINE
  8
_1-6_アンカ__類
  6
CONTINUOUS
 62
    4
 10
91.304831800924163
 20
165.73323496906548
 11
91.580981800924164
 21
165.25623496906547
  0
LINE
  8
_1-6_アンカ__類
  6
CONTINUOUS
 62
    4
 10
91.27578180092415
 20
165.11448496906547
 11
91.551981800924167
 21
164.63718496906549
  0
LINE
  8
_1-6_アンカ__類
  6
CONTINUOUS
 62
    4
 10
91.246781800924154
 20
164.49543496906549
 11
91.523531800924161
 21
164.03078496906548
  0
LINE
  8
_1-6_アンカ__類
  6
CONTINUOUS
 62
    4
 10
91.27578180092415
 20
165.11448496906547
 11
91.573681800924163
 21
165.10053496906548
  0
LINE
  8
_1-6_アンカ__類
  6
CONTINUOUS
 62
    4
 10
91.580981800924164
 20
165.25623496906547
 11
91.573681800924163
 21
165.10053496906548
  0
LINE
  8
_1-6_アンカ__類
  6
CONTINUOUS
 62
    4
 10
91.246781800924154
 20
164.49543496906549
 11
91.544681800924153
 21
164.48148496906549
  0
LINE
  8
_1-6_アンカ__類
  6
CONTINUOUS
 62
    4
 10
91.551981800924167
 20
164.63718496906549
 11
91.544681800924153
 21
164.48148496906549
  0
LINE
  8
_1-6_アンカ__類
  6
CONTINUOUS
 62
    4
 10
91.218331800924162
 20
163.88903496906548
 11
91.51623180092416
 21
163.87508496906548
  0
LINE
  8
_1-6_アンカ__類
  6
CONTINUOUS
 62
    4
 10
91.523531800924161
 20
164.03078496906548
 11
91.51623180092416
 21
163.87508496906548
  0
LINE
  8
_1-6_アンカ__類
  6
CONTINUOUS
 62
    4
 10
91.362381800924155
 20
164.30133496906546
 11
91.342781800924158
 21
163.8831849690655
  0
LINE
  8
_1-6_アンカ__類
  6
CONTINUOUS
 62
    4
 10
91.391131800924157
 20
164.91513496906549
 11
91.371181800924163
 21
164.48958496906548
  0
LINE
  8
_1-6_アンカ__類
  6
CONTINUOUS
 62
    4
 10
91.420131800924153
 20
165.53403496906549
 11
91.400231800924161
 21
165.10863496906549
  0
LINE
  8
_1-6_アンカ__類
  6
CONTINUOUS
 62
    4
 10
91.218331800924162
 20
163.88903496906548
 11
91.351681800924169
 21
163.32568496906549
  0
LINE
  8
_1-6_アンカ__類
  6
CONTINUOUS
 62
    4
 10
91.351681800924169
 20
163.32568496906549
 11
91.490181800924162
 21
163.31918496906547
  0
LINE
  8
_1-6_アンカ__類
  6
CONTINUOUS
 62
    4
 10
91.27593180092417
 20
163.64573496906547
 11
91.655581800924168
 21
163.62798496906549
  0
LINE
  8
_1-6_アンカ__類
  6
CONTINUOUS
 62
    4
 10
91.756631800924154
 20
163.62323496906549
 11
92.136331800924168
 21
163.60543496906547
  0
LINE
  8
_1-6_アンカ__類
  6
CONTINUOUS
 62
    4
 10
91.622231800924155
 20
169.09933496906547
 11
91.351681800924169
 21
163.32568496906549
  0
LINE
  8
_1-6_アンカ__類
  6
CONTINUOUS
 62
    4
 10
92.301531800924167
 20
169.06748496906545
 11
92.030931800924165
 21
163.29383496906547
  0
LINE
  8
_1-6_アンカ__類
  6
CONTINUOUS
 62
    4
 10
91.542081800924151
 20
167.28133496906548
 11
91.553731800924155
 21
167.10323496906548
  0
LINE
  8
_1-6_アンカ__類
  6
CONTINUOUS
 62
    4
 10
91.54533180092416
 20
166.92343496906548
 11
91.533631800924169
 21
167.10153496906548
  0
LINE
  8
_1-6_アンカ__類
  6
CONTINUOUS
 62
    4
 10
91.536881800924164
 20
166.74363496906548
 11
91.525231800924161
 21
166.9216849690655
  0
LINE
  8
_1-6_アンカ__類
  6
CONTINUOUS
 62
    4
 10
91.516781800924164
 20
166.7418849690655
 11
91.528481800924155
 21
166.56383496906548
  0
LINE
  8
_1-6_アンカ__類
  6
CONTINUOUS
 62
    4
 10
91.50838180092417
 20
166.56208496906549
 11
91.520031800924158
 21
166.38398496906547
  0
LINE
  8
_1-6_アンカ__類
  6
CONTINUOUS
 62
    4
 10
91.51163180092415
 20
166.20418496906547
 11
91.499931800924159
 21
166.38228496906549
  0
LINE
  8
_1-6_アンカ__類
  6
CONTINUOUS
 62
    4
 10
91.503181800924168
 20
166.02438496906547
 11
91.491531800924164
 21
166.20248496906549
  0
LINE
  8
_1-6_アンカ__類
  6
CONTINUOUS
 62
    4
 10
91.483081800924154
 20
166.02268496906549
 11
91.494781800924159
 21
165.84458496906547
  0
LINE
  8
_1-6_アンカ__類
  6
CONTINUOUS
 62
    4
 10
91.486331800924162
 20
165.66478496906547
 11
91.474681800924159
 21
165.84288496906549
  0
LINE
  8
_1-6_アンカ__類
  6
CONTINUOUS
 62
    4
 10
91.477931800924168
 20
165.48498496906547
 11
91.466231800924163
 21
165.66308496906549
  0
LINE
  8
_1-6_アンカ__類
  6
CONTINUOUS
 62
    4
 10
91.459131800924169
 20
165.46318496906548
 11
91.457831800924154
 21
165.48328496906549
  0
LINE
  8
_1-6_アンカ__類
  6
CONTINUOUS
 62
    4
 10
91.469481800924157
 20
165.30518496906546
 11
91.459131800924169
 21
165.46318496906548
  0
LINE
  8
_1-6_アンカ__類
  6
CONTINUOUS
 62
    4
 10
91.427331800924165
 20
164.40618496906549
 11
91.415681800924162
 21
164.58428496906549
  0
LINE
  8
_1-6_アンカ__類
  6
CONTINUOUS
 62
    4
 10
91.435781800924161
 20
164.58598496906549
 11
91.424081800924156
 21
164.76408496906549
  0
LINE
  8
_1-6_アンカ__類
  6
CONTINUOUS
 62
    4
 10
91.415681800924162
 20
164.58428496906549
 11
92.099131800924155
 21
164.64233496906547
  0
LINE
  8
_1-6_アンカ__類
  6
CONTINUOUS
 62
    4
 10
91.44418180092417
 20
164.76578496906549
 11
91.432531800924167
 21
164.94388496906549
  0
LINE
  8
_1-6_アンカ__類
  6
CONTINUOUS
 62
    4
 10
91.424081800924156
 20
164.76408496906549
 11
92.107581800924166
 21
164.82213496906547
  0
LINE
  8
_1-6_アンカ__類
  6
CONTINUOUS
 62
    4
 10
91.452631800924152
 20
164.94558496906549
 11
91.440931800924162
 21
165.12368496906549
  0
LINE
  8
_1-6_アンカ__類
  6
CONTINUOUS
 62
    4
 10
91.432531800924167
 20
164.94388496906549
 11
92.11598180092416
 21
165.00193496906547
  0
LINE
  8
_1-6_アンカ__類
  6
CONTINUOUS
 62
    4
 10
91.461081800924163
 20
165.12538496906549
 11
91.449381800924158
 21
165.30348496906549
  0
LINE
  8
_1-6_アンカ__類
  6
CONTINUOUS
 62
    4
 10
92.09413180092416
 20
164.64193496906549
 11
92.065581800924164
 21
164.46038496906547
  0
LINE
  8
_1-6_アンカ__類
  6
CONTINUOUS
 62
    4
 10
92.102531800924154
 20
164.82173496906549
 11
92.074031800924161
 21
164.64023496906549
  0
LINE
  8
_1-6_アンカ__類
  6
CONTINUOUS
 62
    4
 10
92.110981800924165
 20
165.00153496906549
 11
92.082431800924169
 21
164.82003496906549
  0
LINE
  8
_1-6_アンカ__類
  6
CONTINUOUS
 62
    4
 10
91.542081800924151
 20
167.28133496906548
 11
92.220481800924162
 21
167.33893496906549
  0
LINE
  8
_1-6_アンカ__類
  6
CONTINUOUS
 62
    4
 10
92.191981800924154
 20
167.15743496906549
 11
92.220481800924162
 21
167.33893496906549
  0
LINE
  8
_1-6_アンカ__類
  6
CONTINUOUS
 62
    4
 10
91.533631800924169
 20
167.10153496906548
 11
92.212081800924167
 21
167.15913496906549
  0
LINE
  8
_1-6_アンカ__類
  6
CONTINUOUS
 62
    4
 10
92.183531800924158
 20
166.97763496906549
 11
92.212081800924167
 21
167.15913496906549
  0
LINE
  8
_1-6_アンカ__類
  6
CONTINUOUS
 62
    4
 10
91.525231800924161
 20
166.9216849690655
 11
92.203631800924157
 21
166.97933496906549
  0
LINE
  8
_1-6_アンカ__類
  6
CONTINUOUS
 62
    4
 10
92.175131800924163
 20
166.79783496906549
 11
92.203631800924157
 21
166.97933496906549
  0
LINE
  8
_1-6_アンカ__類
  6
CONTINUOUS
 62
    4
 10
91.516781800924164
 20
166.7418849690655
 11
92.195231800924162
 21
166.79953496906549
  0
LINE
  8
_1-6_アンカ__類
  6
CONTINUOUS
 62
    4
 10
92.166681800924167
 20
166.61803496906549
 11
92.195231800924162
 21
166.79953496906549
  0
LINE
  8
_1-6_アンカ__類
  6
CONTINUOUS
 62
    4
 10
91.50838180092417
 20
166.56208496906549
 11
92.186781800924152
 21
166.61973496906549
  0
LINE
  8
_1-6_アンカ__類
  6
CONTINUOUS
 62
    4
 10
92.158281800924158
 20
166.43823496906549
 11
92.186781800924152
 21
166.61973496906549
  0
LINE
  8
_1-6_アンカ__類
  6
CONTINUOUS
 62
    4
 10
91.499931800924159
 20
166.38228496906549
 11
92.178381800924157
 21
166.43993496906549
  0
LINE
  8
_1-6_アンカ__類
  6
CONTINUOUS
 62
    4
 10
92.149831800924161
 20
166.25843496906549
 11
92.178381800924157
 21
166.43993496906549
  0
LINE
  8
_1-6_アンカ__類
  6
CONTINUOUS
 62
    4
 10
91.491531800924164
 20
166.20248496906549
 11
92.169931800924161
 21
166.26013496906549
  0
LINE
  8
_1-6_アンカ__類
  6
CONTINUOUS
 62
    4
 10
92.141431800924167
 20
166.07863496906549
 11
92.169931800924161
 21
166.26013496906549
  0
LINE
  8
_1-6_アンカ__類
  6
CONTINUOUS
 62
    4
 10
91.483081800924154
 20
166.02268496906549
 11
92.161531800924152
 21
166.08033496906549
  0
LINE
  8
_1-6_アンカ__類
  6
CONTINUOUS
 62
    4
 10
92.132981800924156
 20
165.89883496906549
 11
92.161531800924152
 21
166.08033496906549
  0
LINE
  8
_1-6_アンカ__類
  6
CONTINUOUS
 62
    4
 10
91.474681800924159
 20
165.84288496906549
 11
92.15308180092417
 21
165.90053496906549
  0
LINE
  8
_1-6_アンカ__類
  6
CONTINUOUS
 62
    4
 10
92.15308180092417
 20
165.90053496906549
 11
92.124581800924162
 21
165.71903496906549
  0
LINE
  8
_1-6_アンカ__類
  6
CONTINUOUS
 62
    4
 10
91.466231800924163
 20
165.66308496906549
 11
92.144681800924161
 21
165.72073496906549
  0
LINE
  8
_1-6_アンカ__類
  6
CONTINUOUS
 62
    4
 10
92.144681800924161
 20
165.72073496906549
 11
92.116131800924151
 21
165.53923496906549
  0
LINE
  8
_1-6_アンカ__類
  6
CONTINUOUS
 62
    4
 10
91.457831800924154
 20
165.48328496906549
 11
92.136231800924165
 21
165.54093496906549
  0
LINE
  8
_1-6_アンカ__類
  6
CONTINUOUS
 62
    4
 10
92.136231800924165
 20
165.54093496906549
 11
92.11908180092415
 21
165.4316349690655
  0
LINE
  8
_1-6_アンカ__類
  6
CONTINUOUS
 62
    4
 10
92.11908180092415
 20
165.4316349690655
 11
92.107731800924157
 21
165.35943496906549
  0
LINE
  8
_1-6_アンカ__類
  6
CONTINUOUS
 62
    4
 10
91.449381800924158
 20
165.30348496906549
 11
92.12783180092417
 21
165.36113496906549
  0
LINE
  8
_1-6_アンカ__類
  6
CONTINUOUS
 62
    4
 10
92.12783180092417
 20
165.36113496906549
 11
92.09928180092416
 21
165.17963496906549
  0
LINE
  8
_1-6_アンカ__類
  6
CONTINUOUS
 62
    4
 10
91.440931800924162
 20
165.12368496906549
 11
92.11938180092416
 21
165.18133496906549
  0
LINE
  8
_1-6_アンカ__類
  6
CONTINUOUS
 62
    4
 10
92.11938180092416
 20
165.18133496906549
 11
92.090881800924151
 21
164.99983496906549
  0
LINE
  8
_1-6_アンカ__類
  6
CONTINUOUS
 62
    4
 10
91.407231800924151
 20
164.40448496906549
 11
92.085681800924164
 21
164.46213496906549
  0
LINE
  8
_1-6_アンカ__類
  6
CONTINUOUS
 62
    4
 10
91.320681800924163
 20
170.35503496906546
 11
92.719181800924162
 21
170.28953496906547
  0
LINE
  8
_1-6_アンカ__類
  6
CONTINUOUS
 62
    4
 10
91.320681800924163
 20
170.35503496906546
 11
91.65463180092415
 21
169.98828496906549
  0
LINE
  8
_1-6_アンカ__類
  6
CONTINUOUS
 62
    4
 10
92.719181800924162
 20
170.28953496906547
 11
92.352431800924151
 21
169.95558496906546
  0
LINE
  8
_1-6_アンカ__類
  6
CONTINUOUS
 62
    4
 10
92.321781800924157
 20
169.92773496906545
 11
91.682481800924151
 21
169.9576849690655
  0
LINE
  8
_1-6_アンカ__類
  6
CONTINUOUS
 62
    4
 10
91.55048180092416
 20
167.46113496906548
 11
91.562181800924165
 21
167.28303496906548
  0
LINE
  8
_1-6_アンカ__類
  6
CONTINUOUS
 62
    4
 10
91.55048180092416
 20
167.46113496906548
 11
92.228931800924158
 21
167.51878496906548
  0
LINE
  8
_1-6_アンカ__類
  6
CONTINUOUS
 62
    4
 10
92.200381800924163
 20
167.33723496906549
 11
92.228931800924158
 21
167.51878496906548
  0
LINE
  8
_1-6_アンカ__類
  6
CONTINUOUS
 62
    4
 10
91.558931800924157
 20
167.64093496906548
 11
91.57058180092416
 21
167.46283496906548
  0
LINE
  8
_1-6_アンカ__類
  6
CONTINUOUS
 62
    4
 10
91.558931800924157
 20
167.64093496906548
 11
92.237381800924155
 21
167.69858496906548
  0
LINE
  8
_1-6_アンカ__類
  6
CONTINUOUS
 62
    4
 10
92.208831800924159
 20
167.51703496906549
 11
92.237381800924155
 21
167.69858496906548
  0
LINE
  8
_1-6_アンカ__類
  6
CONTINUOUS
 62
    4
 10
91.567331800924151
 20
167.82073496906548
 11
91.57903180092417
 21
167.64263496906548
  0
LINE
  8
_1-6_アンカ__類
  6
CONTINUOUS
 62
    4
 10
91.567331800924151
 20
167.82073496906548
 11
91.871081800924159
 21
167.84653496906549
  0
LINE
  8
_1-6_アンカ__類
  6
CONTINUOUS
 62
    4
 10
91.572681800924158
 20
167.82118496906548
 11
91.569231800924157
 21
167.86068496906549
  0
LINE
  8
_1-6_アンカ__類
  6
CONTINUOUS
 62
    4
 10
91.569231800924157
 20
167.86068496906549
 11
92.238081800924164
 21
167.82933496906548
  0
LINE
  8
_1-6_アンカ__類
  6
CONTINUOUS
 62
    4
 10
92.217231800924154
 20
167.69683496906549
 11
92.238081800924164
 21
167.82933496906548
  0
LINE
  8
_1-6_アンカ__類
  6
CONTINUOUS
 62
    4
 10
91.584181800924156
 20
167.85998496906547
 11
91.680581800924159
 21
169.91628496906549
  0
LINE
  8
_1-6_アンカ__類
  6
CONTINUOUS
 62
    4
 10
92.223481800924162
 20
167.83003496906548
 11
92.319881800924165
 21
169.88633496906544
  0
LINE
  8
_1-6_アンカ__類
  6
CONTINUOUS
 62
    4
 10
91.57273180092416
 20
162.91508496906548
 11
91.39478180092415
 21
163.6041849690655
  0
LINE
  8
_1-6_アンカ__類
  6
CONTINUOUS
 62
    4
 10
91.772481800924155
 20
162.90573496906549
 11
92.01408180092416
 21
163.57513496906549
  0
LINE
  8
_1-6_アンカ__類
  6
CONTINUOUS
 62
    4
 10
91.39478180092415
 20
163.6041849690655
 11
92.01408180092416
 21
163.57513496906549
  0
LINE
  8
_1-6_アンカ__類
  6
CONTINUOUS
 62
    4
 10
91.39478180092415
 20
163.6041849690655
 11
91.422881800924159
 21
164.20353496906549
  0
LINE
  8
_1-6_アンカ__類
  6
CONTINUOUS
 62
    4
 10
92.01408180092416
 20
163.57513496906549
 11
92.042181800924155
 21
164.17448496906547
  0
LINE
  8
_1-6_アンカ__類
  6
CONTINUOUS
 62
    4
 10
91.398831800924157
 20
164.22468496906549
 11
92.077281800924155
 21
164.28233496906549
  0
LINE
  8
_1-6_アンカ__類
  6
CONTINUOUS
 62
    4
 10
91.41893180092417
 20
164.22638496906549
 11
91.407231800924151
 21
164.40448496906549
  0
LINE
  8
_1-6_アンカ__類
  6
CONTINUOUS
 62
    4
 10
92.085681800924164
 20
164.46213496906549
 11
92.05718180092417
 21
164.28058496906547
  0
LINE
  8
_1-6_アンカ__類
  6
CONTINUOUS
 62
    4
 10
91.400131800924157
 20
164.20458496906548
 11
91.398831800924157
 21
164.22468496906549
  0
LINE
  8
_1-6_アンカ__類
  6
CONTINUOUS
 62
    4
 10
92.077281800924155
 20
164.28233496906549
 11
92.060181800924155
 21
164.17363496906549
  0
LINE
  8
_1-6_アンカ__類
  6
CONTINUOUS
 62
    4
 10
91.400131800924157
 20
164.20458496906548
 11
92.060181800924155
 21
164.17363496906549
  0
LINE
  8
_1-6_アンカ__類
  6
CONTINUOUS
 62
    4
 10
91.622081800924164
 20
162.91278496906548
 11
91.723131800924151
 21
162.90803496906548
  0
LINE
  8
_1-6_アンカ__類
  6
CONTINUOUS
 62
    4
 10
91.723131800924151
 20
162.90803496906548
 11
91.772481800924155
 21
162.90573496906549
  0
LINE
  8
_1-6_アンカ__類
  6
CONTINUOUS
 62
    4
 10
91.57273180092416
 20
162.91508496906548
 11
91.622081800924164
 21
162.91278496906548
  0
ARC
  8
_1-6_アンカ__類
  6
CONTINUOUS
 62
    4
 10
141.10928180092415
 20
64.931034969065479
 40
1.8765499999999999
 50
181.15300000000005
 51
189.30200000000002
  0
ARC
  8
_1-6_アンカ__類
  6
CONTINUOUS
 62
    4
 10
137.99603180092416
 20
64.931034969065479
 40
1.8765499999999999
 50
356.70400000000006
 51
358.98100000000011
  0
ARC
  8
_1-6_アンカ__類
  6
CONTINUOUS
 62
    4
 10
141.10928180092415
 20
64.931034969065479
 40
1.8765499999999999
 50
192.55800000000005
 51
200.13300000000004
  0
ARC
  8
_1-6_アンカ__類
  6
CONTINUOUS
 62
    4
 10
141.10928180092415
 20
64.931034969065479
 40
1.8765499999999999
 50
203.35200000000003
 51
213.95100000000005
  0
ARC
  8
_1-6_アンカ__類
  6
CONTINUOUS
 62
    4
 10
137.99603180092416
 20
64.931034969065479
 40
1.8765499999999999
 50
326.04900000000004
 51
341.51100000000008
  0
ARC
  8
_1-6_アンカ__類
  6
CONTINUOUS
 62
    4
 10
137.99603180092416
 20
64.931034969065479
 40
1.8765499999999999
 50
344.90100000000012
 51
353.16500000000013
  0
ARC
  8
_1-6_アンカ__類
  6
CONTINUOUS
 62
    4
 10
138.98468180092416
 20
71.120184969065463
 40
0.2
 50
0.0000000000001017
 51
45.000000000000114
  0
ARC
  8
_1-6_アンカ__類
  6
CONTINUOUS
 62
    4
 10
140.12068180092416
 20
71.120184969065463
 40
0.2
 50
135.00000000000003
 51
180.00000000000006
  0
ARC
  8
_1-6_アンカ__類
  6
CONTINUOUS
 62
    4
 10
92.364731800924162
 20
168.42383496906547
 40
0.18325
 50
127.50700000000003
 51
227.12700000000007
  0
ARC
  8
_1-6_アンカ__類
  6
CONTINUOUS
 62
    4
 10
91.499131800924161
 20
168.46438496906549
 40
0.18325
 50
307.50700000000006
 51
47.127000000000081
  0
ARC
  8
_1-6_アンカ__類
  6
CONTINUOUS
 62
    4
 10
91.943381800924158
 20
168.68883496906548
 40
0.315
 50
357.31700000000012
 51
177.31700000000015
  0
ARC
  8
_1-6_アンカ__類
  6
CONTINUOUS
 62
    4
 10
91.897281800924162
 20
167.70493496906548
 40
0.315
 50
177.31700000000004
 51
357.31700000000012
  0
ARC
  8
_1-6_アンカ__類
  6
CONTINUOUS
 62
    4
 10
91.873881800924167
 20
167.20548496906548
 40
0.1
 50
297.70800000000008
 51
236.92600000000007
  0
ARC
  8
_1-6_アンカ__類
  6
CONTINUOUS
 62
    4
 10
91.580681800924154
 20
169.92098496906544
 40
0.1
 50
357.31700000000012
 51
42.317000000000121
  0
ARC
  8
_1-6_アンカ__類
  6
CONTINUOUS
 62
    4
 10
92.419731800924168
 20
169.88163496906549
 40
0.1
 50
132.31700000000004
 51
177.31700000000006
  0
ARC
  8
_1-6_アンカ__類
  6
CONTINUOUS
 62
    4
 10
92.019931800924169
 20
170.32228496906549
 40
0.7
 50
357.31700000000012
 51
7.189016898347325
  0
ARC
  8
_1-6_アンカ__類
  6
CONTINUOUS
 62
    4
 10
92.019931800924169
 20
170.32228496906549
 40
0.7
 50
167.44609107881305
 51
177.31700000000004
  0
LINE
  8
_1-6_アンカ__類
  6
CONTINUOUS
 62
    4
 10
91.336667450250019
 20
170.47443564141969
 11
92.714428896786771
 21
170.40988510512938
  0
LINE
  8
_1-6_アンカ__類
  6
CONTINUOUS
 62
    4
 10
91.336661535126964
 20
170.47440907589089
 11
92.714427814259977
 21
170.40986199844548
  0
LINE
  8
_1-7_設備
  6
CONTINUOUS
 62
    3
 10
83.422581800924164
 20
161.59368496906546
 11
82.810181800924184
 21
160.86143496906547
  0
LINE
  8
_1-7_設備
  6
CONTINUOUS
 62
    3
 10
83.554581800924169
 20
161.82778496906545
 11
84.433631800924175
 21
161.78673496906546
  0
LINE
  8
_1-7_設備
  6
CONTINUOUS
 62
    3
 10
83.422581800924164
 20
161.59368496906546
 11
84.422481800924189
 21
161.54703496906546
  0
LINE
  8
_1-7_設備
  6
CONTINUOUS
 62
    3
 10
83.951881800924141
 20
170.33853496906545
 11
83.554581800924169
 21
161.82778496906545
  0
LINE
  8
_1-7_設備
  6
CONTINUOUS
 62
    3
 10
97.468381800924149
 20
169.94778496906545
 11
97.441331800924175
 21
169.36843496906545
  0
LINE
  8
_1-7_設備
  6
CONTINUOUS
 62
    3
 10
97.708131800924164
 20
169.93663496906544
 11
97.68108180092419
 21
169.35723496906544
  0
LINE
  8
_1-7_設備
  6
CONTINUOUS
 62
    3
 10
83.734531800924188
 20
170.82918496906547
 11
83.314881800924141
 21
161.83898496906545
  0
LINE
  8
_1-7_設備
  6
CONTINUOUS
 62
    3
 10
83.734531800924188
 20
170.82918496906547
 11
91.905631800924155
 21
170.44773496906544
  0
LINE
  8
_1-7_設備
  6
CONTINUOUS
 62
    3
 10
92.02178180092416
 20
170.36223496906547
 11
91.905631800924155
 21
170.44773496906544
  0
LINE
  8
_1-7_設備
  6
CONTINUOUS
 62
    3
 10
94.419181800924164
 20
170.25033496906545
 11
94.30303180092416
 21
170.33583496906544
  0
LINE
  8
_1-7_設備
  6
CONTINUOUS
 62
    3
 10
95.197531800924153
 20
170.05383496906546
 11
95.170481800924179
 21
169.47443496906544
  0
LINE
  8
_1-7_設備
  6
CONTINUOUS
 62
    3
 10
95.437281800924168
 20
170.04263496906543
 11
95.410231800924137
 21
169.46323496906547
  0
LINE
  8
_1-7_設備
  6
CONTINUOUS
 62
    3
 10
92.926681800924158
 20
170.15983496906546
 11
92.899631800924183
 21
169.58043496906544
  0
LINE
  8
_1-7_設備
  6
CONTINUOUS
 62
    3
 10
93.166381800924128
 20
170.14863496906545
 11
93.139331800924154
 21
169.56928496906545
  0
LINE
  8
_1-7_設備
  6
CONTINUOUS
 62
    3
 10
90.655781800924174
 20
170.26583496906545
 11
90.628731800924143
 21
169.68648496906545
  0
LINE
  8
_1-7_設備
  6
CONTINUOUS
 62
    3
 10
90.895531800924132
 20
170.25463496906545
 11
90.868481800924158
 21
169.67528496906544
  0
LINE
  8
_1-7_設備
  6
CONTINUOUS
 62
    3
 10
88.624681800924137
 20
170.36063496906544
 11
88.597631800924162
 21
169.78128496906544
  0
LINE
  8
_1-7_設備
  6
CONTINUOUS
 62
    3
 10
86.353831800924141
 20
170.46663496906547
 11
86.326781800924167
 21
169.88728496906543
  0
LINE
  8
_1-7_設備
  6
CONTINUOUS
 62
    3
 10
88.624681800924137
 20
170.36063496906544
 11
90.655781800924174
 21
170.26583496906545
  0
LINE
  8
_1-7_設備
  6
CONTINUOUS
 62
    3
 10
90.895531800924132
 20
170.25463496906545
 11
92.926681800924158
 21
170.15983496906546
  0
LINE
  8
_1-7_設備
  6
CONTINUOUS
 62
    3
 10
93.166381800924128
 20
170.14863496906545
 11
95.197531800924153
 21
170.05383496906546
  0
LINE
  8
_1-7_設備
  6
CONTINUOUS
 62
    3
 10
95.437281800924168
 20
170.04263496906543
 11
97.468381800924149
 21
169.94778496906545
  0
LINE
  8
_1-7_設備
  6
CONTINUOUS
 62
    3
 10
97.708131800924164
 20
169.93663496906544
 11
97.887931800924164
 21
169.92823496906544
  0
LINE
  8
_1-7_設備
  6
CONTINUOUS
 62
    3
 10
83.314881800924141
 20
161.83898496906545
 11
82.509031800924177
 21
160.87548496906547
  0
LINE
  8
_1-7_設備
  6
CONTINUOUS
 62
    3
 10
82.509031800924177
 20
160.87548496906547
 11
82.810181800924184
 21
160.86143496906547
  0
LINE
  8
_1-7_設備
  6
CONTINUOUS
 62
    3
 10
92.02178180092416
 20
170.36223496906547
 11
92.14538180092417
 21
170.43653496906546
  0
LINE
  8
_1-7_設備
  6
CONTINUOUS
 62
    3
 10
92.14538180092417
 20
170.43653496906546
 11
94.30303180092416
 21
170.33583496906544
  0
LINE
  8
_1-7_設備
  6
CONTINUOUS
 62
    3
 10
94.419181800924164
 20
170.25033496906545
 11
94.542781800924175
 21
170.32463496906547
  0
LINE
  8
_1-7_設備
  6
CONTINUOUS
 62
    3
 10
94.542781800924175
 20
170.32463496906547
 11
97.899131800924138
 21
170.16793496906547
  0
LINE
  8
_1-7_設備
  6
CONTINUOUS
 62
    3
 10
84.202831800924187
 20
170.56708496906543
 11
86.114081800924183
 21
170.47783496906544
  0
LINE
  8
_1-7_設備
  6
CONTINUOUS
 62
    3
 10
86.114081800924183
 20
170.47783496906544
 11
86.087031800924152
 21
169.89848496906546
  0
LINE
  8
_1-7_設備
  6
CONTINUOUS
 62
    3
 10
86.353831800924141
 20
170.46663496906547
 11
88.384931800924178
 21
170.37183496906545
  0
LINE
  8
_1-7_設備
  6
CONTINUOUS
 62
    3
 10
88.384931800924178
 20
170.37183496906545
 11
88.357881800924147
 21
169.79248496906547
  0
ARC
  8
_1-7_設備
  6
CONTINUOUS
 62
    3
 10
97.561231800924148
 20
169.36283496906543
 40
0.12
 50
177.32700000000003
 51
357.32700000000006
  0
ARC
  8
_1-7_設備
  6
CONTINUOUS
 62
    3
 10
84.42803180092416
 20
161.66688496906545
 40
0.12
 50
267.32700000000006
 51
87.327000000000112
  0
ARC
  8
_1-7_設備
  6
CONTINUOUS
 62
    3
 10
97.89353180092418
 20
170.04808496906546
 40
0.12
 50
267.32700000000006
 51
87.327000000000112
  0
ARC
  8
_1-7_設備
  6
CONTINUOUS
 62
    3
 10
84.191631800924156
 20
170.32733496906545
 40
0.2399999999999999
 50
87.327000000000027
 51
177.32700000000006
  0
ARC
  8
_1-7_設備
  6
CONTINUOUS
 62
    3
 10
95.290331800924164
 20
169.46883496906545
 40
0.12
 50
177.32700000000003
 51
357.32700000000006
  0
ARC
  8
_1-7_設備
  6
CONTINUOUS
 62
    3
 10
93.019481800924169
 20
169.57483496906545
 40
0.12
 50
177.32700000000003
 51
357.32700000000006
  0
ARC
  8
_1-7_設備
  6
CONTINUOUS
 62
    3
 10
90.748631800924173
 20
169.68088496906546
 40
0.12
 50
177.32700000000003
 51
357.32700000000006
  0
ARC
  8
_1-7_設備
  6
CONTINUOUS
 62
    3
 10
88.477781800924177
 20
169.78688496906545
 40
0.12
 50
177.32700000000003
 51
357.32700000000006
  0
ARC
  8
_1-7_設備
  6
CONTINUOUS
 62
    3
 10
86.206881800924137
 20
169.89288496906545
 40
0.12
 50
177.32700000000003
 51
357.32700000000006
  0
ARC
  8
_1-2_ハッチング
  6
CONTINUOUS
 62
    4
 10
144.25368180092414
 20
72.399484969065441
 40
0.2367499999999999
 50
216.13300000000004
 51
246.11400000000003
  0
ARC
  8
_1-2_ハッチング
  6
CONTINUOUS
 62
    4
 10
143.71293180092414
 20
72.490134969065451
 40
0.2311999999999999
 50
19.679000000000002
 51
181.77000000000007
  0
ARC
  8
_1-2_ハッチング
  6
CONTINUOUS
 62
    4
 10
144.47798180092414
 20
72.619884969065453
 40
0.5497499999999999
 50
185.41400000000004
 51
220.90800000000004
  0
LINE
  8
_e-e_
  6
CONTINUOUS
 62
    7
 10
150.1814055916476
 20
83.568088725455084
 11
155.1814055916476
 21
83.568088725455084
  0
TEXT
  8
_e-e_
 62
    7
 10
155.18140559164763
 20
81.568088725455084
 40
4
 41
1
 50
0
  1
ＦＬシール
  0
LINE
  8
_e-e_
  6
CONTINUOUS
 62
    7
 10
150.1814055916476
 20
83.568088725455084
 11
143.88855667381819
 21
72.668554675419728
  0
TEXT
  8
_e-e_
 62
    7
 10
156.76107964701609
 20
88.083944037838165
 40
4
 41
1
 50
0
  1
ＦＬ鋼板
  0
LINE
  8
_e-e_
  6
CONTINUOUS
 62
    7
 10
151.76107964701609
 20
90.083944037838151
 11
156.76107964701609
 21
90.083944037838151
  0
LINE
  8
_e-e_
  6
CONTINUOUS
 62
    7
 10
151.76107964701609
 20
90.083944037838151
 11
141.21693650532788
 21
71.820952394155313
  0
LINE
  8
_e-e_
  6
CONTINUOUS
 62
    7
 10
180.60249378843025
 20
83.568088725455084
 11
185.60249378843025
 21
83.568088725455084
  0
TEXT
  8
_e-e_
 62
    7
 10
185.60249378843025
 20
81.568088725455084
 40
4
 41
1
 50
0
  1
絶縁シート
  0
LINE
  8
_e-e_
  6
CONTINUOUS
 62
    7
 10
102.67736752580399
 20
180.11740363379772
 11
107.67736752580399
 21
180.11740363379772
  0
LINE
  8
_e-e_
  6
CONTINUOUS
 62
    7
 10
101.86524631368277
 20
187.57194908834319
 11
106.86524631368277
 21
187.57194908834319
  0
LINE
  8
_e-e_
  6
CONTINUOUS
 62
    7
 10
102.67736752580399
 20
180.11740363379772
 11
96.95839673223098
 21
170.21185565232679
  0
LINE
  8
_e-e_
  6
CONTINUOUS
 62
    7
 10
101.86524631368277
 20
187.57194908834319
 11
92.508419515581622
 21
171.36544967640998
  0
LINE
  8
_e-e_
  6
CONTINUOUS
 62
    7
 10
79.346829034434208
 20
157.82582657796164
 11
74.346829034434222
 21
157.82582657796164
  0
TEXT
  8
_e-e_
 62
    7
 10
38.346829034434222
 20
155.82582657796164
 40
4
 41
1
 50
0
  1
ＡＹシールＭＳ－１
  0
LINE
  8
_e-e_
  6
CONTINUOUS
 62
    7
 10
79.346829034434208
 20
157.82582657796164
 11
86.049910965124184
 21
169.43590504921349
  0
LINE
  8
_e-e_
  6
CONTINUOUS
 62
    7
 10
79.819556307161491
 20
151.55309930523433
 11
74.819556307161506
 21
151.55309930523433
  0
LINE
  8
_e-e_
  6
CONTINUOUS
 62
    7
 10
79.819556307161491
 20
151.55309930523433
 11
89.94891122071958
 21
169.09765666341434
  0
TEXT
  8
_e-e_
 62
    7
 10
42.819556307161506
 20
149.55309930523433
 40
4
 41
1
 50
0
  1
ＡＹブチルテープ
  0
LINE
  8
_1-a_元図__躯体
  6
CONTINUOUS
 62
    7
 10
128.3526318009242
 20
140.48303496906544
 11
128.3526318009242
 21
134.28303496906545
  0
LINE
  8
_1-a_元図__躯体
  6
CONTINUOUS
 62
    7
 10
128.3526318009242
 20
133.28303496906545
 11
128.3526318009242
 21
127.48303496906544
  0
LINE
  8
_1-a_元図__躯体
  6
CONTINUOUS
 62
    7
 10
128.3526318009242
 20
126.48303496906544
 11
128.3526318009242
 21
120.28303496906545
  0
LINE
  8
_1-a_元図__躯体
  6
CONTINUOUS
 62
    7
 10
128.3526318009242
 20
119.28303496906545
 11
128.3526318009242
 21
113.48303496906544
  0
LINE
  8
_1-a_元図__躯体
  6
CONTINUOUS
 62
    7
 10
128.3526318009242
 20
112.48303496906544
 11
128.3526318009242
 21
106.48303496906544
  0
LINE
  8
_1-a_元図__躯体
  6
CONTINUOUS
 62
    7
 10
128.3526318009242
 20
105.48303496906544
 11
128.3526318009242
 21
99.483034969065443
  0
LINE
  8
_1-a_元図__躯体
  6
CONTINUOUS
 62
    7
 10
128.3526318009242
 20
98.483034969065443
 11
128.3526318009242
 21
92.483034969065471
  0
LINE
  8
_1-a_元図__躯体
  6
CONTINUOUS
 62
    7
 10
128.3526318009242
 20
91.483034969065471
 11
128.3526318009242
 21
85.483034969065443
  0
LINE
  8
_1-a_元図__躯体
  6
CONTINUOUS
 62
    7
 10
128.3526318009242
 20
84.483034969065443
 11
128.3526318009242
 21
78.483034969065443
  0
LINE
  8
_1-a_元図__躯体
  6
CONTINUOUS
 62
    7
 10
128.3526318009242
 20
77.483034969065443
 11
128.3526318009242
 21
71.883034969065477
  0
LINE
  8
_1-a_元図__躯体
  6
CONTINUOUS
 62
    7
 10
113.65263180092418
 20
140.48303496906544
 11
128.3526318009242
 21
140.48303496906544
  0
LINE
  8
_1-a_元図__躯体
  6
CONTINUOUS
 62
    7
 10
113.65263180092418
 20
140.48303496906544
 11
113.65263180092418
 21
134.28303496906545
  0
LINE
  8
_1-a_元図__躯体
  6
CONTINUOUS
 62
    7
 10
113.65263180092418
 20
133.28303496906545
 11
113.65263180092418
 21
127.48303496906544
  0
LINE
  8
_1-a_元図__躯体
  6
CONTINUOUS
 62
    7
 10
113.65263180092418
 20
126.48303496906544
 11
113.65263180092418
 21
120.28303496906545
  0
LINE
  8
_1-a_元図__躯体
  6
CONTINUOUS
 62
    7
 10
113.65263180092418
 20
119.28303496906545
 11
113.65263180092418
 21
113.48303496906544
  0
LINE
  8
_1-a_元図__躯体
  6
CONTINUOUS
 62
    7
 10
113.65263180092418
 20
112.48303496906544
 11
113.65263180092418
 21
106.48303496906544
  0
LINE
  8
_1-a_元図__躯体
  6
CONTINUOUS
 62
    7
 10
113.65263180092418
 20
105.48303496906544
 11
113.65263180092418
 21
99.483034969065443
  0
LINE
  8
_1-a_元図__躯体
  6
CONTINUOUS
 62
    7
 10
113.65263180092418
 20
98.483034969065443
 11
113.65263180092418
 21
92.483034969065471
  0
LINE
  8
_1-a_元図__躯体
  6
CONTINUOUS
 62
    7
 10
113.65263180092418
 20
91.483034969065471
 11
113.65263180092418
 21
85.483034969065443
  0
LINE
  8
_1-a_元図__躯体
  6
CONTINUOUS
 62
    7
 10
113.65263180092418
 20
84.483034969065443
 11
113.65263180092418
 21
78.483034969065443
  0
LINE
  8
_1-a_元図__躯体
  6
CONTINUOUS
 62
    7
 10
113.65263180092418
 20
77.483034969065443
 11
113.65263180092418
 21
71.883034969065477
  0
LINE
  8
_1-a_元図__躯体
  6
CONTINUOUS
 62
    7
 10
113.65263180092418
 20
71.883034969065477
 11
128.3526318009242
 21
71.883034969065477
  0
LINE
  8
_1-a_元図__躯体
  6
CONTINUOUS
 62
    7
 10
113.65263180092418
 20
134.28303496906545
 11
128.3526318009242
 21
134.28303496906545
  0
LINE
  8
_1-a_元図__躯体
  6
CONTINUOUS
 62
    7
 10
113.65263180092418
 20
133.28303496906545
 11
128.3526318009242
 21
133.28303496906545
  0
LINE
  8
_1-a_元図__躯体
  6
CONTINUOUS
 62
    7
 10
113.65263180092418
 20
127.48303496906544
 11
128.3526318009242
 21
127.48303496906544
  0
LINE
  8
_1-a_元図__躯体
  6
CONTINUOUS
 62
    7
 10
113.65263180092418
 20
126.48303496906544
 11
128.3526318009242
 21
126.48303496906544
  0
LINE
  8
_1-a_元図__躯体
  6
CONTINUOUS
 62
    7
 10
113.65263180092418
 20
120.28303496906545
 11
128.3526318009242
 21
120.28303496906545
  0
LINE
  8
_1-a_元図__躯体
  6
CONTINUOUS
 62
    7
 10
113.65263180092418
 20
119.28303496906545
 11
128.3526318009242
 21
119.28303496906545
  0
LINE
  8
_1-a_元図__躯体
  6
CONTINUOUS
 62
    7
 10
113.65263180092418
 20
113.48303496906544
 11
128.3526318009242
 21
113.48303496906544
  0
LINE
  8
_1-a_元図__躯体
  6
CONTINUOUS
 62
    7
 10
113.65263180092418
 20
112.48303496906544
 11
128.3526318009242
 21
112.48303496906544
  0
LINE
  8
_1-a_元図__躯体
  6
CONTINUOUS
 62
    7
 10
113.65263180092418
 20
106.48303496906544
 11
128.3526318009242
 21
106.48303496906544
  0
LINE
  8
_1-a_元図__躯体
  6
CONTINUOUS
 62
    7
 10
113.65263180092418
 20
105.48303496906544
 11
128.3526318009242
 21
105.48303496906544
  0
LINE
  8
_1-a_元図__躯体
  6
CONTINUOUS
 62
    7
 10
113.65263180092418
 20
99.483034969065443
 11
128.3526318009242
 21
99.483034969065443
  0
LINE
  8
_1-a_元図__躯体
  6
CONTINUOUS
 62
    7
 10
113.65263180092418
 20
98.483034969065443
 11
128.3526318009242
 21
98.483034969065443
  0
LINE
  8
_1-a_元図__躯体
  6
CONTINUOUS
 62
    7
 10
113.65263180092418
 20
92.483034969065471
 11
128.3526318009242
 21
92.483034969065471
  0
LINE
  8
_1-a_元図__躯体
  6
CONTINUOUS
 62
    7
 10
113.65263180092418
 20
91.483034969065471
 11
128.3526318009242
 21
91.483034969065471
  0
LINE
  8
_1-a_元図__躯体
  6
CONTINUOUS
 62
    7
 10
113.65263180092418
 20
85.483034969065443
 11
128.3526318009242
 21
85.483034969065443
  0
LINE
  8
_1-a_元図__躯体
  6
CONTINUOUS
 62
    7
 10
113.65263180092418
 20
84.483034969065443
 11
128.3526318009242
 21
84.483034969065443
  0
LINE
  8
_1-a_元図__躯体
  6
CONTINUOUS
 62
    7
 10
113.65263180092418
 20
78.483034969065443
 11
128.3526318009242
 21
78.483034969065443
  0
LINE
  8
_1-a_元図__躯体
  6
CONTINUOUS
 62
    7
 10
113.65263180092418
 20
77.483034969065443
 11
128.3526318009242
 21
77.483034969065443
  0
LINE
  8
_1-b_その他
  6
CONTINUOUS
 62
    3
 10
113.35263180092417
 20
57.083034969065459
 11
116.35263180092417
 21
54.083034969065459
  0
LINE
  8
_1-b_その他
  6
CONTINUOUS
 62
    3
 10
112.55263180092416
 20
56.751634969065456
 11
116.02128180092413
 21
53.283034969065476
  0
LINE
  8
_1-b_その他
  6
CONTINUOUS
 62
    3
 10
113.35263180092417
 20
141.08303496906547
 11
113.35263180092417
 21
57.083034969065459
  0
LINE
  8
_1-b_その他
  6
CONTINUOUS
 62
    3
 10
112.55263180092416
 20
141.08303496906547
 11
112.55263180092416
 21
56.751634969065456
  0
LINE
  8
_1-b_その他
  6
CONTINUOUS
 62
    3
 10
116.02128180092413
 20
53.283034969065476
 11
210.20643180092415
 21
53.283034969065476
  0
LINE
  8
_1-b_その他
  6
CONTINUOUS
 62
    3
 10
116.35263180092417
 20
54.083034969065459
 11
210.20643180092415
 21
54.083034969065459
  0
LINE
  8
_1-3_断熱材
  6
DASHED1
 62
    7
 10
134.55263180092413
 20
71.183034969065488
 11
210.20643180092412
 21
71.183034969065488
  0
LINE
  8
_1-8_下地など
  6
CONTINUOUS
 62
    7
 10
134.55263180092416
 20
141.08303496906547
 11
134.55263180092416
 21
70.883034969065463
  0
LINE
  8
_1-8_下地など
  6
CONTINUOUS
 62
    7
 10
128.95263180092417
 20
70.883034969065463
 11
134.55263180092416
 21
70.883034969065463
  0
LINE
  8
_1-8_下地など
  6
CONTINUOUS
 62
    7
 10
128.95263180092417
 20
141.08303496906547
 11
128.95263180092417
 21
70.883034969065463
  0
LINE
  8
_1-8_下地など
  6
CONTINUOUS
 62
    7
 10
128.95263180092417
 20
141.08303496906547
 11
134.55263180092416
 21
141.08303496906547
  0
LINE
  8
_1-8_下地など
  6
CONTINUOUS
 62
    7
 10
130.11193057853455
 20
72.60680114386831
 11
130.21193057853455
 21
72.780006224625211
  0
LINE
  8
_1-8_下地など
  6
CONTINUOUS
 62
    7
 10
130.11193057853455
 20
72.60680114386831
 11
130.31193057853454
 21
72.60680114386831
  0
LINE
  8
_1-8_下地など
  6
CONTINUOUS
 62
    7
 10
130.31193057853454
 20
72.60680114386831
 11
130.21193057853455
 21
72.780006224625211
  0
LINE
  8
_1-8_下地など
  6
CONTINUOUS
 62
    7
 10
131.198554921621
 20
72.02216405244674
 11
130.99855492162101
 21
72.368574213960514
  0
LINE
  8
_1-8_下地など
  6
CONTINUOUS
 62
    7
 10
130.79855492162102
 20
72.02216405244674
 11
131.198554921621
 21
72.02216405244674
  0
LINE
  8
_1-8_下地など
  6
CONTINUOUS
 62
    7
 10
130.79855492162102
 20
72.02216405244674
 11
130.99855492162101
 21
72.368574213960514
  0
LINE
  8
_1-8_下地など
  6
CONTINUOUS
 62
    7
 10
131.52614414090763
 20
74.021014706241417
 11
131.62614414090763
 21
74.194219786998318
  0
LINE
  8
_1-8_下地など
  6
CONTINUOUS
 62
    7
 10
131.52614414090763
 20
74.021014706241417
 11
131.72614414090762
 21
74.021014706241417
  0
LINE
  8
_1-8_下地など
  6
CONTINUOUS
 62
    7
 10
131.72614414090762
 20
74.021014706241417
 11
131.62614414090763
 21
74.194219786998318
  0
LINE
  8
_1-8_下地など
  6
CONTINUOUS
 62
    7
 10
132.61276848399407
 20
73.436377614819847
 11
132.41276848399409
 21
73.78278777633362
  0
LINE
  8
_1-8_下地など
  6
CONTINUOUS
 62
    7
 10
132.2127684839941
 20
73.436377614819847
 11
132.61276848399407
 21
73.436377614819847
  0
LINE
  8
_1-8_下地など
  6
CONTINUOUS
 62
    7
 10
132.2127684839941
 20
73.436377614819847
 11
132.41276848399409
 21
73.78278777633362
  0
LINE
  8
_1-8_下地など
  6
CONTINUOUS
 62
    7
 10
132.94035770328074
 20
75.435228268614523
 11
133.04035770328073
 21
75.608433349371396
  0
LINE
  8
_1-8_下地など
  6
CONTINUOUS
 62
    7
 10
132.94035770328074
 20
75.435228268614523
 11
133.14035770328073
 21
75.435228268614523
  0
LINE
  8
_1-8_下地など
  6
CONTINUOUS
 62
    7
 10
133.14035770328073
 20
75.435228268614523
 11
133.04035770328073
 21
75.608433349371396
  0
LINE
  8
_1-8_下地など
  6
CONTINUOUS
 62
    7
 10
134.02698204636718
 20
74.850591177192939
 11
133.82698204636719
 21
75.197001338706713
  0
LINE
  8
_1-8_下地など
  6
CONTINUOUS
 62
    7
 10
133.6269820463672
 20
74.850591177192939
 11
134.02698204636718
 21
74.850591177192939
  0
LINE
  8
_1-8_下地など
  6
CONTINUOUS
 62
    7
 10
133.6269820463672
 20
74.850591177192939
 11
133.82698204636719
 21
75.197001338706713
  0
LINE
  8
_1-8_下地など
  6
CONTINUOUS
 62
    7
 10
129.40482379734581
 20
76.142335049803236
 11
129.50482379734581
 21
76.315540130560137
  0
LINE
  8
_1-8_下地など
  6
CONTINUOUS
 62
    7
 10
129.40482379734581
 20
76.142335049803236
 11
129.6048237973458
 21
76.142335049803236
  0
LINE
  8
_1-8_下地など
  6
CONTINUOUS
 62
    7
 10
129.6048237973458
 20
76.142335049803236
 11
129.50482379734581
 21
76.315540130560137
  0
LINE
  8
_1-8_下地など
  6
CONTINUOUS
 62
    7
 10
130.49144814043225
 20
75.557697958381667
 11
130.29144814043227
 21
75.90410811989544
  0
LINE
  8
_1-8_下地など
  6
CONTINUOUS
 62
    7
 10
130.09144814043228
 20
75.557697958381667
 11
130.49144814043225
 21
75.557697958381667
  0
LINE
  8
_1-8_下地など
  6
CONTINUOUS
 62
    7
 10
130.09144814043228
 20
75.557697958381667
 11
130.29144814043227
 21
75.90410811989544
  0
LINE
  8
_1-8_下地など
  6
CONTINUOUS
 62
    7
 10
130.81903735971892
 20
77.556548612176343
 11
130.91903735971891
 21
77.729753692933215
  0
LINE
  8
_1-8_下地など
  6
CONTINUOUS
 62
    7
 10
130.81903735971892
 20
77.556548612176343
 11
131.01903735971891
 21
77.556548612176343
  0
LINE
  8
_1-8_下地など
  6
CONTINUOUS
 62
    7
 10
131.01903735971891
 20
77.556548612176343
 11
130.91903735971891
 21
77.729753692933215
  0
LINE
  8
_1-8_下地など
  6
CONTINUOUS
 62
    7
 10
131.90566170280536
 20
76.971911520754759
 11
131.70566170280537
 21
77.318321682268532
  0
LINE
  8
_1-8_下地など
  6
CONTINUOUS
 62
    7
 10
131.50566170280538
 20
76.971911520754759
 11
131.90566170280536
 21
76.971911520754759
  0
LINE
  8
_1-8_下地など
  6
CONTINUOUS
 62
    7
 10
131.50566170280538
 20
76.971911520754759
 11
131.70566170280537
 21
77.318321682268532
  0
LINE
  8
_1-8_下地など
  6
CONTINUOUS
 62
    7
 10
132.23325092209203
 20
78.970762174549421
 11
132.33325092209202
 21
79.143967255306322
  0
LINE
  8
_1-8_下地など
  6
CONTINUOUS
 62
    7
 10
132.23325092209203
 20
78.970762174549421
 11
132.43325092209201
 21
78.970762174549421
  0
LINE
  8
_1-8_下地など
  6
CONTINUOUS
 62
    7
 10
132.43325092209201
 20
78.970762174549421
 11
132.33325092209202
 21
79.143967255306322
  0
LINE
  8
_1-8_下地など
  6
CONTINUOUS
 62
    7
 10
133.31987526517847
 20
78.386125083127851
 11
133.11987526517848
 21
78.732535244641625
  0
LINE
  8
_1-8_下地など
  6
CONTINUOUS
 62
    7
 10
132.91987526517849
 20
78.386125083127851
 11
133.31987526517847
 21
78.386125083127851
  0
LINE
  8
_1-8_下地など
  6
CONTINUOUS
 62
    7
 10
132.91987526517849
 20
78.386125083127851
 11
133.11987526517848
 21
78.732535244641625
  0
LINE
  8
_1-8_下地など
  6
CONTINUOUS
 62
    7
 10
130.11193057853021
 20
81.092082518111241
 11
130.2119305785302
 21
81.265287598868142
  0
LINE
  8
_1-8_下地など
  6
CONTINUOUS
 62
    7
 10
130.11193057853021
 20
81.092082518111241
 11
130.31193057853019
 21
81.092082518111241
  0
LINE
  8
_1-8_下地など
  6
CONTINUOUS
 62
    7
 10
130.31193057853019
 20
81.092082518111241
 11
130.2119305785302
 21
81.265287598868142
  0
LINE
  8
_1-8_下地など
  6
CONTINUOUS
 62
    7
 10
131.19855492161665
 20
80.507445426689671
 11
130.99855492161666
 21
80.853855588203444
  0
LINE
  8
_1-8_下地など
  6
CONTINUOUS
 62
    7
 10
130.79855492161667
 20
80.507445426689671
 11
131.19855492161665
 21
80.507445426689671
  0
LINE
  8
_1-8_下地など
  6
CONTINUOUS
 62
    7
 10
130.79855492161667
 20
80.507445426689671
 11
130.99855492161666
 21
80.853855588203444
  0
LINE
  8
_1-8_下地など
  6
CONTINUOUS
 62
    7
 10
131.52614414090328
 20
82.506296080484347
 11
131.62614414090328
 21
82.679501161241248
  0
LINE
  8
_1-8_下地など
  6
CONTINUOUS
 62
    7
 10
131.52614414090328
 20
82.506296080484347
 11
131.72614414090327
 21
82.506296080484347
  0
LINE
  8
_1-8_下地など
  6
CONTINUOUS
 62
    7
 10
131.72614414090327
 20
82.506296080484347
 11
131.62614414090328
 21
82.679501161241248
  0
LINE
  8
_1-8_下地など
  6
CONTINUOUS
 62
    7
 10
132.61276848398973
 20
81.921658989062777
 11
132.41276848398974
 21
82.268069150576551
  0
LINE
  8
_1-8_下地など
  6
CONTINUOUS
 62
    7
 10
132.21276848398975
 20
81.921658989062777
 11
132.61276848398973
 21
81.921658989062777
  0
LINE
  8
_1-8_下地など
  6
CONTINUOUS
 62
    7
 10
132.21276848398975
 20
81.921658989062777
 11
132.41276848398974
 21
82.268069150576551
  0
LINE
  8
_1-8_下地など
  6
CONTINUOUS
 62
    7
 10
132.94035770327636
 20
83.920509642857439
 11
133.04035770327636
 21
84.09371472361434
  0
LINE
  8
_1-8_下地など
  6
CONTINUOUS
 62
    7
 10
132.94035770327636
 20
83.920509642857439
 11
133.14035770327635
 21
83.920509642857439
  0
LINE
  8
_1-8_下地など
  6
CONTINUOUS
 62
    7
 10
133.14035770327635
 20
83.920509642857439
 11
133.04035770327636
 21
84.09371472361434
  0
LINE
  8
_1-8_下地など
  6
CONTINUOUS
 62
    7
 10
134.0269820463628
 20
83.33587255143587
 11
133.82698204636282
 21
83.682282712949643
  0
LINE
  8
_1-8_下地など
  6
CONTINUOUS
 62
    7
 10
133.62698204636283
 20
83.33587255143587
 11
134.0269820463628
 21
83.33587255143587
  0
LINE
  8
_1-8_下地など
  6
CONTINUOUS
 62
    7
 10
133.62698204636283
 20
83.33587255143587
 11
133.82698204636282
 21
83.682282712949643
  0
LINE
  8
_1-8_下地など
  6
CONTINUOUS
 62
    7
 10
129.40482379734146
 20
84.627616424046181
 11
129.50482379734146
 21
84.800821504803054
  0
LINE
  8
_1-8_下地など
  6
CONTINUOUS
 62
    7
 10
129.40482379734146
 20
84.627616424046181
 11
129.60482379734145
 21
84.627616424046181
  0
LINE
  8
_1-8_下地など
  6
CONTINUOUS
 62
    7
 10
129.60482379734145
 20
84.627616424046181
 11
129.50482379734146
 21
84.800821504803054
  0
LINE
  8
_1-8_下地など
  6
CONTINUOUS
 62
    7
 10
130.49144814042791
 20
84.042979332624597
 11
130.29144814042792
 21
84.389389494138371
  0
LINE
  8
_1-8_下地など
  6
CONTINUOUS
 62
    7
 10
130.09144814042793
 20
84.042979332624597
 11
130.49144814042791
 21
84.042979332624597
  0
LINE
  8
_1-8_下地など
  6
CONTINUOUS
 62
    7
 10
130.09144814042793
 20
84.042979332624597
 11
130.29144814042792
 21
84.389389494138371
  0
LINE
  8
_1-8_下地など
  6
CONTINUOUS
 62
    7
 10
130.81903735971454
 20
86.041829986419259
 11
130.91903735971454
 21
86.21503506717616
  0
LINE
  8
_1-8_下地など
  6
CONTINUOUS
 62
    7
 10
130.81903735971454
 20
86.041829986419259
 11
131.01903735971453
 21
86.041829986419259
  0
LINE
  8
_1-8_下地など
  6
CONTINUOUS
 62
    7
 10
131.01903735971453
 20
86.041829986419259
 11
130.91903735971454
 21
86.21503506717616
  0
LINE
  8
_1-8_下地など
  6
CONTINUOUS
 62
    7
 10
131.90566170280098
 20
85.457192894997689
 11
131.705661702801
 21
85.803603056511463
  0
LINE
  8
_1-8_下地など
  6
CONTINUOUS
 62
    7
 10
131.50566170280101
 20
85.457192894997689
 11
131.90566170280098
 21
85.457192894997689
  0
LINE
  8
_1-8_下地など
  6
CONTINUOUS
 62
    7
 10
131.50566170280101
 20
85.457192894997689
 11
131.705661702801
 21
85.803603056511463
  0
LINE
  8
_1-8_下地など
  6
CONTINUOUS
 62
    7
 10
132.23325092208765
 20
87.456043548792366
 11
132.33325092208764
 21
87.629248629549238
  0
LINE
  8
_1-8_下地など
  6
CONTINUOUS
 62
    7
 10
132.23325092208765
 20
87.456043548792366
 11
132.43325092208764
 21
87.456043548792366
  0
LINE
  8
_1-8_下地など
  6
CONTINUOUS
 62
    7
 10
132.43325092208764
 20
87.456043548792366
 11
132.33325092208764
 21
87.629248629549238
  0
LINE
  8
_1-8_下地など
  6
CONTINUOUS
 62
    7
 10
133.31987526517409
 20
86.871406457370782
 11
133.1198752651741
 21
87.217816618884555
  0
LINE
  8
_1-8_下地など
  6
CONTINUOUS
 62
    7
 10
132.91987526517411
 20
86.871406457370782
 11
133.31987526517409
 21
86.871406457370782
  0
LINE
  8
_1-8_下地など
  6
CONTINUOUS
 62
    7
 10
132.91987526517411
 20
86.871406457370782
 11
133.1198752651741
 21
87.217816618884555
  0
LINE
  8
_1-8_下地など
  6
CONTINUOUS
 62
    7
 10
130.11193057852583
 20
89.577363892354185
 11
130.21193057852582
 21
89.750568973111058
  0
LINE
  8
_1-8_下地など
  6
CONTINUOUS
 62
    7
 10
130.11193057852583
 20
89.577363892354185
 11
130.31193057852582
 21
89.577363892354185
  0
LINE
  8
_1-8_下地など
  6
CONTINUOUS
 62
    7
 10
130.31193057852582
 20
89.577363892354185
 11
130.21193057852582
 21
89.750568973111058
  0
LINE
  8
_1-8_下地など
  6
CONTINUOUS
 62
    7
 10
131.19855492161227
 20
88.992726800932601
 11
130.99855492161228
 21
89.339136962446375
  0
LINE
  8
_1-8_下地など
  6
CONTINUOUS
 62
    7
 10
130.79855492161229
 20
88.992726800932601
 11
131.19855492161227
 21
88.992726800932601
  0
LINE
  8
_1-8_下地など
  6
CONTINUOUS
 62
    7
 10
130.79855492161229
 20
88.992726800932601
 11
130.99855492161228
 21
89.339136962446375
  0
LINE
  8
_1-8_下地など
  6
CONTINUOUS
 62
    7
 10
131.52614414089894
 20
90.991577454727263
 11
131.62614414089893
 21
91.164782535484164
  0
LINE
  8
_1-8_下地など
  6
CONTINUOUS
 62
    7
 10
131.52614414089894
 20
90.991577454727263
 11
131.72614414089892
 21
90.991577454727263
  0
LINE
  8
_1-8_下地など
  6
CONTINUOUS
 62
    7
 10
131.72614414089892
 20
90.991577454727263
 11
131.62614414089893
 21
91.164782535484164
  0
LINE
  8
_1-8_下地など
  6
CONTINUOUS
 62
    7
 10
132.61276848398538
 20
90.406940363305694
 11
132.41276848398539
 21
90.753350524819467
  0
LINE
  8
_1-8_下地など
  6
CONTINUOUS
 62
    7
 10
132.2127684839854
 20
90.406940363305694
 11
132.61276848398538
 21
90.406940363305694
  0
LINE
  8
_1-8_下地など
  6
CONTINUOUS
 62
    7
 10
132.2127684839854
 20
90.406940363305694
 11
132.41276848398539
 21
90.753350524819467
  0
LINE
  8
_1-8_下地など
  6
CONTINUOUS
 62
    7
 10
132.94035770327204
 20
92.40579101710037
 11
133.04035770327204
 21
92.578996097857242
  0
LINE
  8
_1-8_下地など
  6
CONTINUOUS
 62
    7
 10
132.94035770327204
 20
92.40579101710037
 11
133.14035770327203
 21
92.40579101710037
  0
LINE
  8
_1-8_下地など
  6
CONTINUOUS
 62
    7
 10
133.14035770327203
 20
92.40579101710037
 11
133.04035770327204
 21
92.578996097857242
  0
LINE
  8
_1-8_下地など
  6
CONTINUOUS
 62
    7
 10
134.02698204635848
 20
91.821153925678786
 11
133.82698204635849
 21
92.167564087192559
  0
LINE
  8
_1-8_下地など
  6
CONTINUOUS
 62
    7
 10
133.62698204635851
 20
91.821153925678786
 11
134.02698204635848
 21
91.821153925678786
  0
LINE
  8
_1-8_下地など
  6
CONTINUOUS
 62
    7
 10
133.62698204635851
 20
91.821153925678786
 11
133.82698204635849
 21
92.167564087192559
  0
LINE
  8
_1-8_下地など
  6
CONTINUOUS
 62
    7
 10
129.40482379735167
 20
93.112897798274531
 11
129.50482379735166
 21
93.286102879031432
  0
LINE
  8
_1-8_下地など
  6
CONTINUOUS
 62
    7
 10
129.40482379735167
 20
93.112897798274531
 11
129.60482379735166
 21
93.112897798274531
  0
LINE
  8
_1-8_下地など
  6
CONTINUOUS
 62
    7
 10
129.60482379735166
 20
93.112897798274531
 11
129.50482379735166
 21
93.286102879031432
  0
LINE
  8
_1-8_下地など
  6
CONTINUOUS
 62
    7
 10
130.49144814043811
 20
92.528260706852961
 11
130.29144814043812
 21
92.874670868366735
  0
LINE
  8
_1-8_下地など
  6
CONTINUOUS
 62
    7
 10
130.09144814043813
 20
92.528260706852961
 11
130.49144814043811
 21
92.528260706852961
  0
LINE
  8
_1-8_下地など
  6
CONTINUOUS
 62
    7
 10
130.09144814043813
 20
92.528260706852961
 11
130.29144814043812
 21
92.874670868366735
  0
LINE
  8
_1-8_下地など
  6
CONTINUOUS
 62
    7
 10
130.81903735972477
 20
94.527111360647638
 11
130.91903735972477
 21
94.70031644140451
  0
LINE
  8
_1-8_下地など
  6
CONTINUOUS
 62
    7
 10
130.81903735972477
 20
94.527111360647638
 11
131.01903735972476
 21
94.527111360647638
  0
LINE
  8
_1-8_下地など
  6
CONTINUOUS
 62
    7
 10
131.01903735972476
 20
94.527111360647638
 11
130.91903735972477
 21
94.70031644140451
  0
LINE
  8
_1-8_下地など
  6
CONTINUOUS
 62
    7
 10
131.90566170281122
 20
93.942474269226054
 11
131.70566170281123
 21
94.288884430739827
  0
LINE
  8
_1-8_下地など
  6
CONTINUOUS
 62
    7
 10
131.50566170281124
 20
93.942474269226054
 11
131.90566170281122
 21
93.942474269226054
  0
LINE
  8
_1-8_下地など
  6
CONTINUOUS
 62
    7
 10
131.50566170281124
 20
93.942474269226054
 11
131.70566170281123
 21
94.288884430739827
  0
LINE
  8
_1-8_下地など
  6
CONTINUOUS
 62
    7
 10
132.23325092209785
 20
95.941324923020716
 11
132.33325092209785
 21
96.114530003777617
  0
LINE
  8
_1-8_下地など
  6
CONTINUOUS
 62
    7
 10
132.23325092209785
 20
95.941324923020716
 11
132.43325092209784
 21
95.941324923020716
  0
LINE
  8
_1-8_下地など
  6
CONTINUOUS
 62
    7
 10
132.43325092209784
 20
95.941324923020716
 11
132.33325092209785
 21
96.114530003777617
  0
LINE
  8
_1-8_下地など
  6
CONTINUOUS
 62
    7
 10
133.31987526518429
 20
95.356687831599146
 11
133.11987526518431
 21
95.70309799311292
  0
LINE
  8
_1-8_下地など
  6
CONTINUOUS
 62
    7
 10
132.91987526518432
 20
95.356687831599146
 11
133.31987526518429
 21
95.356687831599146
  0
LINE
  8
_1-8_下地など
  6
CONTINUOUS
 62
    7
 10
132.91987526518432
 20
95.356687831599146
 11
133.11987526518431
 21
95.70309799311292
  0
LINE
  8
_1-8_下地など
  6
CONTINUOUS
 62
    7
 10
130.11193057853603
 20
98.062645266582535
 11
130.21193057853603
 21
98.235850347339436
  0
LINE
  8
_1-8_下地など
  6
CONTINUOUS
 62
    7
 10
130.11193057853603
 20
98.062645266582535
 11
130.31193057853602
 21
98.062645266582535
  0
LINE
  8
_1-8_下地など
  6
CONTINUOUS
 62
    7
 10
130.31193057853602
 20
98.062645266582535
 11
130.21193057853603
 21
98.235850347339436
  0
LINE
  8
_1-8_下地など
  6
CONTINUOUS
 62
    7
 10
131.19855492162247
 20
97.478008175160966
 11
130.99855492162249
 21
97.824418336674739
  0
LINE
  8
_1-8_下地など
  6
CONTINUOUS
 62
    7
 10
130.7985549216225
 20
97.478008175160966
 11
131.19855492162247
 21
97.478008175160966
  0
LINE
  8
_1-8_下地など
  6
CONTINUOUS
 62
    7
 10
130.7985549216225
 20
97.478008175160966
 11
130.99855492162249
 21
97.824418336674739
  0
LINE
  8
_1-8_下地など
  6
CONTINUOUS
 62
    7
 10
131.52614414090911
 20
99.476858828955642
 11
131.6261441409091
 21
99.650063909712543
  0
LINE
  8
_1-8_下地など
  6
CONTINUOUS
 62
    7
 10
131.52614414090911
 20
99.476858828955642
 11
131.7261441409091
 21
99.476858828955642
  0
LINE
  8
_1-8_下地など
  6
CONTINUOUS
 62
    7
 10
131.7261441409091
 20
99.476858828955642
 11
131.6261441409091
 21
99.650063909712543
  0
LINE
  8
_1-8_下地など
  6
CONTINUOUS
 62
    7
 10
132.61276848399555
 20
98.892221737534072
 11
132.41276848399556
 21
99.238631899047846
  0
LINE
  8
_1-8_下地など
  6
CONTINUOUS
 62
    7
 10
132.21276848399557
 20
98.892221737534072
 11
132.61276848399555
 21
98.892221737534072
  0
LINE
  8
_1-8_下地など
  6
CONTINUOUS
 62
    7
 10
132.21276848399557
 20
98.892221737534072
 11
132.41276848399556
 21
99.238631899047846
  0
LINE
  8
_1-8_下地など
  6
CONTINUOUS
 62
    7
 10
132.94035770328222
 20
100.89107239132875
 11
133.04035770328221
 21
101.06427747208562
  0
LINE
  8
_1-8_下地など
  6
CONTINUOUS
 62
    7
 10
132.94035770328222
 20
100.89107239132875
 11
133.14035770328221
 21
100.89107239132875
  0
LINE
  8
_1-8_下地など
  6
CONTINUOUS
 62
    7
 10
133.14035770328221
 20
100.89107239132875
 11
133.04035770328221
 21
101.06427747208562
  0
LINE
  8
_1-8_下地など
  6
CONTINUOUS
 62
    7
 10
134.02698204636866
 20
100.30643529990716
 11
133.82698204636867
 21
100.65284546142094
  0
LINE
  8
_1-8_下地など
  6
CONTINUOUS
 62
    7
 10
133.62698204636868
 20
100.30643529990716
 11
134.02698204636866
 21
100.30643529990716
  0
LINE
  8
_1-8_下地など
  6
CONTINUOUS
 62
    7
 10
133.62698204636868
 20
100.30643529990716
 11
133.82698204636867
 21
100.65284546142094
  0
LINE
  8
_1-8_下地など
  6
CONTINUOUS
 62
    7
 10
129.40482379734729
 20
101.59817917251746
 11
129.50482379734729
 21
101.77138425327436
  0
LINE
  8
_1-8_下地など
  6
CONTINUOUS
 62
    7
 10
129.40482379734729
 20
101.59817917251746
 11
129.60482379734728
 21
101.59817917251746
  0
LINE
  8
_1-8_下地など
  6
CONTINUOUS
 62
    7
 10
129.60482379734728
 20
101.59817917251746
 11
129.50482379734729
 21
101.77138425327436
  0
LINE
  8
_1-8_下地など
  6
CONTINUOUS
 62
    7
 10
130.49144814043373
 20
101.01354208109589
 11
130.29144814043374
 21
101.35995224260967
  0
LINE
  8
_1-8_下地など
  6
CONTINUOUS
 62
    7
 10
130.09144814043376
 20
101.01354208109589
 11
130.49144814043373
 21
101.01354208109589
  0
LINE
  8
_1-8_下地など
  6
CONTINUOUS
 62
    7
 10
130.09144814043376
 20
101.01354208109589
 11
130.29144814043374
 21
101.35995224260967
  0
LINE
  8
_1-8_下地など
  6
CONTINUOUS
 62
    7
 10
130.8190373597204
 20
103.01239273489057
 11
130.91903735972039
 21
103.18559781564744
  0
LINE
  8
_1-8_下地など
  6
CONTINUOUS
 62
    7
 10
130.8190373597204
 20
103.01239273489057
 11
131.01903735972039
 21
103.01239273489057
  0
LINE
  8
_1-8_下地など
  6
CONTINUOUS
 62
    7
 10
131.01903735972039
 20
103.01239273489057
 11
130.91903735972039
 21
103.18559781564744
  0
LINE
  8
_1-8_下地など
  6
CONTINUOUS
 62
    7
 10
131.90566170280684
 20
102.42775564346898
 11
131.70566170280685
 21
102.77416580498276
  0
LINE
  8
_1-8_下地など
  6
CONTINUOUS
 62
    7
 10
131.50566170280686
 20
102.42775564346898
 11
131.90566170280684
 21
102.42775564346898
  0
LINE
  8
_1-8_下地など
  6
CONTINUOUS
 62
    7
 10
131.50566170280686
 20
102.42775564346898
 11
131.70566170280685
 21
102.77416580498276
  0
LINE
  8
_1-8_下地など
  6
CONTINUOUS
 62
    7
 10
132.2332509220935
 20
104.42660629726365
 11
132.3332509220935
 21
104.59981137802055
  0
LINE
  8
_1-8_下地など
  6
CONTINUOUS
 62
    7
 10
132.2332509220935
 20
104.42660629726365
 11
132.43325092209349
 21
104.42660629726365
  0
LINE
  8
_1-8_下地など
  6
CONTINUOUS
 62
    7
 10
132.43325092209349
 20
104.42660629726365
 11
132.3332509220935
 21
104.59981137802055
  0
LINE
  8
_1-8_下地など
  6
CONTINUOUS
 62
    7
 10
133.31987526517995
 20
103.84196920584208
 11
133.11987526517996
 21
104.18837936735585
  0
LINE
  8
_1-8_下地など
  6
CONTINUOUS
 62
    7
 10
132.91987526517997
 20
103.84196920584208
 11
133.31987526517995
 21
103.84196920584208
  0
LINE
  8
_1-8_下地など
  6
CONTINUOUS
 62
    7
 10
132.91987526517997
 20
103.84196920584208
 11
133.11987526517996
 21
104.18837936735585
  0
LINE
  8
_1-8_下地など
  6
CONTINUOUS
 62
    7
 10
130.11193057853168
 20
106.54792664082547
 11
130.21193057853168
 21
106.72113172158237
  0
LINE
  8
_1-8_下地など
  6
CONTINUOUS
 62
    7
 10
130.11193057853168
 20
106.54792664082547
 11
130.31193057853167
 21
106.54792664082547
  0
LINE
  8
_1-8_下地など
  6
CONTINUOUS
 62
    7
 10
130.31193057853167
 20
106.54792664082547
 11
130.21193057853168
 21
106.72113172158237
  0
LINE
  8
_1-8_下地など
  6
CONTINUOUS
 62
    7
 10
131.19855492161813
 20
105.9632895494039
 11
130.99855492161814
 21
106.30969971091767
  0
LINE
  8
_1-8_下地など
  6
CONTINUOUS
 62
    7
 10
130.79855492161815
 20
105.9632895494039
 11
131.19855492161813
 21
105.9632895494039
  0
LINE
  8
_1-8_下地など
  6
CONTINUOUS
 62
    7
 10
130.79855492161815
 20
105.9632895494039
 11
130.99855492161814
 21
106.30969971091767
  0
LINE
  8
_1-8_下地など
  6
CONTINUOUS
 62
    7
 10
131.52614414090479
 20
107.96214020319857
 11
131.62614414090478
 21
108.13534528395544
  0
LINE
  8
_1-8_下地など
  6
CONTINUOUS
 62
    7
 10
131.52614414090479
 20
107.96214020319857
 11
131.72614414090478
 21
107.96214020319857
  0
LINE
  8
_1-8_下地など
  6
CONTINUOUS
 62
    7
 10
131.72614414090478
 20
107.96214020319857
 11
131.62614414090478
 21
108.13534528395544
  0
LINE
  8
_1-8_下地など
  6
CONTINUOUS
 62
    7
 10
132.61276848399123
 20
107.37750311177699
 11
132.41276848399124
 21
107.72391327329076
  0
LINE
  8
_1-8_下地など
  6
CONTINUOUS
 62
    7
 10
132.21276848399125
 20
107.37750311177699
 11
132.61276848399123
 21
107.37750311177699
  0
LINE
  8
_1-8_下地など
  6
CONTINUOUS
 62
    7
 10
132.21276848399125
 20
107.37750311177699
 11
132.41276848399124
 21
107.72391327329076
  0
LINE
  8
_1-8_下地など
  6
CONTINUOUS
 62
    7
 10
132.94035770327787
 20
109.37635376557165
 11
133.04035770327786
 21
109.54955884632855
  0
LINE
  8
_1-8_下地など
  6
CONTINUOUS
 62
    7
 10
132.94035770327787
 20
109.37635376557165
 11
133.14035770327786
 21
109.37635376557165
  0
LINE
  8
_1-8_下地など
  6
CONTINUOUS
 62
    7
 10
133.14035770327786
 20
109.37635376557165
 11
133.04035770327786
 21
109.54955884632855
  0
LINE
  8
_1-8_下地など
  6
CONTINUOUS
 62
    7
 10
134.02698204636431
 20
108.79171667415008
 11
133.82698204636432
 21
109.13812683566385
  0
LINE
  8
_1-8_下地など
  6
CONTINUOUS
 62
    7
 10
133.62698204636433
 20
108.79171667415008
 11
134.02698204636431
 21
108.79171667415008
  0
LINE
  8
_1-8_下地など
  6
CONTINUOUS
 62
    7
 10
133.62698204636433
 20
108.79171667415008
 11
133.82698204636432
 21
109.13812683566385
  0
LINE
  8
_1-8_下地など
  6
CONTINUOUS
 62
    7
 10
129.40482379734297
 20
110.08346054676039
 11
129.50482379734297
 21
110.25666562751726
  0
LINE
  8
_1-8_下地など
  6
CONTINUOUS
 62
    7
 10
129.40482379734297
 20
110.08346054676039
 11
129.60482379734296
 21
110.08346054676039
  0
LINE
  8
_1-8_下地など
  6
CONTINUOUS
 62
    7
 10
129.60482379734296
 20
110.08346054676039
 11
129.50482379734297
 21
110.25666562751726
  0
LINE
  8
_1-8_下地など
  6
CONTINUOUS
 62
    7
 10
130.49144814042941
 20
109.49882345533881
 11
130.29144814042942
 21
109.84523361685258
  0
LINE
  8
_1-8_下地など
  6
CONTINUOUS
 62
    7
 10
130.09144814042943
 20
109.49882345533881
 11
130.49144814042941
 21
109.49882345533881
  0
LINE
  8
_1-8_下地など
  6
CONTINUOUS
 62
    7
 10
130.09144814042943
 20
109.49882345533881
 11
130.29144814042942
 21
109.84523361685258
  0
LINE
  8
_1-8_下地など
  6
CONTINUOUS
 62
    7
 10
130.81903735971605
 20
111.49767410913347
 11
130.91903735971604
 21
111.67087918989037
  0
LINE
  8
_1-8_下地など
  6
CONTINUOUS
 62
    7
 10
130.81903735971605
 20
111.49767410913347
 11
131.01903735971604
 21
111.49767410913347
  0
LINE
  8
_1-8_下地など
  6
CONTINUOUS
 62
    7
 10
131.01903735971604
 20
111.49767410913347
 11
130.91903735971604
 21
111.67087918989037
  0
LINE
  8
_1-8_下地など
  6
CONTINUOUS
 62
    7
 10
131.90566170280249
 20
110.9130370177119
 11
131.7056617028025
 21
111.25944717922567
  0
LINE
  8
_1-8_下地など
  6
CONTINUOUS
 62
    7
 10
131.50566170280251
 20
110.9130370177119
 11
131.90566170280249
 21
110.9130370177119
  0
LINE
  8
_1-8_下地など
  6
CONTINUOUS
 62
    7
 10
131.50566170280251
 20
110.9130370177119
 11
131.7056617028025
 21
111.25944717922567
  0
LINE
  8
_1-8_下地など
  6
CONTINUOUS
 62
    7
 10
132.23325092208913
 20
112.91188767150658
 11
132.33325092208912
 21
113.08509275226348
  0
LINE
  8
_1-8_下地など
  6
CONTINUOUS
 62
    7
 10
132.23325092208913
 20
112.91188767150658
 11
132.43325092208912
 21
112.91188767150658
  0
LINE
  8
_1-8_下地など
  6
CONTINUOUS
 62
    7
 10
132.43325092208912
 20
112.91188767150658
 11
132.33325092208912
 21
113.08509275226348
  0
LINE
  8
_1-8_下地など
  6
CONTINUOUS
 62
    7
 10
133.31987526517557
 20
112.32725058008501
 11
133.11987526517558
 21
112.67366074159878
  0
LINE
  8
_1-8_下地など
  6
CONTINUOUS
 62
    7
 10
132.91987526517559
 20
112.32725058008501
 11
133.31987526517557
 21
112.32725058008501
  0
LINE
  8
_1-8_下地など
  6
CONTINUOUS
 62
    7
 10
132.91987526517559
 20
112.32725058008501
 11
133.11987526517558
 21
112.67366074159878
  0
LINE
  8
_1-8_下地など
  6
CONTINUOUS
 62
    7
 10
130.11193057852731
 20
115.0332080150684
 11
130.2119305785273
 21
115.2064130958253
  0
LINE
  8
_1-8_下地など
  6
CONTINUOUS
 62
    7
 10
130.11193057852731
 20
115.0332080150684
 11
130.3119305785273
 21
115.0332080150684
  0
LINE
  8
_1-8_下地など
  6
CONTINUOUS
 62
    7
 10
130.3119305785273
 20
115.0332080150684
 11
130.2119305785273
 21
115.2064130958253
  0
LINE
  8
_1-8_下地など
  6
CONTINUOUS
 62
    7
 10
131.19855492161375
 20
114.44857092364683
 11
130.99855492161376
 21
114.7949810851606
  0
LINE
  8
_1-8_下地など
  6
CONTINUOUS
 62
    7
 10
130.79855492161377
 20
114.44857092364683
 11
131.19855492161375
 21
114.44857092364683
  0
LINE
  8
_1-8_下地など
  6
CONTINUOUS
 62
    7
 10
130.79855492161377
 20
114.44857092364683
 11
130.99855492161376
 21
114.7949810851606
  0
LINE
  8
_1-8_下地など
  6
CONTINUOUS
 62
    7
 10
131.52614414090041
 20
116.4474215774415
 11
131.62614414090041
 21
116.62062665819838
  0
LINE
  8
_1-8_下地など
  6
CONTINUOUS
 62
    7
 10
131.52614414090041
 20
116.4474215774415
 11
131.7261441409004
 21
116.4474215774415
  0
LINE
  8
_1-8_下地など
  6
CONTINUOUS
 62
    7
 10
131.7261441409004
 20
116.4474215774415
 11
131.62614414090041
 21
116.62062665819838
  0
LINE
  8
_1-8_下地など
  6
CONTINUOUS
 62
    7
 10
132.61276848398686
 20
115.86278448601992
 11
132.41276848398687
 21
116.20919464753369
  0
LINE
  8
_1-8_下地など
  6
CONTINUOUS
 62
    7
 10
132.21276848398688
 20
115.86278448601992
 11
132.61276848398686
 21
115.86278448601992
  0
LINE
  8
_1-8_下地など
  6
CONTINUOUS
 62
    7
 10
132.21276848398688
 20
115.86278448601992
 11
132.41276848398687
 21
116.20919464753369
  0
LINE
  8
_1-8_下地など
  6
CONTINUOUS
 62
    7
 10
132.94035770327352
 20
117.86163513981458
 11
133.04035770327351
 21
118.03484022057148
  0
LINE
  8
_1-8_下地など
  6
CONTINUOUS
 62
    7
 10
132.94035770327352
 20
117.86163513981458
 11
133.14035770327351
 21
117.86163513981458
  0
LINE
  8
_1-8_下地など
  6
CONTINUOUS
 62
    7
 10
133.14035770327351
 20
117.86163513981458
 11
133.04035770327351
 21
118.03484022057148
  0
LINE
  8
_1-8_下地など
  6
CONTINUOUS
 62
    7
 10
134.02698204635996
 20
117.27699804839301
 11
133.82698204635997
 21
117.62340820990678
  0
LINE
  8
_1-8_下地など
  6
CONTINUOUS
 62
    7
 10
133.62698204635998
 20
117.27699804839301
 11
134.02698204635996
 21
117.27699804839301
  0
LINE
  8
_1-8_下地など
  6
CONTINUOUS
 62
    7
 10
133.62698204635998
 20
117.27699804839301
 11
133.82698204635997
 21
117.62340820990678
  0
LINE
  8
_1-8_下地など
  6
CONTINUOUS
 62
    7
 10
129.40482379735315
 20
118.56874192098877
 11
129.50482379735314
 21
118.74194700174564
  0
LINE
  8
_1-8_下地など
  6
CONTINUOUS
 62
    7
 10
129.40482379735315
 20
118.56874192098877
 11
129.60482379735313
 21
118.56874192098877
  0
LINE
  8
_1-8_下地など
  6
CONTINUOUS
 62
    7
 10
129.60482379735313
 20
118.56874192098877
 11
129.50482379735314
 21
118.74194700174564
  0
LINE
  8
_1-8_下地など
  6
CONTINUOUS
 62
    7
 10
130.49144814043959
 20
117.98410482956719
 11
130.2914481404396
 21
118.33051499108096
  0
LINE
  8
_1-8_下地など
  6
CONTINUOUS
 62
    7
 10
130.09144814043961
 20
117.98410482956719
 11
130.49144814043959
 21
117.98410482956719
  0
LINE
  8
_1-8_下地など
  6
CONTINUOUS
 62
    7
 10
130.09144814043961
 20
117.98410482956719
 11
130.2914481404396
 21
118.33051499108096
  0
LINE
  8
_1-8_下地など
  6
CONTINUOUS
 62
    7
 10
130.81903735972625
 20
119.98295548336185
 11
130.91903735972625
 21
120.15616056411875
  0
LINE
  8
_1-8_下地など
  6
CONTINUOUS
 62
    7
 10
130.81903735972625
 20
119.98295548336185
 11
131.01903735972624
 21
119.98295548336185
  0
LINE
  8
_1-8_下地など
  6
CONTINUOUS
 62
    7
 10
131.01903735972624
 20
119.98295548336185
 11
130.91903735972625
 21
120.15616056411875
  0
LINE
  8
_1-8_下地など
  6
CONTINUOUS
 62
    7
 10
131.90566170281269
 20
119.39831839194028
 11
131.70566170281271
 21
119.74472855345405
  0
LINE
  8
_1-8_下地など
  6
CONTINUOUS
 62
    7
 10
131.50566170281272
 20
119.39831839194028
 11
131.90566170281269
 21
119.39831839194028
  0
LINE
  8
_1-8_下地など
  6
CONTINUOUS
 62
    7
 10
131.50566170281272
 20
119.39831839194028
 11
131.70566170281271
 21
119.74472855345405
  0
LINE
  8
_1-8_下地など
  6
CONTINUOUS
 62
    7
 10
132.23325092209936
 20
121.39716904573496
 11
132.33325092209935
 21
121.57037412649183
  0
LINE
  8
_1-8_下地など
  6
CONTINUOUS
 62
    7
 10
132.23325092209936
 20
121.39716904573496
 11
132.43325092209935
 21
121.39716904573496
  0
LINE
  8
_1-8_下地など
  6
CONTINUOUS
 62
    7
 10
132.43325092209935
 20
121.39716904573496
 11
132.33325092209935
 21
121.57037412649183
  0
LINE
  8
_1-8_下地など
  6
CONTINUOUS
 62
    7
 10
133.3198752651858
 20
120.81253195431337
 11
133.11987526518581
 21
121.15894211582714
  0
LINE
  8
_1-8_下地など
  6
CONTINUOUS
 62
    7
 10
132.91987526518582
 20
120.81253195431337
 11
133.3198752651858
 21
120.81253195431337
  0
LINE
  8
_1-8_下地など
  6
CONTINUOUS
 62
    7
 10
132.91987526518582
 20
120.81253195431337
 11
133.11987526518581
 21
121.15894211582714
  0
LINE
  8
_1-8_下地など
  6
CONTINUOUS
 62
    7
 10
130.11193057853754
 20
123.51848938929678
 11
130.21193057853753
 21
123.69169447005365
  0
LINE
  8
_1-8_下地など
  6
CONTINUOUS
 62
    7
 10
130.11193057853754
 20
123.51848938929678
 11
130.31193057853753
 21
123.51848938929678
  0
LINE
  8
_1-8_下地など
  6
CONTINUOUS
 62
    7
 10
130.31193057853753
 20
123.51848938929678
 11
130.21193057853753
 21
123.69169447005365
  0
LINE
  8
_1-8_下地など
  6
CONTINUOUS
 62
    7
 10
131.19855492162398
 20
122.93385229787519
 11
130.99855492162399
 21
123.28026245938896
  0
LINE
  8
_1-8_下地など
  6
CONTINUOUS
 62
    7
 10
130.798554921624
 20
122.93385229787519
 11
131.19855492162398
 21
122.93385229787519
  0
LINE
  8
_1-8_下地など
  6
CONTINUOUS
 62
    7
 10
130.798554921624
 20
122.93385229787519
 11
130.99855492162399
 21
123.28026245938896
  0
LINE
  8
_1-8_下地など
  6
CONTINUOUS
 62
    7
 10
131.52614414091062
 20
124.93270295166985
 11
131.62614414091061
 21
125.10590803242675
  0
LINE
  8
_1-8_下地など
  6
CONTINUOUS
 62
    7
 10
131.52614414091062
 20
124.93270295166985
 11
131.72614414091061
 21
124.93270295166985
  0
LINE
  8
_1-8_下地など
  6
CONTINUOUS
 62
    7
 10
131.72614414091061
 20
124.93270295166985
 11
131.62614414091061
 21
125.10590803242675
  0
LINE
  8
_1-8_下地など
  6
CONTINUOUS
 62
    7
 10
132.61276848399706
 20
124.34806586024828
 11
132.41276848399707
 21
124.69447602176206
  0
LINE
  8
_1-8_下地など
  6
CONTINUOUS
 62
    7
 10
132.21276848399708
 20
124.34806586024828
 11
132.61276848399706
 21
124.34806586024828
  0
LINE
  8
_1-8_下地など
  6
CONTINUOUS
 62
    7
 10
132.21276848399708
 20
124.34806586024828
 11
132.41276848399707
 21
124.69447602176206
  0
LINE
  8
_1-8_下地など
  6
CONTINUOUS
 62
    7
 10
132.94035770328369
 20
126.34691651404296
 11
133.04035770328369
 21
126.52012159479983
  0
LINE
  8
_1-8_下地など
  6
CONTINUOUS
 62
    7
 10
132.94035770328369
 20
126.34691651404296
 11
133.14035770328368
 21
126.34691651404296
  0
LINE
  8
_1-8_下地など
  6
CONTINUOUS
 62
    7
 10
133.14035770328368
 20
126.34691651404296
 11
133.04035770328369
 21
126.52012159479983
  0
LINE
  8
_1-8_下地など
  6
CONTINUOUS
 62
    7
 10
134.02698204637014
 20
125.76227942262138
 11
133.82698204637015
 21
126.10868958413515
  0
LINE
  8
_1-8_下地など
  6
CONTINUOUS
 62
    7
 10
133.62698204637016
 20
125.76227942262138
 11
134.02698204637014
 21
125.76227942262138
  0
LINE
  8
_1-8_下地など
  6
CONTINUOUS
 62
    7
 10
133.62698204637016
 20
125.76227942262138
 11
133.82698204637015
 21
126.10868958413515
  0
LINE
  8
_1-8_下地など
  6
CONTINUOUS
 62
    7
 10
129.4048237973488
 20
127.05402329523167
 11
129.50482379734879
 21
127.22722837598857
  0
LINE
  8
_1-8_下地など
  6
CONTINUOUS
 62
    7
 10
129.4048237973488
 20
127.05402329523167
 11
129.60482379734879
 21
127.05402329523167
  0
LINE
  8
_1-8_下地など
  6
CONTINUOUS
 62
    7
 10
129.60482379734879
 20
127.05402329523167
 11
129.50482379734879
 21
127.22722837598857
  0
LINE
  8
_1-8_下地など
  6
CONTINUOUS
 62
    7
 10
130.49144814043524
 20
126.4693862038101
 11
130.29144814043525
 21
126.81579636532388
  0
LINE
  8
_1-8_下地など
  6
CONTINUOUS
 62
    7
 10
130.09144814043526
 20
126.4693862038101
 11
130.49144814043524
 21
126.4693862038101
  0
LINE
  8
_1-8_下地など
  6
CONTINUOUS
 62
    7
 10
130.09144814043526
 20
126.4693862038101
 11
130.29144814043525
 21
126.81579636532388
  0
LINE
  8
_1-8_下地など
  6
CONTINUOUS
 62
    7
 10
130.81903735972188
 20
128.46823685760478
 11
130.91903735972187
 21
128.64144193836165
  0
LINE
  8
_1-8_下地など
  6
CONTINUOUS
 62
    7
 10
130.81903735972188
 20
128.46823685760478
 11
131.01903735972186
 21
128.46823685760478
  0
LINE
  8
_1-8_下地など
  6
CONTINUOUS
 62
    7
 10
131.01903735972186
 20
128.46823685760478
 11
130.91903735972187
 21
128.64144193836165
  0
LINE
  8
_1-8_下地など
  6
CONTINUOUS
 62
    7
 10
131.90566170280832
 20
127.8835997661832
 11
131.70566170280833
 21
128.23000992769698
  0
LINE
  8
_1-8_下地など
  6
CONTINUOUS
 62
    7
 10
131.50566170280834
 20
127.8835997661832
 11
131.90566170280832
 21
127.8835997661832
  0
LINE
  8
_1-8_下地など
  6
CONTINUOUS
 62
    7
 10
131.50566170280834
 20
127.8835997661832
 11
131.70566170280833
 21
128.23000992769698
  0
LINE
  8
_1-8_下地など
  6
CONTINUOUS
 62
    7
 10
132.23325092209498
 20
129.88245041997789
 11
132.33325092209498
 21
130.05565550073476
  0
LINE
  8
_1-8_下地など
  6
CONTINUOUS
 62
    7
 10
132.23325092209498
 20
129.88245041997789
 11
132.43325092209497
 21
129.88245041997789
  0
LINE
  8
_1-8_下地など
  6
CONTINUOUS
 62
    7
 10
132.43325092209497
 20
129.88245041997789
 11
132.33325092209498
 21
130.05565550073476
  0
LINE
  8
_1-8_下地など
  6
CONTINUOUS
 62
    7
 10
133.31987526518142
 20
129.29781332855632
 11
133.11987526518143
 21
129.64422349007009
  0
LINE
  8
_1-8_下地など
  6
CONTINUOUS
 62
    7
 10
132.91987526518145
 20
129.29781332855632
 11
133.31987526518142
 21
129.29781332855632
  0
LINE
  8
_1-8_下地など
  6
CONTINUOUS
 62
    7
 10
132.91987526518145
 20
129.29781332855632
 11
133.11987526518143
 21
129.64422349007009
  0
LINE
  8
_1-8_下地など
  6
CONTINUOUS
 62
    7
 10
130.11193057853316
 20
132.00377076353971
 11
130.21193057853316
 21
132.17697584429658
  0
LINE
  8
_1-8_下地など
  6
CONTINUOUS
 62
    7
 10
130.11193057853316
 20
132.00377076353971
 11
130.31193057853315
 21
132.00377076353971
  0
LINE
  8
_1-8_下地など
  6
CONTINUOUS
 62
    7
 10
130.31193057853315
 20
132.00377076353971
 11
130.21193057853316
 21
132.17697584429658
  0
LINE
  8
_1-8_下地など
  6
CONTINUOUS
 62
    7
 10
131.1985549216196
 20
131.41913367211814
 11
130.99855492161961
 21
131.76554383363191
  0
LINE
  8
_1-8_下地など
  6
CONTINUOUS
 62
    7
 10
130.79855492161963
 20
131.41913367211814
 11
131.1985549216196
 21
131.41913367211814
  0
LINE
  8
_1-8_下地など
  6
CONTINUOUS
 62
    7
 10
130.79855492161963
 20
131.41913367211814
 11
130.99855492161961
 21
131.76554383363191
  0
LINE
  8
_1-8_下地など
  6
CONTINUOUS
 62
    7
 10
131.52614414090627
 20
133.41798432591278
 11
131.62614414090626
 21
133.59118940666968
  0
LINE
  8
_1-8_下地など
  6
CONTINUOUS
 62
    7
 10
131.52614414090627
 20
133.41798432591278
 11
131.72614414090626
 21
133.41798432591278
  0
LINE
  8
_1-8_下地など
  6
CONTINUOUS
 62
    7
 10
131.72614414090626
 20
133.41798432591278
 11
131.62614414090626
 21
133.59118940666968
  0
LINE
  8
_1-8_下地など
  6
CONTINUOUS
 62
    7
 10
132.61276848399271
 20
132.83334723449121
 11
132.41276848399272
 21
133.17975739600499
  0
LINE
  8
_1-8_下地など
  6
CONTINUOUS
 62
    7
 10
132.21276848399273
 20
132.83334723449121
 11
132.61276848399271
 21
132.83334723449121
  0
LINE
  8
_1-8_下地など
  6
CONTINUOUS
 62
    7
 10
132.21276848399273
 20
132.83334723449121
 11
132.41276848399272
 21
133.17975739600499
  0
LINE
  8
_1-8_下地など
  6
CONTINUOUS
 62
    7
 10
132.94035770327937
 20
134.83219788828589
 11
133.04035770327937
 21
135.00540296904276
  0
LINE
  8
_1-8_下地など
  6
CONTINUOUS
 62
    7
 10
132.94035770327937
 20
134.83219788828589
 11
133.14035770327936
 21
134.83219788828589
  0
LINE
  8
_1-8_下地など
  6
CONTINUOUS
 62
    7
 10
133.14035770327936
 20
134.83219788828589
 11
133.04035770327937
 21
135.00540296904276
  0
LINE
  8
_1-8_下地など
  6
CONTINUOUS
 62
    7
 10
134.02698204636582
 20
134.24756079686432
 11
133.82698204636583
 21
134.59397095837809
  0
LINE
  8
_1-8_下地など
  6
CONTINUOUS
 62
    7
 10
133.62698204636584
 20
134.24756079686432
 11
134.02698204636582
 21
134.24756079686432
  0
LINE
  8
_1-8_下地など
  6
CONTINUOUS
 62
    7
 10
133.62698204636584
 20
134.24756079686432
 11
133.82698204636583
 21
134.59397095837809
  0
LINE
  8
_1-8_下地など
  6
CONTINUOUS
 62
    7
 10
129.40482379734445
 20
135.5393046694746
 11
129.50482379734444
 21
135.7125097502315
  0
LINE
  8
_1-8_下地など
  6
CONTINUOUS
 62
    7
 10
129.40482379734445
 20
135.5393046694746
 11
129.60482379734444
 21
135.5393046694746
  0
LINE
  8
_1-8_下地など
  6
CONTINUOUS
 62
    7
 10
129.60482379734444
 20
135.5393046694746
 11
129.50482379734444
 21
135.7125097502315
  0
LINE
  8
_1-8_下地など
  6
CONTINUOUS
 62
    7
 10
130.49144814043089
 20
134.95466757805303
 11
130.2914481404309
 21
135.30107773956681
  0
LINE
  8
_1-8_下地など
  6
CONTINUOUS
 62
    7
 10
130.09144814043091
 20
134.95466757805303
 11
130.49144814043089
 21
134.95466757805303
  0
LINE
  8
_1-8_下地など
  6
CONTINUOUS
 62
    7
 10
130.09144814043091
 20
134.95466757805303
 11
130.2914481404309
 21
135.30107773956681
  0
LINE
  8
_1-8_下地など
  6
CONTINUOUS
 62
    7
 10
130.81903735971756
 20
136.95351823184771
 11
130.91903735971755
 21
137.12672331260458
  0
LINE
  8
_1-8_下地など
  6
CONTINUOUS
 62
    7
 10
130.81903735971756
 20
136.95351823184771
 11
131.01903735971754
 21
136.95351823184771
  0
LINE
  8
_1-8_下地など
  6
CONTINUOUS
 62
    7
 10
131.01903735971754
 20
136.95351823184771
 11
130.91903735971755
 21
137.12672331260458
  0
LINE
  8
_1-8_下地など
  6
CONTINUOUS
 62
    7
 10
131.905661702804
 20
136.36888114042614
 11
131.70566170280401
 21
136.71529130193991
  0
LINE
  8
_1-8_下地など
  6
CONTINUOUS
 62
    7
 10
131.50566170280402
 20
136.36888114042614
 11
131.905661702804
 21
136.36888114042614
  0
LINE
  8
_1-8_下地など
  6
CONTINUOUS
 62
    7
 10
131.50566170280402
 20
136.36888114042614
 11
131.70566170280401
 21
136.71529130193991
  0
LINE
  8
_1-8_下地など
  6
CONTINUOUS
 62
    7
 10
132.23325092209063
 20
138.36773179422079
 11
132.33325092209063
 21
138.54093687497769
  0
LINE
  8
_1-8_下地など
  6
CONTINUOUS
 62
    7
 10
132.23325092209063
 20
138.36773179422079
 11
132.43325092209062
 21
138.36773179422079
  0
LINE
  8
_1-8_下地など
  6
CONTINUOUS
 62
    7
 10
132.43325092209062
 20
138.36773179422079
 11
132.33325092209063
 21
138.54093687497769
  0
LINE
  8
_1-8_下地など
  6
CONTINUOUS
 62
    7
 10
133.31987526517707
 20
137.78309470279922
 11
133.11987526517709
 21
138.12950486431299
  0
LINE
  8
_1-8_下地など
  6
CONTINUOUS
 62
    7
 10
132.9198752651771
 20
137.78309470279922
 11
133.31987526517707
 21
137.78309470279922
  0
LINE
  8
_1-8_下地など
  6
CONTINUOUS
 62
    7
 10
132.9198752651771
 20
137.78309470279922
 11
133.11987526517709
 21
138.12950486431299
  0
LINE
  8
_1-8_下地など
  6
CONTINUOUS
 62
    7
 10
130.11193057852881
 20
140.48905213778261
 11
130.21193057852881
 21
140.66225721853951
  0
LINE
  8
_1-8_下地など
  6
CONTINUOUS
 62
    7
 10
130.11193057852881
 20
140.48905213778261
 11
130.3119305785288
 21
140.48905213778261
  0
LINE
  8
_1-8_下地など
  6
CONTINUOUS
 62
    7
 10
130.3119305785288
 20
140.48905213778261
 11
130.21193057852881
 21
140.66225721853951
  0
LINE
  8
_1-8_下地など
  6
CONTINUOUS
 62
    7
 10
131.19855492161525
 20
139.90441504636104
 11
130.99855492161527
 21
140.25082520787481
  0
LINE
  8
_1-8_下地など
  6
CONTINUOUS
 62
    7
 10
130.79855492161528
 20
139.90441504636104
 11
131.19855492161525
 21
139.90441504636104
  0
LINE
  8
_1-8_下地など
  6
CONTINUOUS
 62
    7
 10
130.79855492161528
 20
139.90441504636104
 11
130.99855492161527
 21
140.25082520787481
  0
TEXT
  8
_e-e_
 62
    7
 10
188.48924513437839
 20
86.568088725455084
 40
4
 41
1
 50
0
  1
リベットルーフ
  0
LINE
  8
_e-e_
  6
CONTINUOUS
 62
    7
 10
183.48924513437839
 20
88.568088725455084
 11
188.48924513437839
 21
88.568088725455084
  0
LINE
  8
_e-e_
  6
CONTINUOUS
 62
    7
 10
183.48924513437839
 20
88.568088725455084
 11
173.45197966825071
 21
71.183034969065488
  0
LINE
  8
_e-e_
  6
CONTINUOUS
 62
    7
 10
147.11343855655502
 20
140.05927849614113
 11
152.11343855655502
 21
140.05927849614113
  0
TEXT
  8
_e-e_
 62
    7
 10
152.11343855655502
 20
138.05927849614113
 40
4
 41
1
 50
0
  1
リベットルーフ
  0
LINE
  8
_e-e_
  6
CONTINUOUS
 62
    7
 10
144.22668721060688
 20
135.0592784961411
 11
149.22668721060688
 21
135.0592784961411
  0
TEXT
  8
_e-e_
 62
    7
 10
149.22668721060688
 20
133.0592784961411
 40
4
 41
1
 50
0
  1
ＡＹボンド５８０ＮＦ
  0
LINE
  8
_e-e_
  6
CONTINUOUS
 62
    7
 10
141.33993586465874
 20
130.0592784961411
 11
146.33993586465874
 21
130.0592784961411
  0
TEXT
  8
_e-e_
 62
    7
 10
146.33993586465874
 20
128.0592784961411
 40
4
 41
1
 50
0
  1
モルタル詰め
  0
LINE
  8
_e-e_
  6
CONTINUOUS
 62
    7
 10
147.11343855655502
 20
140.05927849614113
 11
131.77468498230473
 21
113.49177798076093
  0
INSERT
  2
-000-
  8
_1-d_設備②
 10
92.080069321365841
 20
171.61072195027043
 41
0.6
 42
0.6
 50
-2.673
  0
TEXT
  8
_e-e_
 62
    7
 10
106.86524631368277
 20
185.57194908834319
 40
4
 41
1
 50
0
  1
ＡＹビスキャップ
  0
TEXT
  8
_e-e_
 62
    7
 10
107.67736752580402
 20
178.11740363379772
 40
4
 41
1
 50
0
  1
ＹＫ押え金物ＳＬ－１
  0
ENDSEC
  0
EOF
