  0
SECTION
  2
HEADER
  9
$ACADVER
  1
AC1009
  9
$INSBASE
 10
0
 20
0
 30
0
  9
$EXTMIN
 10
0
 20
0
  9
$EXTMAX
 10
2970
 20
2100
  9
$LIMMIN
 10
0
 20
0
  9
$LIMMAX
 10
2970
 20
2100
  9
$LTSCALE
 40
10
  0
ENDSEC
  0
SECTION
  2
TABLES
  0
TABLE
  2
LTYPE
 70
     9
  0
LTYPE
  2
CONTINUOUS
 70
    64
  3
実線
 72
    65
 73
     0
 40
0.0
  0
LTYPE
  2
DASHED1
 70
    64
  3
--  --  --  --  --  --  --  --  
 72
    65
 73
     2
 40
2.5
 49
1.25
 49
-1.25
  0
LTYPE
  2
DASHED2
 70
    64
  3
----    ----    ----    ----    
 72
    65
 73
     2
 40
5.0
 49
2.5
 49
-2.5
  0
LTYPE
  2
DASHED3
 70
    64
  3
------  ------  ------  ------  
 72
    65
 73
     2
 40
5.0
 49
3.75
 49
-1.25
  0
LTYPE
  2
CENTER1
 70
    64
  3
----- - ----- - ----- - ----- - 
 72
    65
 73
     4
 40
10.0
 49
6.25
 49
-1.25
 49
1.25
 49
-1.25
  0
LTYPE
  2
CENTER2
 70
    64
  3
----------  --  ----------  --  
 72
    65
 73
     4
 40
20.0
 49
12.5
 49
-2.5
 49
2.5
 49
-2.5
  0
LTYPE
  2
PHANTOM1
 70
    64
  3
--- - - --- - - --- - - --- - - 
 72
    65
 73
     6
 40
10.0
 49
3.25
 49
-1.25
 49
1.25
 49
-1.25
 49
1.25
 49
-1.25
  0
LTYPE
  2
PHANTOM2
 70
    64
  3
--------  -  -  --------  -  -  
 72
    65
 73
     6
 40
20.0
 49
10.0
 49
-2.5
 49
1.25
 49
-2.5
 49
1.25
 49
-2.5
  0
LTYPE
  2
DOT
 70
    64
  3
-   -   -   -   -   -   -   -   
 72
    65
 73
     2
 40
2.5
 49
0.625
 49
-1.875
  0
LTYPE
  2
DUMMY
 70
    64
  3
ダミー
 72
    65
 73
     0
 40
0.0
  0
LTYPE
  2
RAND1
 70
    64
  3
ランダム線1
 72
    65
 73
     4
 40
10.0
 49
1.0
 49
-2.0
 49
3.0
 49
-4.0
  0
LTYPE
  2
RAND2
 70
    64
  3
ランダム線2
 72
    65
 73
     4
 40
14.0
 49
2.0
 49
-3.0
 49
4.0
 49
-5.0
  0
LTYPE
  2
RAND3
 70
    64
  3
ランダム線3
 72
    65
 73
     4
 40
18.0
 49
3.0
 49
-4.0
 49
5.0
 49
-6.0
  0
LTYPE
  2
RAND4
 70
    64
  3
ランダム線4
 72
    65
 73
     4
 40
22.0
 49
4.0
 49
-5.0
 49
6.0
 49
-7.0
  0
LTYPE
  2
RAND5
 70
    64
  3
ランダム線5
 72
    65
 73
     4
 40
26.0
 49
5.0
 49
-6.0
 49
7.0
 49
-8.0
  0
LTYPE
  2
LONG1
 70
    64
  3
----------  --  ----------  --  
 72
    65
 73
     4
 40
40.0
 49
32.5
 49
-2.5
 49
2.5
 49
-2.5
  0
LTYPE
  2
LONG2
 70
    64
  3
--------  -  -  --------  -  -  
 72
    65
 73
     6
 40
40.0
 49
30.0
 49
-2.5
 49
1.25
 49
-2.5
 49
1.25
 49
-2.5
  0
LTYPE
  2
LONG3
 70
    64
  3
+++++++++++++++..+++++++++++++++
 72
    65
 73
     2
 40
40.0
 49
37.5
 49
-2.5
  0
LTYPE
  2
LONG4
 70
    64
  3
+++++++++++++++..+++++++++++++++
 72
    65
 73
     2
 40
80.0
 49
75.0
 49
-5.0
  0
LTYPE
  2
LONG5
 70
    64
  3
----------  --  ----------  --  
 72
    65
 73
     4
 40
60.0
 49
37.5
 49
-7.5
 49
7.5
 49
-7.5
  0
LTYPE
  2
dashed
 70
   64
  3
-------   -------------   ------
 72
   65
 73
    2
 40
7.5
 49
6
 49
-1.5
  0
LTYPE
  2
dashed_spaced
 70
   64
  3
----        --------        ----
 72
   65
 73
    2
 40
12
 49
6
 49
-6
  0
LTYPE
  2
long_dashed_dotted
 70
   64
  3
------------- --- --------------
 72
   65
 73
    4
 40
15.25
 49
12
 49
-1.5
 49
0.25
 49
-1.5
  0
LTYPE
  2
long_dashed_double-dotted
 70
   64
  3
----------- --- --- ------------
 72
   65
 73
    6
 40
17
 49
12
 49
-1.5
 49
0.25
 49
-1.5
 49
0.25
 49
-1.5
  0
LTYPE
  2
long_dashed_triplicate-dotted
 70
   64
  3
--------- --- --- --- ----------
 72
   65
 73
    8
 40
18.75
 49
12
 49
-1.5
 49
0.25
 49
-1.5
 49
0.25
 49
-1.5
 49
0.25
 49
-1.5
  0
LTYPE
  2
dotted
 70
   64
  3
   -       -       -       -    
 72
   65
 73
    2
 40
1.75
 49
0.25
 49
-1.5
  0
LTYPE
  2
chain
 70
   64
  3
-------------- -- --------------
 72
   65
 73
    4
 40
18.5
 49
12
 49
-1.5
 49
3.5
 49
-1.5
  0
LTYPE
  2
chain_double_dash
 70
   64
  3
------------ -- -- -------------
 72
   65
 73
    6
 40
23.5
 49
12
 49
-1.5
 49
3.5
 49
-1.5
 49
3.5
 49
-1.5
  0
LTYPE
  2
dashed_dotted
 70
   64
  3
-----------     -     ----------
 72
   65
 73
    4
 40
9.25
 49
6
 49
-1.5
 49
0.25
 49
-1.5
  0
LTYPE
  2
double-dashed_dotted
 70
   64
  3
------   -----------   -   -----
 72
   65
 73
    6
 40
16.75
 49
6
 49
-1.5
 49
6
 49
-1.5
 49
0.25
 49
-1.5
  0
LTYPE
  2
dashed_double-dotted
 70
   64
  3
---------    -    -    ---------
 72
   65
 73
    6
 40
11
 49
6
 49
-1.5
 49
0.25
 49
-1.5
 49
0.25
 49
-1.5
  0
LTYPE
  2
double-dashed_double-dotted
 70
   64
  3
-----   ---------   -   -   ----
 72
   65
 73
    8
 40
18.5
 49
6
 49
-1.5
 49
6
 49
-1.5
 49
0.25
 49
-1.5
 49
0.25
 49
-1.5
  0
LTYPE
  2
dashed_triplicate-dotted
 70
   64
  3
-------    -    -    -    ------
 72
   65
 73
    8
 40
12.75
 49
6
 49
-1.5
 49
0.25
 49
-1.5
 49
0.25
 49
-1.5
 49
0.25
 49
-1.5
  0
LTYPE
  2
double-dashed_triplicate-dotted
 70
   64
  3
-----  ---------  -  -  -  -----
 72
   65
 73
   10
 40
20.25
 49
6
 49
-1.5
 49
6
 49
-1.5
 49
0.25
 49
-1.5
 49
0.25
 49
-1.5
 49
0.25
 49
-1.5
  0
LTYPE
  2
undefined
 70
   64
  3
--------------------------------
 72
   65
 73
    0
 40
0
  0
LTYPE
  2
AIGENLINE001
 70
   64
  3
----        --------        ----
 72
   65
 73
    2
 40
4.5800000000000001
 49
2.29
 49
-2.29
  0
LTYPE
  2
AIGENLINE002
 70
   64
  3
------     -----------     -----
 72
   65
 73
    2
 40
6.8700000000000001
 49
4.5800000000000001
 49
-2.29
  0
ENDTAB
  0
TABLE
  2
STYLE
  5
3
100
AcDbSymbolTable
 70
     1
  0
STYLE
  5
10
100
AcDbSymbolTableRecord
100
AcDbTextStyleTableRecord
  2
STANDARD
 70
     0
 40
0.0
 41
1.0
 50
0.0
 71
     0
 42
0.2
  3
txt
  4
bigfont.shx
  0
STYLE
  5
26
100
AcDbSymbolTableRecord
100
AcDbTextStyleTableRecord
  2
TATEGAKI
 70
    68
 40
0.0
 41
1.0
 50
0.0
 71
     0
 42
1.0
  3
txt
  4
bigfont.shx
  0
ENDTAB
  0
TABLE
  2
LAYER
 70
    3
  0
LAYER
  2
_0-0_文字
 70
   64
 62
    7
  6
CONTINUOUS
  0
LAYER
  2
_0-1_レイヤ___3
 70
   64
 62
    7
  6
CONTINUOUS
  0
LAYER
  2
ADD_LINE
 70
   64
 62
    7
  6
CONTINUOUS
  0
ENDTAB
  0
ENDSEC
  0
SECTION
  2
BLOCKS
  0
ENDSEC
  0
SECTION
  2
ENTITIES
  0
ARC
  8
_0-1_レイヤ___3
  6
CONTINUOUS
 62
    7
 10
-7457.1225270732612
 20
10245.265671888299
 40
100.75331131322194
 50
212.54457606520916
 51
215.40440375223903
  0
ARC
  8
_0-1_レイヤ___3
  6
CONTINUOUS
 62
    7
 10
-7368.9514147695209
 20
10307.718363524889
 40
208.80176608438552
 50
215.35576722286694
 51
221.36723647424384
  0
ARC
  8
_0-1_レイヤ___3
  6
CONTINUOUS
 62
    7
 10
-7295.462429419611
 20
10370.285434729602
 40
305.30820552446175
 50
221.06477429997616
 51
231.22765018658944
  0
ARC
  8
_0-1_レイヤ___3
  6
CONTINUOUS
 62
    7
 10
-7258.362933726452
 20
10413.75814627555
 40
362.43800051855288
 50
230.95883511048854
 51
251.35346403312775
  0
ARC
  8
_0-1_レイヤ___3
  6
CONTINUOUS
 62
    7
 10
-7236.372632740311
 20
10469.15351598549
 40
421.96811857702386
 50
250.92920805381573
 51
264.01576111916944
  0
ARC
  8
_0-1_レイヤ___3
  6
CONTINUOUS
 62
    7
 10
-7225.6242362788289
 20
10543.900922169672
 40
497.43720610569824
 50
263.68207230856348
 51
270.12317171358154
  0
ARC
  8
_0-1_レイヤ___3
  6
CONTINUOUS
 62
    7
 10
-6992.0793464044109
 20
10245.524901377814
 40
100.97057184263099
 50
324.50269853745323
 51
327.35954730735853
  0
ARC
  8
_0-1_レイヤ___3
  6
CONTINUOUS
 62
    7
 10
-7080.3419905560786
 20
10307.947173220191
 40
209.07582118488784
 50
318.61534655888221
 51
324.62063211809942
  0
ARC
  8
_0-1_レイヤ___3
  6
CONTINUOUS
 62
    7
 10
-7153.8774882642865
 20
10370.555279866292
 40
305.64394410371006
 50
308.76992808749981
 51
318.92296844706647
  0
ARC
  8
_0-1_レイヤ___3
  6
CONTINUOUS
 62
    7
 10
-7190.9073149430587
 20
10414.013847156648
 40
362.71881065871321
 50
288.65165821912348
 51
309.03173518611686
  0
ARC
  8
_0-1_レイヤ___3
  6
CONTINUOUS
 62
    7
 10
-7212.7783179116759
 20
10469.116770693032
 40
421.93378546990601
 50
275.9876235217497
 51
289.07257752973072
  0
ARC
  8
_0-1_レイヤ___3
  6
CONTINUOUS
 62
    7
 10
-7223.4878580387031
 20
10543.581941679005
 40
497.11822129585721
 50
269.87702048518202
 51
276.31995190691805
  0
ARC
  8
_0-1_レイヤ___3
  6
CONTINUOUS
 62
    7
 10
-5185.0304285955899
 20
10245.524901377814
 40
100.97057184263099
 50
212.64045269264147
 51
215.49730146254677
  0
ARC
  8
_0-1_レイヤ___3
  6
CONTINUOUS
 62
    7
 10
-5096.767783943922
 20
10307.947182752343
 40
209.07582711155425
 50
215.37936993240487
 51
221.38465549162211
  0
ARC
  8
_0-1_レイヤ___3
  6
CONTINUOUS
 62
    7
 10
-5023.232286235715
 20
10370.555274237853
 40
305.6439400285019
 50
221.07703081915605
 51
231.23007117872268
  0
ARC
  8
_0-1_レイヤ___3
  6
CONTINUOUS
 62
    7
 10
-4986.2024600569393
 20
10414.01384715665
 40
362.71881065871611
 50
230.96826481388337
 51
251.34834178087681
  0
ARC
  8
_0-1_レイヤ___3
  6
CONTINUOUS
 62
    7
 10
-4964.331457088324
 20
10469.116770693026
 40
421.93378546990107
 50
250.92742247026916
 51
264.01237647825019
  0
ARC
  8
_0-1_レイヤ___3
  6
CONTINUOUS
 62
    7
 10
-4953.6219169612968
 20
10543.581941679005
 40
497.11822129585721
 50
263.68004809308195
 51
270.12297951481798
  0
ARC
  8
_0-1_レイヤ___3
  6
CONTINUOUS
 62
    7
 10
-4719.9458454184714
 20
10245.502223718258
 40
100.93010227782503
 50
324.50212566871829
 51
327.36012017609352
  0
ARC
  8
_0-1_レイヤ___3
  6
CONTINUOUS
 62
    7
 10
-4808.1795151263923
 20
10307.897670728831
 40
208.99619450303933
 50
318.61419937969004
 51
324.6217751962829
  0
ARC
  8
_0-1_レイヤ___3
  6
CONTINUOUS
 62
    7
 10
-4881.720450069015
 20
10370.546924357084
 40
305.59543296261558
 50
308.76110452106741
 51
318.91711841601511
  0
ARC
  8
_0-1_レイヤ___3
  6
CONTINUOUS
 62
    7
 10
-4918.8186128357247
 20
10414.07234736759
 40
362.76505117262622
 50
288.64440299195792
 51
309.02607158712721
  0
ARC
  8
_0-1_レイヤ___3
  6
CONTINUOUS
 62
    7
 10
-4940.7607794280339
 20
10469.392114969156
 40
422.20788163462777
 50
275.98405340598731
 51
289.06580929539717
  0
ARC
  8
_0-1_レイヤ___3
  6
CONTINUOUS
 62
    7
 10
-4951.4884073483645
 20
10543.953934779165
 40
497.49021243480115
 50
269.87717178965937
 51
276.31758418819601
  0
ARC
  8
_0-1_レイヤ___3
  6
CONTINUOUS
 62
    7
 10
-5820.122552073216
 20
10136.864055111702
 40
100.75331131325974
 50
144.59559624777546
 51
147.4554239348054
  0
ARC
  8
_0-1_レイヤ___3
  6
CONTINUOUS
 62
    7
 10
-5731.9514397695193
 20
10074.411363475112
 40
208.80176608438552
 50
138.63276352575616
 51
144.64423277713306
  0
ARC
  8
_0-1_レイヤ___3
  6
CONTINUOUS
 62
    7
 10
-5658.4624539196111
 20
10011.84428664744
 40
305.30820959523527
 50
128.77234907943739
 51
138.93522496605067
  0
ARC
  8
_0-1_レイヤ___3
  6
CONTINUOUS
 62
    7
 10
-5621.3629577264519
 20
9968.3715807244553
 40
362.43800051855004
 50
108.64653596687252
 51
129.04116488951172
  0
ARC
  8
_0-1_レイヤ___3
  6
CONTINUOUS
 62
    7
 10
-5599.37265674031
 20
9912.9762110145002
 40
421.96811857703369
 50
95.984238880830262
 51
109.07079194618393
  0
ARC
  8
_0-1_レイヤ___3
  6
CONTINUOUS
 62
    7
 10
-5588.6242602788279
 20
9838.228804830349
 40
497.437206105678
 50
89.876828286418629
 51
96.317927691436736
  0
ARC
  8
_0-1_レイヤ___3
  6
CONTINUOUS
 62
    7
 10
-5354.9872379267836
 20
10136.864055111679
 40
100.75331131327245
 50
32.544576065205391
 51
35.404403752235282
  0
ARC
  8
_0-1_レイヤ___3
  6
CONTINUOUS
 62
    7
 10
-5443.1583502304802
 20
10074.411363475123
 40
208.80176608437881
 50
35.3557672228646
 51
41.367236474241516
  0
ARC
  8
_0-1_レイヤ___3
  6
CONTINUOUS
 62
    7
 10
-5516.6473355803882
 20
10011.8442922704
 40
305.30820552446175
 50
41.064774299976172
 51
51.227650186589457
  0
ARC
  8
_0-1_レイヤ___3
  6
CONTINUOUS
 62
    7
 10
-5553.7468312735482
 20
9968.3715807244516
 40
362.43800051855288
 50
50.958835110488543
 51
71.35346403312775
  0
ARC
  8
_0-1_レイヤ___3
  6
CONTINUOUS
 62
    7
 10
-5575.737132259691
 20
9912.9762110145057
 40
421.96811857702875
 50
70.929208053815913
 51
84.015761119169582
  0
ARC
  8
_0-1_レイヤ___3
  6
CONTINUOUS
 62
    7
 10
-5586.4855287211731
 20
9838.2288048303399
 40
497.43720610568812
 50
83.682072308563349
 51
90.123171713581442
  0
ARC
  8
_0-1_レイヤ___3
  6
CONTINUOUS
 62
    7
 10
-2913.022595073262
 20
10245.265671888321
 40
100.75331131323469
 50
212.54457606521987
 51
215.40440375224975
  0
ARC
  8
_0-1_レイヤ___3
  6
CONTINUOUS
 62
    7
 10
-2824.851482769519
 20
10307.718363524882
 40
208.80176608438217
 50
215.35576722286575
 51
221.36723647424267
  0
ARC
  8
_0-1_レイヤ___3
  6
CONTINUOUS
 62
    7
 10
-2751.3624974196118
 20
10370.285434729598
 40
305.30820552445948
 50
221.06477429997577
 51
231.22765018658905
  0
ARC
  8
_0-1_レイヤ___3
  6
CONTINUOUS
 62
    7
 10
-2714.2630012264526
 20
10413.758149055178
 40
362.43800299241127
 50
230.95883532587561
 51
251.35346424851477
  0
ARC
  8
_0-1_レイヤ___3
  6
CONTINUOUS
 62
    7
 10
-2692.2727002403099
 20
10469.153511626333
 40
421.96811429374725
 50
250.92920792458665
 51
264.0157609899403
  0
ARC
  8
_0-1_レイヤ___3
  6
CONTINUOUS
 62
    7
 10
-2681.5243042788279
 20
10543.900922169658
 40
497.43720610568312
 50
263.68207230856331
 51
270.12317171358143
  0
ARC
  8
_0-1_レイヤ___3
  6
CONTINUOUS
 62
    7
 10
-2447.8872809267382
 20
10245.26567188831
 40
100.75331131322829
 50
324.59559624775562
 51
327.45542393478553
  0
ARC
  8
_0-1_レイヤ___3
  6
CONTINUOUS
 62
    7
 10
-2536.0583932304803
 20
10307.718363524889
 40
208.80176608438552
 50
318.63276352575616
 51
324.64423277713308
  0
ARC
  8
_0-1_レイヤ___3
  6
CONTINUOUS
 62
    7
 10
-2609.5473785803892
 20
10370.285434729598
 40
305.30820552445948
 50
308.77234981341098
 51
318.93522570002426
  0
ARC
  8
_0-1_レイヤ___3
  6
CONTINUOUS
 62
    7
 10
-2646.646874773548
 20
10413.758149055178
 40
362.43800299241127
 50
288.6465357514852
 51
309.04116467412439
  0
ARC
  8
_0-1_レイヤ___3
  6
CONTINUOUS
 62
    7
 10
-2668.6371757596899
 20
10469.153511626329
 40
421.96811429374492
 50
275.98423901005975
 51
289.07079207541341
  0
ARC
  8
_0-1_レイヤ___3
  6
CONTINUOUS
 62
    7
 10
-2679.385572221172
 20
10543.900931055636
 40
497.43721499271589
 50
269.87682823102807
 51
276.31792763604614
  0
ARC
  8
_0-1_レイヤ___3
  6
CONTINUOUS
 62
    7
 10
-3548.0304525955444
 20
10136.604825622173
 40
100.97057184267514
 50
144.50269853746238
 51
147.35954730736768
  0
ARC
  8
_0-1_レイヤ___3
  6
CONTINUOUS
 62
    7
 10
-3459.7678084439212
 20
10074.182553779816
 40
209.07582118488446
 50
138.6153465588834
 51
144.62063211810062
  0
ARC
  8
_0-1_レイヤ___3
  6
CONTINUOUS
 62
    7
 10
-3386.2323107357133
 20
10011.574447133704
 40
305.6439441037146
 50
128.76992808749895
 51
138.92296844706561
  0
ARC
  8
_0-1_レイヤ___3
  6
CONTINUOUS
 62
    7
 10
-3349.2024840569402
 20
9968.1158798433553
 40
362.71881065871321
 50
108.65165821912348
 51
129.03173518611692
  0
ARC
  8
_0-1_レイヤ___3
  6
CONTINUOUS
 62
    7
 10
-3327.3314810883239
 20
9913.0129563069768
 40
421.93378546990107
 50
95.987623521749811
 51
109.07257752973085
  0
ARC
  8
_0-1_レイヤ___3
  6
CONTINUOUS
 62
    7
 10
-3316.6219409612968
 20
9838.547785320985
 40
497.11822129586727
 50
89.877020485181959
 51
96.319951906917908
  0
ARC
  8
_0-1_レイヤ___3
  6
CONTINUOUS
 62
    7
 10
-3082.9458704185172
 20
10136.627503281728
 40
100.93010227786918
 50
32.639879823897374
 51
35.49787433127257
  0
ARC
  8
_0-1_レイヤ___3
  6
CONTINUOUS
 62
    7
 10
-3171.1795401263917
 20
10074.232056271177
 40
208.99619450303595
 50
35.378224803715909
 51
41.385800620308785
  0
ARC
  8
_0-1_レイヤ___3
  6
CONTINUOUS
 62
    7
 10
-3244.7204745690142
 20
10011.582808269704
 40
305.59542888809187
 50
41.082880850402226
 51
51.23889474534996
  0
ARC
  8
_0-1_レイヤ___3
  6
CONTINUOUS
 62
    7
 10
-3281.8186368357237
 20
9968.0573796324115
 40
362.76505117262764
 50
50.973928412872894
 51
71.355597008042196
  0
ARC
  8
_0-1_レイヤ___3
  6
CONTINUOUS
 62
    7
 10
-3303.7608034280347
 20
9912.73761203084
 40
422.20788163463277
 50
70.934190704602969
 51
84.015946594012817
  0
ARC
  8
_0-1_レイヤ___3
  6
CONTINUOUS
 62
    7
 10
-3314.4884313483644
 20
9838.1757922208526
 40
497.49021243478586
 50
83.682415811803978
 51
90.1228282103406
  0
ARC
  8
_0-1_レイヤ___3
  6
CONTINUOUS
 62
    7
 10
-6834.9576104027983
 20
10144.758611797955
 40
85.687131946339932
 50
144.22233369227075
 51
147.28839169837414
  0
ARC
  8
_0-1_レイヤ___3
  6
CONTINUOUS
 62
    7
 10
-6772.3665018165411
 20
10100.105046321711
 40
162.57352260626021
 50
139.79746805851795
 51
144.35142471935831
  0
ARC
  8
_0-1_レイヤ___3
  6
CONTINUOUS
 62
    7
 10
-6716.1446876625705
 20
10053.353651080004
 40
235.69226502681684
 50
128.64561282955955
 51
139.93931535075043
  0
ARC
  8
_0-1_レイヤ___3
  6
CONTINUOUS
 62
    7
 10
-6684.3717736842755
 20
10016.65063554152
 40
284.20673230090733
 50
110.99190648966825
 51
129.02750531113131
  0
ARC
  8
_0-1_レイヤ___3
  6
CONTINUOUS
 62
    7
 10
-6666.7549979676569
 20
9975.7474653034878
 40
328.71106488204566
 50
95.239897903240617
 51
111.30471079897622
  0
ARC
  8
_0-1_レイヤ___3
  6
CONTINUOUS
 62
    7
 10
-6657.2413299848804
 20
9909.5217699453515
 40
395.54368721071808
 50
89.900565237320635
 51
95.736139417888069
  0
ARC
  8
_0-1_レイヤ___3
  6
CONTINUOUS
 62
    7
 10
-6478.1521475972031
 20
10144.758611797977
 40
85.68713194632798
 50
32.711608301614113
 51
35.777666307717482
  0
ARC
  8
_0-1_レイヤ___3
  6
CONTINUOUS
 62
    7
 10
-6540.7432561834594
 20
10100.105046321711
 40
162.57352260626021
 50
35.648575280641708
 51
40.202531941482064
  0
ARC
  8
_0-1_レイヤ___3
  6
CONTINUOUS
 62
    7
 10
-6596.9650698374298
 20
10053.353656136811
 40
235.69226138958246
 50
40.060683786625717
 51
51.354386307816618
  0
ARC
  8
_0-1_レイヤ___3
  6
CONTINUOUS
 62
    7
 10
-6628.7379833157238
 20
10016.650635541526
 40
284.20673230090097
 50
50.972494688867947
 51
69.008093510331008
  0
ARC
  8
_0-1_レイヤ___3
  6
CONTINUOUS
 62
    7
 10
-6646.3547595323425
 20
9975.7474617603402
 40
328.71106836472558
 50
68.695289344213663
 51
84.760102239949262
  0
ARC
  8
_0-1_レイヤ___3
  6
CONTINUOUS
 62
    7
 10
-6655.8684275151199
 20
9909.5217797552341
 40
395.54367739998446
 50
84.263860512151453
 51
90.099434692718873
  0
ARC
  8
_0-1_レイヤ___3
  6
CONTINUOUS
 62
    7
 10
-6333.9576174028389
 20
10237.371115202044
 40
85.687131946304817
 50
212.71160830164183
 51
215.77766630774522
  0
ARC
  8
_0-1_レイヤ___3
  6
CONTINUOUS
 62
    7
 10
-6271.3665088165408
 20
10282.024680678278
 40
162.57352260625143
 50
215.64857528063774
 51
220.20253194147804
  0
ARC
  8
_0-1_レイヤ___3
  6
CONTINUOUS
 62
    7
 10
-6215.1446951625703
 20
10328.77607086319
 40
235.69226138958246
 50
220.0606837866257
 51
231.35438630781661
  0
ARC
  8
_0-1_レイヤ___3
  6
CONTINUOUS
 62
    7
 10
-6183.3717816842764
 20
10365.479091458477
 40
284.20673230090415
 50
230.97249468886832
 51
249.00809351033141
  0
ARC
  8
_0-1_レイヤ___3
  6
CONTINUOUS
 62
    7
 10
-6165.7550054676576
 20
10406.382265239659
 40
328.71106836472171
 50
248.69528934421351
 51
264.76010223994911
  0
ARC
  8
_0-1_レイヤ___3
  6
CONTINUOUS
 62
    7
 10
-6156.2413374848802
 20
10472.607947244769
 40
395.54367739998446
 50
264.26386051215144
 51
270.09943469271889
  0
ARC
  8
_0-1_レイヤ___3
  6
CONTINUOUS
 62
    7
 10
-5977.1521550971602
 20
10237.371096519395
 40
85.687121429300191
 50
324.22234402269203
 51
327.28840202879542
  0
ARC
  8
_0-1_レイヤ___3
  6
CONTINUOUS
 62
    7
 10
-6039.743263183459
 20
10282.024680678278
 40
162.57352260625143
 50
319.79746805852193
 51
324.35142471936229
  0
ARC
  8
_0-1_レイヤ___3
  6
CONTINUOUS
 62
    7
 10
-6095.9650773374287
 20
10328.776075920003
 40
235.69226502682088
 50
308.64561282955856
 51
319.9393153507495
  0
ARC
  8
_0-1_レイヤ___3
  6
CONTINUOUS
 62
    7
 10
-6127.7379913157238
 20
10365.479091458477
 40
284.20673230090415
 50
290.99190648966862
 51
309.02750531113173
  0
ARC
  8
_0-1_レイヤ___3
  6
CONTINUOUS
 62
    7
 10
-6145.3547670323424
 20
10406.382261696517
 40
328.71106488204964
 50
275.23989790324043
 51
291.30471079897609
  0
ARC
  8
_0-1_レイヤ___3
  6
CONTINUOUS
 62
    7
 10
-6154.8684350151198
 20
10472.60795705465
 40
395.54368721071808
 50
269.90056523732062
 51
275.73613941788807
  0
ARC
  8
_0-1_レイヤ___3
  6
CONTINUOUS
 62
    7
 10
-4562.8576439027975
 20
10144.758630480626
 40
85.687121429323383
 50
144.22234402271977
 51
147.28840202882316
  0
ARC
  8
_0-1_レイヤ___3
  6
CONTINUOUS
 62
    7
 10
-4500.2665358165405
 20
10100.105046321711
 40
162.57352260626021
 50
139.79746805851795
 51
144.35142471935831
  0
ARC
  8
_0-1_レイヤ___3
  6
CONTINUOUS
 62
    7
 10
-4444.0447216625707
 20
10053.353651079999
 40
235.69226502682088
 50
128.64561282955856
 51
139.93931535074944
  0
ARC
  8
_0-1_レイヤ___3
  6
CONTINUOUS
 62
    7
 10
-4412.2718076842757
 20
10016.650635541522
 40
284.20673230090415
 50
110.99190648966862
 51
129.0275053111317
  0
ARC
  8
_0-1_レイヤ___3
  6
CONTINUOUS
 62
    7
 10
-4394.6550319676571
 20
9975.747465303486
 40
328.71106488204964
 50
95.239897903240447
 51
111.30471079897607
  0
ARC
  8
_0-1_レイヤ___3
  6
CONTINUOUS
 62
    7
 10
-4385.1413639848806
 20
9909.5217699453642
 40
395.54368721070705
 50
89.90056523732072
 51
95.73613941788814
  0
ARC
  8
_0-1_レイヤ___3
  6
CONTINUOUS
 62
    7
 10
-4206.1892611875182
 20
10144.733370282671
 40
85.731971558135825
 50
32.712410299046745
 51
35.776864310284864
  0
ARC
  8
_0-1_レイヤ___3
  6
CONTINUOUS
 62
    7
 10
-4268.8078522340775
 20
10100.054739876003
 40
162.65530541513274
 50
35.649720744070684
 51
40.201386478045116
  0
ARC
  8
_0-1_レイヤ___3
  6
CONTINUOUS
 62
    7
 10
-4325.0235368896301
 20
10053.33922448892
 40
235.74627358302268
 50
40.05422816298821
 51
51.343586766425858
  0
ARC
  8
_0-1_レイヤ___3
  6
CONTINUOUS
 62
    7
 10
-4357.5478157618109
 20
10015.621078401622
 40
285.52275923749096
 50
50.97479236168553
 51
70.765150450440316
  0
ARC
  8
_0-1_レイヤ___3
  6
CONTINUOUS
 62
    7
 10
-4375.8269770371544
 20
9970.1725065434257
 40
334.4639357459223
 50
70.373519651520297
 51
85.910519893971738
  0
ARC
  8
_0-1_レイヤ___3
  6
CONTINUOUS
 62
    7
 10
-4383.9992004674614
 20
9903.8985793447791
 40
401.16654099226736
 50
85.421325868018087
 51
90.065086140256767
  0
ARC
  8
_0-1_レイヤ___3
  6
CONTINUOUS
 62
    7
 10
-4061.8622254001116
 20
10237.436075383321
 40
85.802528749285102
 50
212.71367058105761
 51
215.77560402832952
  0
ARC
  8
_0-1_レイヤ___3
  6
CONTINUOUS
 62
    7
 10
-3999.1870760191214
 20
10282.286544738772
 40
162.87201205520844
 50
215.68663731110291
 51
220.23440846731765
  0
ARC
  8
_0-1_レイヤ___3
  6
CONTINUOUS
 62
    7
 10
-3942.9175568337532
 20
10329.089688295313
 40
236.06034213028335
 50
220.0850184249372
 51
231.36454602664637
  0
ARC
  8
_0-1_レイヤ___3
  6
CONTINUOUS
 62
    7
 10
-3910.3895361090076
 20
10366.825234270487
 40
285.8521394627619
 50
230.99411895665307
 51
250.76855345956994
  0
ARC
  8
_0-1_レイヤ___3
  6
CONTINUOUS
 62
    7
 10
-3892.1624755039556
 20
10412.175246068236
 40
334.68285969358692
 50
250.37954526170159
 51
265.90970154733179
  0
ARC
  8
_0-1_レイヤ___3
  6
CONTINUOUS
 62
    7
 10
-3884.0090733106636
 20
10478.2707129091
 40
401.2061044525978
 50
265.42155495706544
 51
270.06485705120957
  0
ARC
  8
_0-1_レイヤ___3
  6
CONTINUOUS
 62
    7
 10
-3705.1521885971601
 20
10237.371115202024
 40
85.687131946292851
 50
324.22233369226649
 51
327.28839169836988
  0
ARC
  8
_0-1_レイヤ___3
  6
CONTINUOUS
 62
    7
 10
-3767.7432971834596
 20
10282.024680678292
 40
162.57352260626021
 50
319.79746805851795
 51
324.35142471935831
  0
ARC
  8
_0-1_レイヤ___3
  6
CONTINUOUS
 62
    7
 10
-3823.9651113374293
 20
10328.776075920003
 40
235.69226502682088
 50
308.64561282955856
 51
319.9393153507495
  0
ARC
  8
_0-1_レイヤ___3
  6
CONTINUOUS
 62
    7
 10
-3855.7380253157235
 20
10365.479091458477
 40
284.20673230090415
 50
290.99190648966862
 51
309.02750531113173
  0
ARC
  8
_0-1_レイヤ___3
  6
CONTINUOUS
 62
    7
 10
-3873.354801032342
 20
10406.382261696512
 40
328.71106488204566
 50
275.2398979032406
 51
291.3047107989762
  0
ARC
  8
_0-1_レイヤ___3
  6
CONTINUOUS
 62
    7
 10
-3882.8684690151194
 20
10472.60795705465
 40
395.54368721071808
 50
269.90056523732062
 51
275.73613941788807
  0
ARC
  8
_0-1_レイヤ___3
  6
CONTINUOUS
 62
    7
 10
-2290.8576774027965
 20
10144.758611797966
 40
85.687131946333949
 50
144.22233369227664
 51
147.28839169838002
  0
ARC
  8
_0-1_レイヤ___3
  6
CONTINUOUS
 62
    7
 10
-2228.2665688165407
 20
10100.105046321725
 40
162.57352260625143
 50
139.79746805852193
 51
144.35142471936226
  0
ARC
  8
_0-1_レイヤ___3
  6
CONTINUOUS
 62
    7
 10
-2172.0447551625703
 20
10053.353656136807
 40
235.69226138958453
 50
128.64561369218288
 51
139.93931621337379
  0
ARC
  8
_0-1_レイヤ___3
  6
CONTINUOUS
 62
    7
 10
-2140.2718416842758
 20
10016.650635541526
 40
284.20673230090256
 50
110.99190648966882
 51
129.02750531113188
  0
ARC
  8
_0-1_レイヤ___3
  6
CONTINUOUS
 62
    7
 10
-2122.6550654676571
 20
9975.747461760342
 40
328.71106836472364
 50
95.239897760050809
 51
111.30471065578642
  0
ARC
  8
_0-1_レイヤ___3
  6
CONTINUOUS
 62
    7
 10
-2113.1413974848801
 20
9909.5217797552341
 40
395.54367739998446
 50
89.900565307281141
 51
95.736139487848547
  0
ARC
  8
_0-1_レイヤ___3
  6
CONTINUOUS
 62
    7
 10
-1934.0522155972035
 20
10144.758611797955
 40
85.687131946339932
 50
32.711608301625859
 51
35.777666307729241
  0
ARC
  8
_0-1_レイヤ___3
  6
CONTINUOUS
 62
    7
 10
-1996.6433241834598
 20
10100.105046321725
 40
162.57352260625143
 50
35.648575280637729
 51
40.202531941478085
  0
ARC
  8
_0-1_レイヤ___3
  6
CONTINUOUS
 62
    7
 10
-2052.8651378374298
 20
10053.353656136811
 40
235.69226138958246
 50
40.060683786625717
 51
51.354386307816618
  0
ARC
  8
_0-1_レイヤ___3
  6
CONTINUOUS
 62
    7
 10
-2084.6380513157237
 20
10016.650635541526
 40
284.20673230090256
 50
50.972494688868125
 51
69.008093510331193
  0
ARC
  8
_0-1_レイヤ___3
  6
CONTINUOUS
 62
    7
 10
-2102.2548275323425
 20
9975.747461760342
 40
328.71106836472364
 50
68.695289344213577
 51
84.760102239949205
  0
ARC
  8
_0-1_レイヤ___3
  6
CONTINUOUS
 62
    7
 10
-2111.7684955151199
 20
9909.5217797552286
 40
395.54367739998997
 50
84.263860512151496
 51
90.09943469271893
  0
ARC
  8
_0-1_レイヤ___3
  6
CONTINUOUS
 62
    7
 10
-1789.8576854028386
 20
10237.371115202044
 40
85.687131946304817
 50
212.71160830164183
 51
215.77766630774522
  0
ARC
  8
_0-1_レイヤ___3
  6
CONTINUOUS
 62
    7
 10
-1727.2665768165405
 20
10282.024680678269
 40
162.57352260624702
 50
215.64857528063578
 51
220.20253194147608
  0
ARC
  8
_0-1_レイヤ___3
  6
CONTINUOUS
 62
    7
 10
-1671.0447626625705
 20
10328.776075920005
 40
235.69226502682301
 50
220.06068464925102
 51
231.35438717044192
  0
ARC
  8
_0-1_レイヤ___3
  6
CONTINUOUS
 62
    7
 10
-1639.2718491842761
 20
10365.479088307937
 40
284.20672953857877
 50
230.9724943672266
 51
249.00809318868966
  0
ARC
  8
_0-1_レイヤ___3
  6
CONTINUOUS
 62
    7
 10
-1621.6550734676571
 20
10406.382265239659
 40
328.71106836472364
 50
248.69528934421356
 51
264.76010223994922
  0
ARC
  8
_0-1_レイヤ___3
  6
CONTINUOUS
 62
    7
 10
-1612.1414054848799
 20
10472.607947244769
 40
395.54367739998446
 50
264.26386051215144
 51
270.09943469271889
  0
ARC
  8
_0-1_レイヤ___3
  6
CONTINUOUS
 62
    7
 10
-1433.0522225971606
 20
10237.371115202033
 40
85.68713194629882
 50
324.22233369226063
 51
327.28839169836402
  0
ARC
  8
_0-1_レイヤ___3
  6
CONTINUOUS
 62
    7
 10
-1495.6433311834594
 20
10282.024680678278
 40
162.57352260625143
 50
319.79746805852193
 51
324.35142471936229
  0
ARC
  8
_0-1_レイヤ___3
  6
CONTINUOUS
 62
    7
 10
-1551.8651453374298
 20
10328.77607592001
 40
235.69226502682505
 50
308.64561282955759
 51
319.93931535074847
  0
ARC
  8
_0-1_レイヤ___3
  6
CONTINUOUS
 62
    7
 10
-1583.6380588157244
 20
10365.479088307933
 40
284.20672953857724
 50
290.99190681131051
 51
309.02750563277357
  0
ARC
  8
_0-1_レイヤ___3
  6
CONTINUOUS
 62
    7
 10
-1601.2548345323426
 20
10406.382265239659
 40
328.71106836472171
 50
275.23989776005089
 51
291.30471065578649
  0
ARC
  8
_0-1_レイヤ___3
  6
CONTINUOUS
 62
    7
 10
-1610.7685030151197
 20
10472.60795705465
 40
395.54368721071808
 50
269.90056523732062
 51
275.73613941788807
  0
ARC
  8
_0-1_レイヤ___3
  6
CONTINUOUS
 62
    7
 10
-640.93049659558972
 20
10245.524901377827
 40
100.9705718426374
 50
212.64045269264682
 51
215.49730146255212
  0
ARC
  8
_0-1_レイヤ___3
  6
CONTINUOUS
 62
    7
 10
-552.66785194392128
 20
10307.947182752345
 40
209.0758271115559
 50
215.37936993240547
 51
221.38465549162268
  0
ARC
  8
_0-1_レイヤ___3
  6
CONTINUOUS
 62
    7
 10
-479.13235423571393
 20
10370.555274237853
 40
305.6439400285019
 50
221.07703081915605
 51
231.23007117872268
  0
ARC
  8
_0-1_レイヤ___3
  6
CONTINUOUS
 62
    7
 10
-442.10252755693944
 20
10414.013849938307
 40
362.7188131343749
 50
230.96826502924114
 51
251.34834199623452
  0
ARC
  8
_0-1_レイヤ___3
  6
CONTINUOUS
 62
    7
 10
-420.23152458832328
 20
10469.11676633332
 40
421.93378118613771
 50
250.92742234098728
 51
264.01237634896836
  0
ARC
  8
_0-1_レイヤ___3
  6
CONTINUOUS
 62
    7
 10
-409.52198446129643
 20
10543.581950562448
 40
497.11823018035136
 50
263.68004814851218
 51
270.12297957024816
  0
ARC
  8
_0-1_レイヤ___3
  6
CONTINUOUS
 62
    7
 10
-175.84591341847215
 20
10245.502223718271
 40
100.93010227783145
 50
324.50212566871295
 51
327.36012017608812
  0
ARC
  8
_0-1_レイヤ___3
  6
CONTINUOUS
 62
    7
 10
-264.07958312639153
 20
10307.897670728826
 40
208.9961945030376
 50
318.6141993796906
 51
324.62177519628352
  0
ARC
  8
_0-1_レイヤ___3
  6
CONTINUOUS
 62
    7
 10
-337.62051756901485
 20
10370.546918730302
 40
305.59542888809415
 50
308.76110525464964
 51
318.91711914959734
  0
ARC
  8
_0-1_レイヤ___3
  6
CONTINUOUS
 62
    7
 10
-374.71868033572463
 20
10414.072350149027
 40
362.76505364824902
 50
288.6444027766882
 51
309.02607137185748
  0
ARC
  8
_0-1_レイヤ___3
  6
CONTINUOUS
 62
    7
 10
-396.6608469280348
 20
10469.392110608376
 40
422.20787734973584
 50
275.98405353516426
 51
289.06580942457413
  0
ARC
  8
_0-1_レイヤ___3
  6
CONTINUOUS
 62
    7
 10
-407.38847434836458
 20
10543.953934779156
 40
497.49021243479353
 50
269.87717178965937
 51
276.31758418819595
  0
ARC
  8
_0-1_レイヤ___3
  6
CONTINUOUS
 62
    7
 10
-1276.0226190732164
 20
10136.86405511169
 40
100.7533113132661
 50
144.59559624777006
 51
147.4554239348
  0
ARC
  8
_0-1_レイヤ___3
  6
CONTINUOUS
 62
    7
 10
-1187.8515067695196
 20
10074.411363475117
 40
208.80176608438217
 50
138.63276352575733
 51
144.64423277713425
  0
ARC
  8
_0-1_レイヤ___3
  6
CONTINUOUS
 62
    7
 10
-1114.3625214196113
 20
10011.8442922704
 40
305.30820552446175
 50
128.77234981341056
 51
138.93522570002384
  0
ARC
  8
_0-1_レイヤ___3
  6
CONTINUOUS
 62
    7
 10
-1077.2630257264518
 20
9968.3715807244535
 40
362.43800051855146
 50
108.64653596687241
 51
129.04116488951158
  0
ARC
  8
_0-1_レイヤ___3
  6
CONTINUOUS
 62
    7
 10
-1055.2727247403091
 20
9912.976211014502
 40
421.96811857703125
 50
95.984238880830375
 51
109.07079194618402
  0
ARC
  8
_0-1_レイヤ___3
  6
CONTINUOUS
 62
    7
 10
-1044.5243282788269
 20
9838.2288048303435
 40
497.43720610568312
 50
89.876828286418601
 51
96.317927691436694
  0
ARC
  8
_0-1_レイヤ___3
  6
CONTINUOUS
 62
    7
 10
-810.8873059267836
 20
10136.864055111695
 40
100.75331131326293
 50
32.544576065197333
 51
35.404403752227225
  0
ARC
  8
_0-1_レイヤ___3
  6
CONTINUOUS
 62
    7
 10
-899.05841773047996
 20
10074.411372997445
 40
208.80176016648454
 50
35.355765171199238
 51
41.367234422576153
  0
ARC
  8
_0-1_レイヤ___3
  6
CONTINUOUS
 62
    7
 10
-972.5474030803889
 20
10011.84428664744
 40
305.30820959523527
 50
41.064775033949324
 51
51.227650920562603
  0
ARC
  8
_0-1_レイヤ___3
  6
CONTINUOUS
 62
    7
 10
-1009.6468992735481
 20
9968.3715807244535
 40
362.43800051855209
 50
50.958835110488486
 51
71.353464033127693
  0
ARC
  8
_0-1_レイヤ___3
  6
CONTINUOUS
 62
    7
 10
-1031.6372002596909
 20
9912.9762110145039
 40
421.96811857702994
 50
70.929208053815955
 51
84.015761119169611
  0
ARC
  8
_0-1_レイヤ___3
  6
CONTINUOUS
 62
    7
 10
-1042.385596721173
 20
9838.2288048303435
 40
497.43720610568312
 50
83.682072308563306
 51
90.123171713581399
  0
ARC
  8
_0-1_レイヤ___3
  6
CONTINUOUS
 62
    7
 10
-18.757711402796531
 20
10144.758611797961
 40
85.687131946336947
 50
144.22233369227371
 51
147.2883916983771
  0
ARC
  8
_0-1_レイヤ___3
  6
CONTINUOUS
 62
    7
 10
43.83339718345951
 20
10100.105046321722
 40
162.57352260625362
 50
139.79746805852093
 51
144.35142471936129
  0
ARC
  8
_0-1_レイヤ___3
  6
CONTINUOUS
 62
    7
 10
100.05521083742991
 20
10053.353656136809
 40
235.69226138958345
 50
128.6456136921831
 51
139.93931621337401
  0
ARC
  8
_0-1_レイヤ___3
  6
CONTINUOUS
 62
    7
 10
131.82812431572415
 20
10016.650635541526
 40
284.20673230090256
 50
110.99190648966882
 51
129.02750531113188
  0
ARC
  8
_0-1_レイヤ___3
  6
CONTINUOUS
 62
    7
 10
149.4449005323429
 20
9975.7474617603439
 40
328.71106836472256
 50
95.239897760050852
 51
111.30471065578645
  0
ARC
  8
_0-1_レイヤ___3
  6
CONTINUOUS
 62
    7
 10
158.95856851511979
 20
9909.5217797552305
 40
395.54367739998719
 50
89.900565307281099
 51
95.736139487848533
  0
ARC
  8
_0-1_レイヤ___3
  6
CONTINUOUS
 62
    7
 10
337.95232440006856
 20
10144.693651616688
 40
85.802528749315769
 50
32.713670581037185
 51
35.77560402830909
  0
ARC
  8
_0-1_レイヤ___3
  6
CONTINUOUS
 62
    7
 10
275.27717551912218
 20
10099.843194853276
 40
162.87200430350629
 50
35.686633815836018
 51
40.234404972050754
  0
ARC
  8
_0-1_レイヤ___3
  6
CONTINUOUS
 62
    7
 10
219.00765633375315
 20
10053.040033641475
 40
236.0603457731514
 50
40.085019287030654
 51
51.364546888739838
  0
ARC
  8
_0-1_レイヤ___3
  6
CONTINUOUS
 62
    7
 10
186.47963510900809
 20
10015.304492729518
 40
285.85213946276093
 50
50.994118956652954
 51
70.768553459569802
  0
ARC
  8
_0-1_レイヤ___3
  6
CONTINUOUS
 62
    7
 10
168.25257500395566
 20
9969.954484598471
 40
334.68285607188528
 50
70.379545131548312
 51
85.909701417178482
  0
ARC
  8
_0-1_レイヤ___3
  6
CONTINUOUS
 62
    7
 10
160.0991728106635
 20
9903.859001758221
 40
401.20611678583725
 50
85.421555026476128
 51
90.064857120620218
  0
ARC
  8
_0-1_レイヤ___3
  6
CONTINUOUS
 62
    7
 10
482.27936018747573
 20
10237.396356717345
 40
85.731971558109663
 50
212.71241029907154
 51
215.77686431030969
  0
ARC
  8
_0-1_レイヤ___3
  6
CONTINUOUS
 62
    7
 10
544.89795123407805
 20
10282.074987124
 40
162.65530541513496
 50
215.64972074407166
 51
220.20138647804609
  0
ARC
  8
_0-1_レイヤ___3
  6
CONTINUOUS
 62
    7
 10
601.11363638963041
 20
10328.790507569851
 40
235.74627722112217
 50
220.05422902587938
 51
231.34358762931703
  0
ARC
  8
_0-1_レイヤ___3
  6
CONTINUOUS
 62
    7
 10
633.63791526181126
 20
10366.508645732083
 40
285.52275669592325
 50
230.97479207746417
 51
250.76515016621894
  0
ARC
  8
_0-1_レイヤ___3
  6
CONTINUOUS
 62
    7
 10
651.91707603715417
 20
10411.957220456574
 40
334.46393574591974
 50
250.37351965152024
 51
265.9105198939717
  0
ARC
  8
_0-1_レイヤ___3
  6
CONTINUOUS
 62
    7
 10
660.08929996746156
 20
10478.231159986703
 40
401.16655332430651
 50
265.42132593742883
 51
270.06508620966747
  0
ARC
  8
_0-1_レイヤ___3
  6
CONTINUOUS
 62
    7
 10
838.94774340283914
 20
10237.371115202037
 40
85.687131946301065
 50
324.22233369225842
 51
327.28839169836181
  0
ARC
  8
_0-1_レイヤ___3
  6
CONTINUOUS
 62
    7
 10
776.3566348165408
 20
10282.024680678278
 40
162.57352260625197
 50
319.79746805852164
 51
324.35142471936194
  0
ARC
  8
_0-1_レイヤ___3
  6
CONTINUOUS
 62
    7
 10
720.13482116257035
 20
10328.77607086319
 40
235.69226138958373
 50
308.64561369218308
 51
319.93931621337396
  0
ARC
  8
_0-1_レイヤ___3
  6
CONTINUOUS
 62
    7
 10
688.36190768427605
 20
10365.479091458476
 40
284.20673230090233
 50
290.99190648966885
 51
309.0275053111319
  0
ARC
  8
_0-1_レイヤ___3
  6
CONTINUOUS
 62
    7
 10
670.7451314676573
 20
10406.382265239659
 40
328.71106836472325
 50
275.23989776005084
 51
291.30471065578644
  0
ARC
  8
_0-1_レイヤ___3
  6
CONTINUOUS
 62
    7
 10
661.23146348488046
 20
10472.607947244771
 40
395.54367739998719
 50
269.90056530728117
 51
275.73613948784856
  0
ARC
  8
_0-1_レイヤ___3
  6
CONTINUOUS
 62
    7
 10
1631.0773369267383
 20
10245.265671888308
 40
100.75331131322702
 50
212.54457606521339
 51
215.4044037522433
  0
ARC
  8
_0-1_レイヤ___3
  6
CONTINUOUS
 62
    7
 10
1719.2484492304802
 20
10307.718363524884
 40
208.80176608438285
 50
215.35576722286598
 51
221.36723647424287
  0
ARC
  8
_0-1_レイヤ___3
  6
CONTINUOUS
 62
    7
 10
1792.7374350803889
 20
10370.285440352563
 40
305.30820959523629
 50
221.06477503394947
 51
231.22765092056275
  0
ARC
  8
_0-1_レイヤ___3
  6
CONTINUOUS
 62
    7
 10
1829.8369312735485
 20
10413.75814627555
 40
362.43800051855175
 50
230.95883511048842
 51
251.35346403312764
  0
ARC
  8
_0-1_レイヤ___3
  6
CONTINUOUS
 62
    7
 10
1851.8272322596908
 20
10469.153515985499
 40
421.96811857703062
 50
250.92920805381596
 51
264.01576111916961
  0
ARC
  8
_0-1_レイヤ___3
  6
CONTINUOUS
 62
    7
 10
1862.5756287211732
 20
10543.90092216966
 40
497.43720610568437
 50
263.68207230856331
 51
270.12317171358143
  0
ARC
  8
_0-1_レイヤ___3
  6
CONTINUOUS
 62
    7
 10
2096.2126510732619
 20
10245.26567188831
 40
100.75331131322829
 50
324.59559624775562
 51
327.45542393478553
  0
ARC
  8
_0-1_レイヤ___3
  6
CONTINUOUS
 62
    7
 10
2008.0415387695198
 20
10307.718363524888
 40
208.8017660843839
 50
318.63276352575673
 51
324.64423277713365
  0
ARC
  8
_0-1_レイヤ___3
  6
CONTINUOUS
 62
    7
 10
1934.5525534196111
 20
10370.285434729602
 40
305.30820552446175
 50
308.77234981341053
 51
318.93522570002381
  0
ARC
  8
_0-1_レイヤ___3
  6
CONTINUOUS
 62
    7
 10
1897.4530572264518
 20
10413.758149055178
 40
362.43800299241167
 50
288.64653575148515
 51
309.04116467412439
  0
ARC
  8
_0-1_レイヤ___3
  6
CONTINUOUS
 62
    7
 10
1875.4627562403095
 20
10469.153511626333
 40
421.96811429374577
 50
275.9842390100597
 51
289.07079207541335
  0
ARC
  8
_0-1_レイヤ___3
  6
CONTINUOUS
 62
    7
 10
1864.7143602788269
 20
10543.900922169654
 40
497.43720610568181
 50
269.87682828641857
 51
276.31792769143669
  0
ARC
  8
_0-1_レイヤ___3
  6
CONTINUOUS
 62
    7
 10
996.0359454185176
 20
10136.627503281727
 40
100.93010227787077
 50
144.50212566872608
 51
147.3601201761013
  0
ARC
  8
_0-1_レイヤ___3
  6
CONTINUOUS
 62
    7
 10
1084.269615126392
 20
10074.232056271174
 40
208.99619450303848
 50
138.61419937969035
 51
144.62177519628327
  0
ARC
  8
_0-1_レイヤ___3
  6
CONTINUOUS
 62
    7
 10
1157.8105495690149
 20
10011.582808269703
 40
305.59542888809329
 50
128.76110525464975
 51
138.91711914959754
  0
ARC
  8
_0-1_レイヤ___3
  6
CONTINUOUS
 62
    7
 10
1194.9087118357247
 20
9968.0573796324115
 40
362.76505117262718
 50
108.64440299195788
 51
129.02607158712718
  0
ARC
  8
_0-1_レイヤ___3
  6
CONTINUOUS
 62
    7
 10
1216.8508784280348
 20
9912.7376120308472
 40
422.20788163462692
 50
95.984053405987396
 51
109.06580929539724
  0
ARC
  8
_0-1_レイヤ___3
  6
CONTINUOUS
 62
    7
 10
1227.5785063483647
 20
9838.1757922208417
 40
497.49021243479706
 50
89.877171789659343
 51
96.317584188195951
  0
ARC
  8
_0-1_レイヤ___3
  6
CONTINUOUS
 62
    7
 10
1461.1205275955444
 20
10136.604825622167
 40
100.97057184267894
 50
32.64045269263552
 51
35.497301462540818
  0
ARC
  8
_0-1_レイヤ___3
  6
CONTINUOUS
 62
    7
 10
1372.8578834439213
 20
10074.182553779814
 40
209.07582118488511
 50
35.379367881899604
 51
41.384653441116832
  0
ARC
  8
_0-1_レイヤ___3
  6
CONTINUOUS
 62
    7
 10
1299.3223857357139
 20
10011.574447133708
 40
305.64394410371193
 50
41.077031552933875
 51
51.230071912500513
  0
ARC
  8
_0-1_レイヤ___3
  6
CONTINUOUS
 62
    7
 10
1262.2925590569398
 20
9968.1158798433516
 40
362.71881065871497
 50
50.968264813883259
 51
71.34834178087668
  0
ARC
  8
_0-1_レイヤ___3
  6
CONTINUOUS
 62
    7
 10
1240.4215560883235
 20
9913.0129563069768
 40
421.93378546990107
 50
70.92742247026915
 51
84.012376478250189
  0
ARC
  8
_0-1_レイヤ___3
  6
CONTINUOUS
 62
    7
 10
1229.7120159612969
 20
9838.5477853209923
 40
497.11822129585903
 50
83.680048093082036
 51
90.122979514817999
  0
ARC
  8
_0-1_レイヤ___3
  6
CONTINUOUS
 62
    7
 10
2253.2422545972036
 20
10144.758611797966
 40
85.687131946333949
 50
144.22233369227664
 51
147.28839169838002
  0
ARC
  8
_0-1_レイヤ___3
  6
CONTINUOUS
 62
    7
 10
2315.8333631834594
 20
10100.105046321722
 40
162.57352260625362
 50
139.79746805852093
 51
144.35142471936129
  0
ARC
  8
_0-1_レイヤ___3
  6
CONTINUOUS
 62
    7
 10
2372.0551768374298
 20
10053.353656136809
 40
235.69226138958345
 50
128.6456136921831
 51
139.93931621337401
  0
ARC
  8
_0-1_レイヤ___3
  6
CONTINUOUS
 62
    7
 10
2403.8280903157242
 20
10016.650635541526
 40
284.20673230090256
 50
110.99190648966882
 51
129.02750531113188
  0
ARC
  8
_0-1_レイヤ___3
  6
CONTINUOUS
 62
    7
 10
2421.444866532343
 20
9975.747461760342
 40
328.71106836472364
 50
95.239897760050809
 51
111.30471065578642
  0
ARC
  8
_0-1_レイヤ___3
  6
CONTINUOUS
 62
    7
 10
2430.9585345151199
 20
9909.5217797552323
 40
395.54367739998577
 50
89.900565307281113
 51
95.736139487848533
  0
ARC
  8
_0-1_レイヤ___3
  6
CONTINUOUS
 62
    7
 10
2610.0477174027969
 20
10144.758611797966
 40
85.687131946333949
 50
32.711608301619982
 51
35.777666307723365
  0
ARC
  8
_0-1_レイヤ___3
  6
CONTINUOUS
 62
    7
 10
2547.4566088165411
 20
10100.105046321722
 40
162.57352260625362
 50
35.648575280638724
 51
40.202531941479087
  0
ARC
  8
_0-1_レイヤ___3
  6
CONTINUOUS
 62
    7
 10
2491.2347946625705
 20
10053.353651079997
 40
235.69226502682244
 50
40.060684649250895
 51
51.354387170441797
  0
ARC
  8
_0-1_レイヤ___3
  6
CONTINUOUS
 62
    7
 10
2459.4618806842759
 20
10016.650635541524
 40
284.20673230090301
 50
50.972494688868174
 51
69.00809351033125
  0
ARC
  8
_0-1_レイヤ___3
  6
CONTINUOUS
 62
    7
 10
2441.8451049676569
 20
9975.7474653034842
 40
328.71106488205066
 50
68.695289201023982
 51
84.760102096759596
  0
ARC
  8
_0-1_レイヤ___3
  6
CONTINUOUS
 62
    7
 10
2432.3314369848804
 20
9909.5217699453588
 40
395.5436872107112
 50
84.263860582111889
 51
90.099434762679309
  0
ARC
  8
_0-1_レイヤ___3
  6
CONTINUOUS
 62
    7
 10
2754.242247097161
 20
10237.371096519384
 40
85.687121429294223
 50
212.7115979711987
 51
215.77765597730209
  0
ARC
  8
_0-1_レイヤ___3
  6
CONTINUOUS
 62
    7
 10
2816.8333551834594
 20
10282.024680678278
 40
162.57352260625251
 50
215.64857528063823
 51
220.20253194147853
  0
ARC
  8
_0-1_レイヤ___3
  6
CONTINUOUS
 62
    7
 10
2873.05516933743
 20
10328.776075920005
 40
235.69226502682244
 50
220.06068464925087
 51
231.35438717044175
  0
ARC
  8
_0-1_レイヤ___3
  6
CONTINUOUS
 62
    7
 10
2904.8280833157241
 20
10365.479091458477
 40
284.20673230090335
 50
230.97249468886821
 51
249.00809351033132
  0
ARC
  8
_0-1_レイヤ___3
  6
CONTINUOUS
 62
    7
 10
2922.4448590323432
 20
10406.382261696517
 40
328.71106488204964
 50
248.69528920102391
 51
264.76010209675957
  0
ARC
  8
_0-1_レイヤ___3
  6
CONTINUOUS
 62
    7
 10
2931.9585270151197
 20
10472.607957054643
 40
395.54368721071256
 50
264.26386058211187
 51
270.09943476267932
  0
ARC
  8
_0-1_レイヤ___3
  6
CONTINUOUS
 62
    7
 10
3111.0477094028392
 20
10237.371115202039
 40
85.687131946301804
 50
324.22233369225773
 51
327.28839169836107
  0
ARC
  8
_0-1_レイヤ___3
  6
CONTINUOUS
 62
    7
 10
3048.4566008165402
 20
10282.024680678278
 40
162.57352260625143
 50
319.79746805852193
 51
324.35142471936229
  0
ARC
  8
_0-1_レイヤ___3
  6
CONTINUOUS
 62
    7
 10
2992.2347871625702
 20
10328.77607086319
 40
235.69226138958345
 50
308.64561369218313
 51
319.93931621337401
  0
ARC
  8
_0-1_レイヤ___3
  6
CONTINUOUS
 62
    7
 10
2960.4618736842758
 20
10365.479091458477
 40
284.20673230090335
 50
290.99190648966874
 51
309.02750531113179
  0
ARC
  8
_0-1_レイヤ___3
  6
CONTINUOUS
 62
    7
 10
2942.8450974676571
 20
10406.382265239659
 40
328.71106836472256
 50
275.23989776005084
 51
291.30471065578644
  0
ARC
  8
_0-1_レイヤ___3
  6
CONTINUOUS
 62
    7
 10
2933.3314294848797
 20
10472.607947244771
 40
395.54367739998719
 50
269.90056530728117
 51
275.73613948784856
  0
ARC
  8
_0-1_レイヤ___3
  6
CONTINUOUS
 62
    7
 10
3903.1359024184721
 20
10245.502223718282
 40
100.9301022778378
 50
212.6398798239172
 51
215.49787433129242
  0
ARC
  8
_0-1_レイヤ___3
  6
CONTINUOUS
 62
    7
 10
3991.3695716263919
 20
10307.897661200306
 40
208.99618857862353
 50
215.37822275321034
 51
221.3857985698032
  0
ARC
  8
_0-1_レイヤ___3
  6
CONTINUOUS
 62
    7
 10
4064.9105060690144
 20
10370.546924357084
 40
305.59543296261558
 50
221.08288158398483
 51
231.23889547893262
  0
ARC
  8
_0-1_レイヤ___3
  6
CONTINUOUS
 62
    7
 10
4102.0086688357251
 20
10414.07234736759
 40
362.76505117262622
 50
230.97392841287279
 51
251.35559700804208
  0
ARC
  8
_0-1_レイヤ___3
  6
CONTINUOUS
 62
    7
 10
4123.9508354280351
 20
10469.392114969156
 40
422.20788163462777
 50
250.93419070460283
 51
264.01594659401269
  0
ARC
  8
_0-1_レイヤ___3
  6
CONTINUOUS
 62
    7
 10
4134.6784633483649
 20
10543.953934779158
 40
497.49021243479604
 50
263.68241581180405
 51
270.12282821034069
  0
ARC
  8
_0-1_レイヤ___3
  6
CONTINUOUS
 62
    7
 10
4368.2204845955894
 20
10245.524901377848
 40
100.97057184265014
 50
324.50269853743714
 51
327.35954730734244
  0
ARC
  8
_0-1_レイヤ___3
  6
CONTINUOUS
 62
    7
 10
4279.9578399439215
 20
10307.947182752338
 40
209.07582711155086
 50
318.61534450837905
 51
324.62063006759627
  0
ARC
  8
_0-1_レイヤ___3
  6
CONTINUOUS
 62
    7
 10
4206.4223422357136
 20
10370.555274237853
 40
305.6439400285019
 50
308.76992882127729
 51
318.92296918084389
  0
ARC
  8
_0-1_レイヤ___3
  6
CONTINUOUS
 62
    7
 10
4169.3925160569397
 20
10414.01384715665
 40
362.71881065871611
 50
288.65165821912319
 51
309.03173518611663
  0
ARC
  8
_0-1_レイヤ___3
  6
CONTINUOUS
 62
    7
 10
4147.5215130883234
 20
10469.116770693026
 40
421.93378546990107
 50
275.98762352174981
 51
289.07257752973084
  0
ARC
  8
_0-1_レイヤ___3
  6
CONTINUOUS
 62
    7
 10
4136.8119729612963
 20
10543.581941679005
 40
497.11822129585721
 50
269.87702048518202
 51
276.31995190691805
  0
ARC
  8
_0-1_レイヤ___3
  6
CONTINUOUS
 62
    7
 10
3268.0773129267836
 20
10136.864055111695
 40
100.75331131326293
 50
144.59559624777279
 51
147.45542393480272
  0
ARC
  8
_0-1_レイヤ___3
  6
CONTINUOUS
 62
    7
 10
3356.2484252304803
 20
10074.411363475112
 40
208.80176608438552
 50
138.63276352575616
 51
144.64423277713306
  0
ARC
  8
_0-1_レイヤ___3
  6
CONTINUOUS
 62
    7
 10
3429.7374105803892
 20
10011.8442922704
 40
305.30820552446175
 50
128.77234981341056
 51
138.93522570002384
  0
ARC
  8
_0-1_レイヤ___3
  6
CONTINUOUS
 62
    7
 10
3466.8369067735489
 20
9968.371577944823
 40
362.43800299241201
 50
108.64653575148515
 51
129.04116467412436
  0
ARC
  8
_0-1_レイヤ___3
  6
CONTINUOUS
 62
    7
 10
3488.8272077596912
 20
9912.9762153736719
 40
421.96811429374492
 50
95.984239010059753
 51
109.07079207541342
  0
ARC
  8
_0-1_レイヤ___3
  6
CONTINUOUS
 62
    7
 10
3499.5756037211731
 20
9838.2288048303435
 40
497.43720610568312
 50
89.876828286418601
 51
96.317927691436694
  0
ARC
  8
_0-1_レイヤ___3
  6
CONTINUOUS
 62
    7
 10
3733.2126270732165
 20
10136.864055111695
 40
100.75331131326293
 50
32.544576065197333
 51
35.404403752227225
  0
ARC
  8
_0-1_レイヤ___3
  6
CONTINUOUS
 62
    7
 10
3645.0415147695194
 20
10074.411363475116
 40
208.8017660843839
 50
35.355767222866348
 51
41.367236474243263
  0
ARC
  8
_0-1_レイヤ___3
  6
CONTINUOUS
 62
    7
 10
3571.5525289196112
 20
10011.844286647438
 40
305.30820959523646
 50
41.064775033949537
 51
51.227650920562823
  0
ARC
  8
_0-1_レイヤ___3
  6
CONTINUOUS
 62
    7
 10
3534.4530327264515
 20
9968.3715807244535
 40
362.43800051855209
 50
50.958835110488486
 51
71.353464033127693
  0
ARC
  8
_0-1_レイヤ___3
  6
CONTINUOUS
 62
    7
 10
3512.4627317403092
 20
9912.9762110145057
 40
421.96811857702875
 50
70.929208053815913
 51
84.015761119169582
  0
ARC
  8
_0-1_レイヤ___3
  6
CONTINUOUS
 62
    7
 10
3501.7143352788275
 20
9838.2288048303417
 40
497.43720610568568
 50
83.682072308563335
 51
90.123171713581428
  0
ARC
  8
_0-1_レイヤ___3
  6
CONTINUOUS
 62
    7
 10
4525.3422205972038
 20
10144.758611797966
 40
85.687131946333949
 50
144.22233369227664
 51
147.28839169838002
  0
ARC
  8
_0-1_レイヤ___3
  6
CONTINUOUS
 62
    7
 10
4587.9333291834591
 20
10100.105046321731
 40
162.57352260624702
 50
139.79746805852392
 51
144.35142471936422
  0
ARC
  8
_0-1_レイヤ___3
  6
CONTINUOUS
 62
    7
 10
4644.1551428374296
 20
10053.353656136806
 40
235.69226138958658
 50
128.64561369218237
 51
139.93931621337327
  0
ARC
  8
_0-1_レイヤ___3
  6
CONTINUOUS
 62
    7
 10
4675.9280563157245
 20
10016.650635541526
 40
284.20673230090256
 50
110.99190648966882
 51
129.02750531113188
  0
ARC
  8
_0-1_レイヤ___3
  6
CONTINUOUS
 62
    7
 10
4693.5448325323432
 20
9975.7474617603439
 40
328.71106836472171
 50
95.23989776005088
 51
111.30471065578651
  0
ARC
  8
_0-1_レイヤ___3
  6
CONTINUOUS
 62
    7
 10
4703.0585005151197
 20
9909.5217797552341
 40
395.54367739998446
 50
89.900565307281141
 51
95.736139487848547
  0
ARC
  8
_0-1_レイヤ___3
  6
CONTINUOUS
 62
    7
 10
4882.0522574000679
 20
10144.69365161669
 40
85.802528749314291
 50
32.713670581035714
 51
35.775604028307619
  0
ARC
  8
_0-1_レイヤ___3
  6
CONTINUOUS
 62
    7
 10
4819.3771080191218
 20
10099.843182261238
 40
162.87201205520404
 50
35.686637311100895
 51
40.234408467315632
  0
ARC
  8
_0-1_レイヤ___3
  6
CONTINUOUS
 62
    7
 10
4763.1075883337526
 20
10053.040033641475
 40
236.0603457731514
 50
40.085019287030654
 51
51.364546888739838
  0
ARC
  8
_0-1_レイヤ___3
  6
CONTINUOUS
 62
    7
 10
4730.5795676090074
 20
10015.304495598168
 40
285.85213691888589
 50
50.994118672633938
 51
70.768553175550778
  0
ARC
  8
_0-1_レイヤ___3
  6
CONTINUOUS
 62
    7
 10
4712.3525075039561
 20
9969.9544809317631
 40
334.68285969358885
 50
70.379545261701679
 51
85.909701547331878
  0
ARC
  8
_0-1_レイヤ___3
  6
CONTINUOUS
 62
    7
 10
4704.1991048106629
 20
9903.8590017582137
 40
401.2061167858443
 50
85.42155502647617
 51
90.06485712062026
  0
ARC
  8
_0-1_レイヤ___3
  6
CONTINUOUS
 62
    7
 10
5026.3422135971605
 20
10237.371115202033
 40
85.68713194629882
 50
212.71160830163598
 51
215.77766630773931
  0
ARC
  8
_0-1_レイヤ___3
  6
CONTINUOUS
 62
    7
 10
5088.9333216834584
 20
10282.024668103368
 40
162.57351487113877
 50
215.6485717820467
 51
220.20252844288706
  0
ARC
  8
_0-1_レイヤ___3
  6
CONTINUOUS
 62
    7
 10
5145.1551353374289
 20
10328.776075920005
 40
235.69226502682301
 50
220.06068464925102
 51
231.35438717044192
  0
ARC
  8
_0-1_レイヤ___3
  6
CONTINUOUS
 62
    7
 10
5176.9280493157239
 20
10365.479091458476
 40
284.20673230090256
 50
230.97249468886812
 51
249.00809351033121
  0
ARC
  8
_0-1_レイヤ___3
  6
CONTINUOUS
 62
    7
 10
5194.5448255323436
 20
10406.382265239663
 40
328.71106836472558
 50
248.69528934421365
 51
264.76010223994922
  0
ARC
  8
_0-1_レイヤ___3
  6
CONTINUOUS
 62
    7
 10
5204.0584935151201
 20
10472.607947244769
 40
395.54367739998446
 50
264.26386051215144
 51
270.09943469271889
  0
ARC
  8
_0-1_レイヤ___3
  6
CONTINUOUS
 62
    7
 10
5383.010595812525
 20
10237.39635671735
 40
85.731971558112647
 50
324.22313568968741
 51
327.28758970092554
  0
ARC
  8
_0-1_レイヤ___3
  6
CONTINUOUS
 62
    7
 10
5320.3920047659221
 20
10282.074987124006
 40
162.65530541513715
 50
319.79861352195286
 51
324.35027925592726
  0
ARC
  8
_0-1_レイヤ___3
  6
CONTINUOUS
 62
    7
 10
5264.1763201103695
 20
10328.790502511083
 40
235.74627358302268
 50
308.65641323357409
 51
319.94577183701176
  0
ARC
  8
_0-1_レイヤ___3
  6
CONTINUOUS
 62
    7
 10
5231.6520412381888
 20
10366.508648598377
 40
285.52275923748948
 50
289.23484954955984
 51
309.02520763831461
  0
ARC
  8
_0-1_レイヤ___3
  6
CONTINUOUS
 62
    7
 10
5213.3728799628461
 20
10411.957220456572
 40
334.46393574591821
 50
274.08948010602842
 51
289.62648034847984
  0
ARC
  8
_0-1_レイヤ___3
  6
CONTINUOUS
 62
    7
 10
5205.2006565325382
 20
10478.231147655228
 40
401.16654099227435
 50
269.93491385974318
 51
274.57867413198187
  0
ARC
  8
_0-1_レイヤ___3
  6
CONTINUOUS
 62
    7
 10
6175.1772699267367
 20
10245.265671888299
 40
100.75331131322194
 50
212.54457606520916
 51
215.40440375223903
  0
ARC
  8
_0-1_レイヤ___3
  6
CONTINUOUS
 62
    7
 10
6263.3483817304796
 20
10307.718354002554
 40
208.80176016648289
 50
215.35576517119864
 51
221.36723442257551
  0
ARC
  8
_0-1_レイヤ___3
  6
CONTINUOUS
 62
    7
 10
6336.8373670803885
 20
10370.285440352563
 40
305.30820959523527
 50
221.06477503394933
 51
231.22765092056261
  0
ARC
  8
_0-1_レイヤ___3
  6
CONTINUOUS
 62
    7
 10
6373.9368632735477
 20
10413.758146275548
 40
362.43800051855146
 50
230.95883511048842
 51
251.35346403312761
  0
ARC
  8
_0-1_レイヤ___3
  6
CONTINUOUS
 62
    7
 10
6395.9271642596905
 20
10469.153515985501
 40
421.96811857703369
 50
250.92920805381604
 51
264.01576111916972
  0
ARC
  8
_0-1_レイヤ___3
  6
CONTINUOUS
 62
    7
 10
6406.6755607211735
 20
10543.900922169661
 40
497.43720610568812
 50
263.68207230856331
 51
270.12317171358143
  0
ARC
  8
_0-1_レイヤ___3
  6
CONTINUOUS
 62
    7
 10
6640.3125830732624
 20
10245.265671888299
 40
100.75331131322194
 50
324.59559624776091
 51
327.45542393479082
  0
ARC
  8
_0-1_レイヤ___3
  6
CONTINUOUS
 62
    7
 10
6552.1414712695196
 20
10307.718354002558
 40
208.80176016648622
 50
318.63276557742324
 51
324.64423482880017
  0
ARC
  8
_0-1_レイヤ___3
  6
CONTINUOUS
 62
    7
 10
6478.6524859196106
 20
10370.285440352563
 40
305.30820959523527
 50
308.77234907943739
 51
318.93522496605067
  0
ARC
  8
_0-1_レイヤ___3
  6
CONTINUOUS
 62
    7
 10
6441.5529897264514
 20
10413.758146275548
 40
362.43800051855146
 50
288.64653596687236
 51
309.04116488951161
  0
ARC
  8
_0-1_レイヤ___3
  6
CONTINUOUS
 62
    7
 10
6419.5626887403087
 20
10469.153515985501
 40
421.96811857703369
 50
275.98423888083028
 51
289.07079194618393
  0
ARC
  8
_0-1_レイヤ___3
  6
CONTINUOUS
 62
    7
 10
6408.8142922788284
 20
10543.900922169647
 40
497.43720610567294
 50
269.87682828641869
 51
276.31792769143681
  0
ARC
  8
_0-1_レイヤ___3
  6
CONTINUOUS
 62
    7
 10
5540.1358774185173
 20
10136.627503281741
 40
100.93010227786282
 50
144.50212566873279
 51
147.36012017610801
  0
ARC
  8
_0-1_レイヤ___3
  6
CONTINUOUS
 62
    7
 10
5628.3695471263927
 20
10074.232056271167
 40
208.99619450304266
 50
138.6141993796889
 51
144.62177519628176
  0
ARC
  8
_0-1_レイヤ___3
  6
CONTINUOUS
 62
    7
 10
5701.9104815690162
 20
10011.582808269701
 40
305.59542888809415
 50
128.76110525464961
 51
138.91711914959737
  0
ARC
  8
_0-1_レイヤ___3
  6
CONTINUOUS
 62
    7
 10
5739.008644335725
 20
9968.0573768509767
 40
362.76505364824754
 50
108.64440277668834
 51
129.02607137185763
  0
ARC
  8
_0-1_レイヤ___3
  6
CONTINUOUS
 62
    7
 10
5760.9508109280341
 20
9912.7376163916269
 40
422.2078773497347
 50
95.984053535164293
 51
109.06580942457414
  0
ARC
  8
_0-1_レイヤ___3
  6
CONTINUOUS
 62
    7
 10
5771.6784383483646
 20
9838.1757922208435
 40
497.49021243479604
 50
89.877171789659343
 51
96.317584188195951
  0
ARC
  8
_0-1_レイヤ___3
  6
CONTINUOUS
 62
    7
 10
6005.2204605955449
 20
10136.604825622162
 40
100.97057184268152
 50
32.640452692637687
 51
35.497301462542985
  0
ARC
  8
_0-1_レイヤ___3
  6
CONTINUOUS
 62
    7
 10
5916.9578159439207
 20
10074.182544247664
 40
209.07582711155086
 50
35.379369932403741
 51
41.384655491620954
  0
ARC
  8
_0-1_レイヤ___3
  6
CONTINUOUS
 62
    7
 10
5843.4223182357146
 20
10011.574452762146
 40
305.6439400285019
 50
41.077030819156093
 51
51.230071178722717
  0
ARC
  8
_0-1_レイヤ___3
  6
CONTINUOUS
 62
    7
 10
5806.3924915569396
 20
9968.115877061693
 40
362.71881313437632
 50
50.968265029241266
 51
71.34834199623468
  0
ARC
  8
_0-1_レイヤ___3
  6
CONTINUOUS
 62
    7
 10
5784.5214885883233
 20
9913.0129606666815
 40
421.93378118613651
 50
70.927422340987263
 51
84.012376348968317
  0
ARC
  8
_0-1_レイヤ___3
  6
CONTINUOUS
 62
    7
 10
5773.8119484612971
 20
9838.5477764375537
 40
497.11823018035136
 50
83.680048148512199
 51
90.122979570248148
  0
ARC
  8
_0-1_レイヤ___3
  6
CONTINUOUS
 62
    7
 10
6797.3421865972032
 20
10144.758611797955
 40
85.687131946339932
 50
144.22233369227075
 51
147.28839169837414
  0
ARC
  8
_0-1_レイヤ___3
  6
CONTINUOUS
 62
    7
 10
6859.9332951834594
 20
10100.105046321725
 40
162.57352260625143
 50
139.79746805852193
 51
144.35142471936226
  0
ARC
  8
_0-1_レイヤ___3
  6
CONTINUOUS
 62
    7
 10
6916.1551093374292
 20
10053.353651079999
 40
235.69226502682088
 50
128.64561282955856
 51
139.93931535074944
  0
ARC
  8
_0-1_レイヤ___3
  6
CONTINUOUS
 62
    7
 10
6947.9280228157231
 20
10016.650638692066
 40
284.20672953857724
 50
110.9919068113105
 51
129.0275056327736
  0
ARC
  8
_0-1_レイヤ___3
  6
CONTINUOUS
 62
    7
 10
6965.5447985323426
 20
9975.7474617603402
 40
328.71106836472558
 50
95.239897760050738
 51
111.30471065578634
  0
ARC
  8
_0-1_レイヤ___3
  6
CONTINUOUS
 62
    7
 10
6975.0584670151202
 20
9909.5217699453515
 40
395.54368721071808
 50
89.900565237320635
 51
95.736139417888069
  0
ARC
  8
_0-1_レイヤ___3
  6
CONTINUOUS
 62
    7
 10
7154.1476494027975
 20
10144.758611797955
 40
85.687131946339932
 50
32.711608301625859
 51
35.777666307729241
  0
ARC
  8
_0-1_レイヤ___3
  6
CONTINUOUS
 62
    7
 10
7091.5565408165412
 20
10100.105046321725
 40
162.57352260625143
 50
35.648575280637729
 51
40.202531941478085
  0
ARC
  8
_0-1_レイヤ___3
  6
CONTINUOUS
 62
    7
 10
7035.3347266625697
 20
10053.353651079993
 40
235.69226502682505
 50
40.060684649251506
 51
51.354387170442415
  0
ARC
  8
_0-1_レイヤ___3
  6
CONTINUOUS
 62
    7
 10
7003.5618131842766
 20
10016.650638692066
 40
284.20672953857724
 50
50.972494367226425
 51
69.008093188689486
  0
ARC
  8
_0-1_レイヤ___3
  6
CONTINUOUS
 62
    7
 10
6985.945037467658
 20
9975.7474617603439
 40
328.71106836472171
 50
68.695289344213506
 51
84.760102239949134
  0
ARC
  8
_0-1_レイヤ___3
  6
CONTINUOUS
 62
    7
 10
6976.4313694848806
 20
9909.5217797552341
 40
395.54367739998446
 50
84.263860512151453
 51
90.099434692718873
  0
LINE
  8
_0-1_レイヤ___3
  6
CONTINUOUS
 62
    7
 10
1116.2543536622891
 20
916.79569996978921
 11
1200.2543536622888
 21
712.99570196978925
  0
LINE
  8
_0-1_レイヤ___3
  6
CONTINUOUS
 62
    7
 10
1200.2543536622888
 20
712.99570196978925
 11
1247.054351662289
 21
712.99570196978925
  0
LINE
  8
_0-1_レイヤ___3
  6
CONTINUOUS
 62
    7
 10
1775.2543436622889
 20
760.9957019697888
 11
1826.6543436622892
 21
640.59570396978893
  0
LINE
  8
_0-1_レイヤ___3
  6
CONTINUOUS
 62
    7
 10
1826.6543436622892
 20
640.59570396978893
 11
1866.854343662289
 21
640.59570396978893
  0
LINE
  8
_0-1_レイヤ___3
  6
CONTINUOUS
 62
    7
 10
1344.8543516622888
 20
1087.5956979697892
 11
1423.6543496622885
 21
902.19569996978885
  0
LINE
  8
_0-1_レイヤ___3
  6
CONTINUOUS
 62
    7
 10
1423.6543496622885
 20
902.19569996978885
 11
1461.4543496622889
 21
902.19569996978885
  0
LINE
  8
_0-1_レイヤ___3
  6
CONTINUOUS
 62
    7
 10
1388.2543496622886
 20
1142.7956959697892
 11
1457.2543496622889
 21
979.99569796978926
  0
LINE
  8
_0-1_レイヤ___3
  6
CONTINUOUS
 62
    7
 10
1457.2543496622889
 20
979.99569796978926
 11
1494.8543476622888
 21
979.99569796978926
  0
LINE
  8
_0-1_レイヤ___3
  6
CONTINUOUS
 62
    7
 10
997.45435566228866
 20
782.19570196978884
 11
1048.8543556622888
 21
661.79570396978897
  0
LINE
  8
_0-1_レイヤ___3
  6
CONTINUOUS
 62
    7
 10
1048.8543556622888
 20
661.79570396978897
 11
1089.054353662289
 21
661.79570396978897
  0
LINE
  8
_0-1_レイヤ___3
  6
CONTINUOUS
 62
    7
 10
933.25435766228895
 20
963.59569996978939
 11
933.25435766228895
 21
472.19570596978906
  0
ARC
  8
_0-1_レイヤ___3
  6
CONTINUOUS
 62
    7
 10
991.75103211017347
 20
1277.5274036450505
 40
15.134617755699001
 50
245.49811645922739
 51
268.87678714911351
  0
ARC
  8
_0-1_レイヤ___3
  6
CONTINUOUS
 62
    7
 10
989.27294217321094
 20
1271.8572238273671
 40
8.9478514468105939
 50
216.65264582276146
 51
244.87939971370835
  0
ARC
  8
_0-1_レイヤ___3
  6
CONTINUOUS
 62
    7
 10
987.00077951832259
 20
1269.7861039935915
 40
5.8964885125677053
 50
147.02163832134485
 51
213.68570799714647
  0
ARC
  8
_0-1_レイヤ___3
  6
CONTINUOUS
 62
    7
 10
996.38911687245195
 20
1264.2377953391804
 40
16.798397762179764
 50
96.270491913125127
 51
148.57693386783174
  0
ARC
  8
_0-1_レイヤ___3
  6
CONTINUOUS
 62
    7
 10
995.35559285527643
 20
1271.9334208779878
 40
9.0378593626364339
 50
55.656295356651022
 51
95.086144390895541
  0
ARC
  8
_0-1_レイヤ___3
  6
CONTINUOUS
 62
    7
 10
994.4891352451923
 20
1271.5830196841578
 40
9.8296355028002278
 50
345.70351619411684
 51
52.637137500210464
  0
ARC
  8
_0-1_レイヤ___3
  6
CONTINUOUS
 62
    7
 10
995.51413174267896
 20
1272.0879036077131
 40
8.9917551147841763
 50
297.27246380719163
 51
340.96778001783736
  0
ARC
  8
_0-1_レイヤ___3
  6
CONTINUOUS
 62
    7
 10
993.18688706125999
 20
1275.9523315351867
 40
13.496284885791692
 50
275.38872547016661
 51
298.53671020934729
  0
ARC
  8
_0-1_レイヤ___3
  6
CONTINUOUS
 62
    7
 10
992.13238128406442
 20
1283.0050534254472
 40
20.620509594001266
 50
268.11571047903573
 51
276.46550960623057
  0
ARC
  8
_0-1_レイヤ___3
  6
CONTINUOUS
 62
    7
 10
1003.6718472996229
 20
1155.9727616587461
 40
44.790677096418356
 50
218.98252032236624
 51
239.96727269012618
  0
ARC
  8
_0-1_レイヤ___3
  6
CONTINUOUS
 62
    7
 10
970.62884562609167
 20
1129.4570536341612
 40
2.4308278261953449
 50
186.64663290055034
 51
223.11410081781557
  0
ARC
  8
_0-1_レイヤ___3
  6
CONTINUOUS
 62
    7
 10
969.03108831262909
 20
1129.2159930083667
 40
0.8177261604291512
 50
134.85283580612548
 51
182.82464456022387
  0
ARC
  8
_0-1_レイヤ___3
  6
CONTINUOUS
 62
    7
 10
969.77537085166705
 20
1128.2536655910346
 40
2.0305021102105494
 50
102.54434326510436
 51
130.58575908909603
  0
ARC
  8
_0-1_レイヤ___3
  6
CONTINUOUS
 62
    7
 10
966.49912357104756
 20
1144.1198458947347
 40
14.170679593779784
 50
281.54148257593067
 51
291.94245819463526
  0
ARC
  8
_0-1_レイヤ___3
  6
CONTINUOUS
 62
    7
 10
971.2929905786574
 20
1131.6308898291029
 40
0.8250126910343007
 50
307.42380913384164
 51
43.204391187162521
  0
ARC
  8
_0-1_レイヤ___3
  6
CONTINUOUS
 62
    7
 10
967.81489467554263
 20
1129.665424579508
 40
4.8004453179740265
 50
31.809113437758345
 51
40.698562037143013
  0
ARC
  8
_0-1_レイヤ___3
  6
CONTINUOUS
 62
    7
 10
990.81764837178514
 20
753.85846963620315
 40
379.43162573241705
 50
91.278098972449087
 51
92.925209682895627
  0
ARC
  8
_0-1_レイヤ___3
  6
CONTINUOUS
 62
    7
 10
981.31119549966809
 20
1124.4489788288151
 40
8.8087027347440046
 50
58.95185622301539
 51
83.198854944866454
  0
ARC
  8
_0-1_レイヤ___3
  6
CONTINUOUS
 62
    7
 10
977.20662868172963
 20
1119.4934753098685
 40
15.201601999777255
 50
21.868354208776093
 51
55.328573310926217
  0
ARC
  8
_0-1_レイヤ___3
  6
CONTINUOUS
 62
    7
 10
983.06427978582531
 20
1122.3011564124035
 40
8.7299569330028994
 50
309.81662388295388
 51
19.085702596116541
  0
ARC
  8
_0-1_レイヤ___3
  6
CONTINUOUS
 62
    7
 10
986.68258376799554
 20
1118.1217139495291
 40
3.2044736287097546
 50
255.76039736039661
 51
307.97506643473412
  0
ARC
  8
_0-1_レイヤ___3
  6
CONTINUOUS
 62
    7
 10
987.58528672398666
 20
1123.057495422004
 40
8.2176508982227254
 50
243.93365559398117
 51
258.12552878906081
  0
ARC
  8
_0-1_レイヤ___3
  6
CONTINUOUS
 62
    7
 10
995.92890406044728
 20
1140.2617299454337
 40
27.338330125585237
 50
237.5355918479068
 51
244.0694360599488
  0
ARC
  8
_0-1_レイヤ___3
  6
CONTINUOUS
 62
    7
 10
1115.0984964584668
 20
1261.5625015981482
 40
2.2270963052333865
 50
270.92252643532305
 51
307.50281719904086
  0
ARC
  8
_0-1_レイヤ___3
  6
CONTINUOUS
 62
    7
 10
1115.1770571883624
 20
1260.4521824323656
 40
1.1173048277913118
 50
226.95065524673785
 51
267.80961485718137
  0
ARC
  8
_0-1_レイヤ___3
  6
CONTINUOUS
 62
    7
 10
1100.1112409195234
 20
1247.603815576073
 40
18.690776650889195
 50
40.070781223237397
 51
47.100372353954704
  0
ARC
  8
_0-1_レイヤ___3
  6
CONTINUOUS
 62
    7
 10
1112.8694759890207
 20
1260.3902291282063
 40
0.9061457703799159
 50
92.221348234255728
 51
117.2657774386519
  0
ARC
  8
_0-1_レイヤ___3
  6
CONTINUOUS
 62
    7
 10
1117.542340997963
 20
1262.8372541513013
 40
5.3462449399095835
 50
173.14146414942536
 51
197.88149068261114
  0
ARC
  8
_0-1_レイヤ___3
  6
CONTINUOUS
 62
    7
 10
1114.2444595080879
 20
1263.1451040008599
 40
2.0371095304062972
 50
108.61041058643198
 51
170.66051626737391
  0
ARC
  8
_0-1_レイヤ___3
  6
CONTINUOUS
 62
    7
 10
1067.4764211261581
 20
1378.3245337431129
 40
122.27903913349604
 50
292.15745723682721
 51
293.50985111900297
  0
ARC
  8
_0-1_レイヤ___3
  6
CONTINUOUS
 62
    7
 10
1117.0694015958773
 20
1264.4209956694326
 40
1.9529099291403162
 50
47.27734803056525
 51
114.66742606802119
  0
ARC
  8
_0-1_レイヤ___3
  6
CONTINUOUS
 62
    7
 10
1114.4410679011812
 20
1261.5064720225969
 40
5.8774313994224601
 50
22.922993733113458
 51
47.730295402073104
  0
ARC
  8
_0-1_レイヤ___3
  6
CONTINUOUS
 62
    7
 10
1112.9090412525411
 20
1261.4664752348315
 40
7.3254777580901127
 50
0.3849642435531588
 51
18.539680172491114
  0
ARC
  8
_0-1_レイヤ___3
  6
CONTINUOUS
 62
    7
 10
1118.2551815427364
 20
1261.3707586708722
 40
1.9844718490532556
 50
323.69171643048941
 51
4.1883089552044694
  0
ARC
  8
_0-1_レイヤ___3
  6
CONTINUOUS
 62
    7
 10
1118.9786783589486
 20
1261.6505347917596
 40
1.6980486018226197
 50
266.47764404394951
 51
301.04392617966164
  0
ARC
  8
_0-1_レイヤ___3
  6
CONTINUOUS
 62
    7
 10
1118.0057959282485
 20
1254.7113796971425
 40
5.3157525081256889
 50
80.59609596367649
 51
106.96919492951218
  0
ARC
  8
_0-1_レイヤ___3
  6
CONTINUOUS
 62
    7
 10
1053.7805589566133
 20
1199.3273639437266
 40
3.0627401222134729
 50
188.85891765422627
 51
214.42995262717793
  0
ARC
  8
_0-1_レイヤ___3
  6
CONTINUOUS
 62
    7
 10
1055.1274668656577
 20
1199.7691495998256
 40
4.46749360729883
 50
150.10657462935816
 51
191.79828137084445
  0
ARC
  8
_0-1_レイヤ___3
  6
CONTINUOUS
 62
    7
 10
1053.5008145303625
 20
1198.3230094465976
 40
4.3052530405978704
 50
40.092541884892754
 51
121.45272372653365
  0
ARC
  8
_0-1_レイヤ___3
  6
CONTINUOUS
 62
    7
 10
1053.5559746000822
 20
1199.0954733765964
 40
3.8063108551952842
 50
336.79488956926116
 51
31.702019489464313
  0
ARC
  8
_0-1_レイヤ___3
  6
CONTINUOUS
 62
    7
 10
1054.5638643502584
 20
1198.5068662829074
 40
2.6519385955954462
 50
255.82298562255357
 51
339.90446537029032
  0
ARC
  8
_0-1_レイヤ___3
  6
CONTINUOUS
 62
    7
 10
1055.3044155251387
 20
1201.1243461114636
 40
5.3716251465463314
 50
221.06429401428542
 51
255.00241863754152
  0
ARC
  8
_0-1_レイヤ___3
  6
CONTINUOUS
 62
    7
 10
1127.8353338517743
 20
1123.8313377554946
 40
4.0535848982490474
 50
145.01177693557253
 51
264.60703981534238
  0
ARC
  8
_0-1_レイヤ___3
  6
CONTINUOUS
 62
    7
 10
1125.994913616071
 20
1124.5079360475186
 40
2.2152134294882373
 50
109.53036400923041
 51
131.94061139458168
  0
ARC
  8
_0-1_レイヤ___3
  6
CONTINUOUS
 62
    7
 10
1127.2507556520607
 20
1122.132557157681
 40
4.8892973892891831
 50
31.616730507279147
 51
114.09939581022293
  0
ARC
  8
_0-1_レイヤ___3
  6
CONTINUOUS
 62
    7
 10
1119.7788910195759
 20
1116.4682887453821
 40
14.250411241300888
 50
24.225725200798792
 51
35.264037393084166
  0
ARC
  8
_0-1_レイヤ___3
  6
CONTINUOUS
 62
    7
 10
1105.2872923187801
 20
1109.8273039657502
 40
30.19103304208646
 50
18.877917299928306
 51
24.434060776911188
  0
ARC
  8
_0-1_レイヤ___3
  6
CONTINUOUS
 62
    7
 10
1132.4112044852184
 20
1175.914922303426
 40
56.337713251131674
 50
264.95232718232455
 51
271.46785160117651
  0
ARC
  8
_0-1_レイヤ___3
  6
CONTINUOUS
 62
    7
 10
1003.9273817723075
 20
1225.7226698597699
 40
3.7291361929191047
 50
271.95124931877325
 51
358.0487506812313
  0
ARC
  8
_0-1_レイヤ___3
  6
CONTINUOUS
 62
    7
 10
1003.9273817723075
 20
1225.4687220798078
 40
3.7291361929191047
 50
1.9512493187687165
 51
88.048750681226778
  0
ARC
  8
_0-1_レイヤ___3
  6
CONTINUOUS
 62
    7
 10
1004.1813295522702
 20
1225.4687220798078
 40
3.7291361929192517
 50
91.951249318770977
 51
178.04875068122902
  0
ARC
  8
_0-1_レイヤ___3
  6
CONTINUOUS
 62
    7
 10
1004.1813295522702
 20
1225.7226698597699
 40
3.7291361929192517
 50
181.95124931877098
 51
268.04875068122902
  0
ARC
  8
_0-1_レイヤ___3
  6
CONTINUOUS
 62
    7
 10
1077.8551798737592
 20
1301.9893599922893
 40
3.5991813619221125
 50
273.17232271934927
 51
0.1008313638814824
  0
ARC
  8
_0-1_レイヤ___3
  6
CONTINUOUS
 62
    7
 10
1077.7326990493386
 20
1301.8863516131139
 40
3.7232625069524756
 50
1.6828672190446552
 51
85.043978697715559
  0
ARC
  8
_0-1_レイヤ___3
  6
CONTINUOUS
 62
    7
 10
1078.1813295522702
 20
1301.8687200798076
 40
3.7291361929192517
 50
91.951249318770977
 51
178.04875068122902
  0
ARC
  8
_0-1_レイヤ___3
  6
CONTINUOUS
 62
    7
 10
1078.18132955227
 20
1302.1226678597704
 40
3.7291361929189577
 50
181.9512493187755
 51
268.04875068123351
  0
ARC
  8
_0-1_レイヤ___3
  6
CONTINUOUS
 62
    7
 10
956.32738177230738
 20
1159.32266985977
 40
3.7291361929192517
 50
271.95124931877098
 51
358.04875068122902
  0
ARC
  8
_0-1_レイヤ___3
  6
CONTINUOUS
 62
    7
 10
956.53395479345636
 20
1159.0740950498482
 40
3.5225003990074004
 50
1.9783117875362097
 51
91.294842295703631
  0
ARC
  8
_0-1_レイヤ___3
  6
CONTINUOUS
 62
    7
 10
956.50329060054833
 20
1158.9380022992398
 40
3.6580209971727107
 50
90.766493430985605
 51
175.96038426484859
  0
ARC
  8
_0-1_レイヤ___3
  6
CONTINUOUS
 62
    7
 10
956.58133055226995
 20
1159.3226687892295
 40
3.729135157048145
 50
181.95123340327089
 51
268.04873476572897
  0
ARC
  8
_0-1_レイヤ___3
  6
CONTINUOUS
 62
    7
 10
1051.5450133056142
 20
1101.7173545827391
 40
3.7232625069521825
 50
271.68286721903985
 51
355.04397869771077
  0
ARC
  8
_0-1_レイヤ___3
  6
CONTINUOUS
 62
    7
 10
1051.5273828428483
 20
1101.2687230798074
 40
3.7291351570482929
 50
1.951265234268764
 51
88.048766596726821
  0
ARC
  8
_0-1_レイヤ___3
  6
CONTINUOUS
 62
    7
 10
1051.7813284817291
 20
1101.2687230798074
 40
3.7291351570481464
 50
91.951233403275467
 51
178.04873476573351
  0
ARC
  8
_0-1_レイヤ___3
  6
CONTINUOUS
 62
    7
 10
1051.6480216847888
 20
1101.594873758319
 40
3.5991813619219784
 50
183.17232271935632
 51
270.10083136388852
  0
ARC
  8
_0-1_レイヤ___3
  6
CONTINUOUS
 62
    7
 10
1107.9450113056137
 20
1185.7173525827388
 40
3.7232625069527696
 50
271.68286721904946
 51
355.04397869772032
  0
ARC
  8
_0-1_レイヤ___3
  6
CONTINUOUS
 62
    7
 10
1107.9273797723074
 20
1185.268722079808
 40
3.7291361929192517
 50
1.9512493187709792
 51
88.048750681228995
  0
ARC
  8
_0-1_レイヤ___3
  6
CONTINUOUS
 62
    7
 10
1108.1813275522702
 20
1185.268722079808
 40
3.7291361929192517
 50
91.951249318770977
 51
178.04875068122902
  0
ARC
  8
_0-1_レイヤ___3
  6
CONTINUOUS
 62
    7
 10
1108.0480196847891
 20
1185.594871758319
 40
3.5991813619226964
 50
183.17232271934901
 51
270.10083136388118
  0
ARC
  8
_0-1_レイヤ___3
  6
CONTINUOUS
 62
    7
 10
1197.3504743604374
 20
1174.6798764336622
 40
15.087086787533826
 50
244.91598867056973
 51
268.87535904002743
  0
ARC
  8
_0-1_レイヤ___3
  6
CONTINUOUS
 62
    7
 10
1194.8650667495262
 20
1169.1245516744746
 40
9.0026228228276395
 50
216.13579330981369
 51
244.25306450565881
  0
ARC
  8
_0-1_レイヤ___3
  6
CONTINUOUS
 62
    7
 10
1192.6056255276164
 20
1167.1171972332913
 40
6.0010629309426653
 50
149.13665206828
 51
213.37749276335066
  0
ARC
  8
_0-1_レイヤ___3
  6
CONTINUOUS
 62
    7
 10
1202.1470932659372
 20
1160.8312265588788
 40
17.42325699771721
 50
96.104211324551983
 51
147.48845695606454
  0
ARC
  8
_0-1_レイヤ___3
  6
CONTINUOUS
 62
    7
 10
1200.9620703276212
 20
1169.2072651956314
 40
8.9733081338522407
 50
55.424458828176043
 51
94.267405071197345
  0
ARC
  8
_0-1_レイヤ___3
  6
CONTINUOUS
 62
    7
 10
1200.0891332451924
 20
1168.7830216841578
 40
9.8296355027998992
 50
345.70351619411593
 51
52.637137500209597
  0
ARC
  8
_0-1_レイヤ___3
  6
CONTINUOUS
 62
    7
 10
1201.1141297426786
 20
1169.2879056077131
 40
8.9917551147841763
 50
297.27246380719163
 51
340.96778001783736
  0
ARC
  8
_0-1_レイヤ___3
  6
CONTINUOUS
 62
    7
 10
1198.7868850612583
 20
1173.152333535186
 40
13.496284885791432
 50
275.38872547017326
 51
298.536710209354
  0
ARC
  8
_0-1_レイヤ___3
  6
CONTINUOUS
 62
    7
 10
1197.7323792840625
 20
1180.2050554254467
 40
20.620509594001341
 50
268.11571047904113
 51
276.46550960623597
  0
ARC
  8
_0-1_レイヤ___3
  6
CONTINUOUS
 62
    7
 10
1262.4994547179137
 20
1289.4310031366624
 40
14.4373898697479
 50
234.10285750156686
 51
269.02724485258557
  0
ARC
  8
_0-1_レイヤ___3
  6
CONTINUOUS
 62
    7
 10
1258.0477735270435
 20
1282.6385623439908
 40
6.3360613443399565
 50
181.65387306727442
 51
230.69670689624999
  0
ARC
  8
_0-1_レイヤ___3
  6
CONTINUOUS
 62
    7
 10
1257.8153191970907
 20
1282.1253165947164
 40
6.1099062243760214
 50
147.63857676924425
 51
176.90036720767341
  0
ARC
  8
_0-1_レイヤ___3
  6
CONTINUOUS
 62
    7
 10
1267.1200554951049
 20
1276.8331905797745
 40
16.809909329998177
 50
97.058695797606603
 51
149.37796719841089
  0
ARC
  8
_0-1_レイヤ___3
  6
CONTINUOUS
 62
    7
 10
1266.0264984207672
 20
1284.0762925899003
 40
9.4893291507183495
 50
56.569905961786418
 51
95.880057398856934
  0
ARC
  8
_0-1_レイヤ___3
  6
CONTINUOUS
 62
    7
 10
1265.2891312451927
 20
1284.1830196841579
 40
9.8296355027998992
 50
345.70351619411593
 51
52.637137500209597
  0
ARC
  8
_0-1_レイヤ___3
  6
CONTINUOUS
 62
    7
 10
1266.3141277426787
 20
1284.687903607713
 40
8.9917551147841763
 50
297.27246380719163
 51
340.96778001783736
  0
ARC
  8
_0-1_レイヤ___3
  6
CONTINUOUS
 62
    7
 10
1263.98688306126
 20
1288.5523315351863
 40
13.496284885791356
 50
275.38872547016706
 51
298.5367102093478
  0
ARC
  8
_0-1_レイヤ___3
  6
CONTINUOUS
 62
    7
 10
1262.9323772840607
 20
1295.6050534254459
 40
20.620509594000449
 50
268.11571047904664
 51
276.46550960624148
  0
ARC
  8
_0-1_レイヤ___3
  6
CONTINUOUS
 62
    7
 10
1345.5258434507166
 20
1269.2524505142578
 40
14.472342968847956
 50
232.9909854703551
 51
267.34061974119703
  0
ARC
  8
_0-1_レイヤ___3
  6
CONTINUOUS
 62
    7
 10
1340.9828836240467
 20
1262.6455728588737
 40
6.4713182376391467
 50
181.68139167561975
 51
229.89765063401566
  0
ARC
  8
_0-1_レイヤ___3
  6
CONTINUOUS
 62
    7
 10
1340.6326871502511
 20
1262.1197635756791
 40
6.1275507646157497
 50
147.68164309351465
 51
176.8573008834131
  0
ARC
  8
_0-1_レイヤ___3
  6
CONTINUOUS
 62
    7
 10
1349.5859041632823
 20
1256.9532485554362
 40
16.461338361830371
 50
87.254657939000552
 51
149.14514038332143
  0
ARC
  8
_0-1_レイヤ___3
  6
CONTINUOUS
 62
    7
 10
1349.3411143368071
 20
1265.1431844285248
 40
8.3169401284024325
 50
55.479345467317998
 51
82.863542952256054
  0
ARC
  8
_0-1_レイヤ___3
  6
CONTINUOUS
 62
    7
 10
1347.4844415246675
 20
1264.7526659395953
 40
9.7788125180201106
 50
289.16268458865665
 51
47.789872003547444
  0
ARC
  8
_0-1_レイヤ___3
  6
CONTINUOUS
 62
    7
 10
1345.7115386224468
 20
1271.8873997373948
 40
17.113187182143012
 50
267.12889511851949
 51
286.92789735938049
  0
ARC
  8
_0-1_レイヤ___3
  6
CONTINUOUS
 62
    7
 10
964.56659192361326
 20
1049.8680623815287
 40
15.68853998134664
 50
244.26449688253274
 51
267.39796293257558
  0
ARC
  8
_0-1_レイヤ___3
  6
CONTINUOUS
 62
    7
 10
961.84737884842843
 20
1043.9333379140508
 40
9.1626491506568453
 50
215.78364136190231
 51
243.46737037929864
  0
ARC
  8
_0-1_レイヤ___3
  6
CONTINUOUS
 62
    7
 10
959.19181403238542
 20
1041.6551033822007
 40
5.6839111685521226
 50
146.45848098885759
 51
212.80460596046871
  0
ARC
  8
_0-1_レイヤ___3
  6
CONTINUOUS
 62
    7
 10
968.58590816328228
 20
1036.3532525554367
 40
16.46133836183013
 50
87.254657939001007
 51
149.14514038332192
  0
ARC
  8
_0-1_レイヤ___3
  6
CONTINUOUS
 62
    7
 10
968.34111833680583
 20
1044.5431884285242
 40
8.3169401284034237
 50
55.479345467311745
 51
82.863542952249816
  0
ARC
  8
_0-1_レイヤ___3
  6
CONTINUOUS
 62
    7
 10
966.35315876729624
 20
1044.1834798572334
 40
9.8449037541529201
 50
289.71561882408236
 51
47.103452224629024
  0
ARC
  8
_0-1_レイヤ___3
  6
CONTINUOUS
 62
    7
 10
964.71251076261649
 20
1051.1414442421265
 40
16.967461415976494
 50
267.10094218062
 51
287.00366983507411
  0
ARC
  8
_0-1_レイヤ___3
  6
CONTINUOUS
 62
    7
 10
1221.6718452996229
 20
1278.7727596587458
 40
44.790677096418356
 50
218.98252032236624
 51
239.96727269012618
  0
ARC
  8
_0-1_レイヤ___3
  6
CONTINUOUS
 62
    7
 10
1188.5636864109654
 20
1252.09295943302
 40
2.2723605156493578
 50
182.95807016263285
 51
221.21627304381224
  0
ARC
  8
_0-1_レイヤ___3
  6
CONTINUOUS
 62
    7
 10
1187.1512399872211
 20
1251.9808706722367
 40
0.856901961780912
 50
134.15191086073062
 51
180.34613645367025
  0
ARC
  8
_0-1_レイヤ___3
  6
CONTINUOUS
 62
    7
 10
1187.9498032505321
 20
1250.8597539216432
 40
2.2272780257711364
 50
102.32558481612205
 51
128.79434552751553
  0
ARC
  8
_0-1_レイヤ___3
  6
CONTINUOUS
 62
    7
 10
1184.7630583589821
 20
1266.7958492954026
 40
14.024728047514882
 50
281.14674457768751
 51
291.37366483895727
  0
ARC
  8
_0-1_レイヤ___3
  6
CONTINUOUS
 62
    7
 10
1189.4023207024845
 20
1254.3604080687587
 40
0.7829960540084339
 50
307.07463518782373
 51
45.168315806481068
  0
ARC
  8
_0-1_レイヤ___3
  6
CONTINUOUS
 62
    7
 10
1185.7318419952651
 20
1252.3347295087442
 40
4.9488364619702381
 50
31.434906827984694
 51
41.218745076220117
  0
ARC
  8
_0-1_レイヤ___3
  6
CONTINUOUS
 62
    7
 10
1187.2155150509811
 20
1328.5195046970614
 40
72.958169997023049
 50
271.75848906585634
 51
276.67371320490952
  0
ARC
  8
_0-1_レイヤ___3
  6
CONTINUOUS
 62
    7
 10
1198.3038087354053
 20
1233.130528716604
 40
23.073197820511897
 50
85.599024661089743
 51
96.493739153101629
  0
ARC
  8
_0-1_レイヤ___3
  6
CONTINUOUS
 62
    7
 10
1199.4507029281117
 20
1247.7027611921576
 40
8.4559621256418946
 50
57.014511614280423
 51
85.770436485401135
  0
ARC
  8
_0-1_レイヤ___3
  6
CONTINUOUS
 62
    7
 10
1195.4937695878496
 20
1242.3546473523581
 40
15.101762831955599
 50
21.60700615229986
 51
55.468452574018471
  0
ARC
  8
_0-1_レイヤ___3
  6
CONTINUOUS
 62
    7
 10
1201.5063210210858
 20
1245.2914808803755
 40
8.4460524759718414
 50
307.55475888355602
 51
18.101596258253121
  0
ARC
  8
_0-1_レイヤ___3
  6
CONTINUOUS
 62
    7
 10
1204.5781905557096
 20
1240.875216168175
 40
3.0832895903652471
 50
258.32685230903422
 51
312.32690451477669
  0
ARC
  8
_0-1_レイヤ___3
  6
CONTINUOUS
 62
    7
 10
1205.3363632874155
 20
1245.3121991322839
 40
7.5834945781113996
 50
244.35567606983028
 51
259.49978864687284
  0
ARC
  8
_0-1_レイヤ___3
  6
CONTINUOUS
 62
    7
 10
1218.2853076462904
 20
1271.7137670982142
 40
36.989368371483813
 50
239.03609721957446
 51
243.97262554393751
  0
ARC
  8
_0-1_レイヤ___3
  6
CONTINUOUS
 62
    7
 10
1280.5037835429564
 20
1228.947326225265
 40
2.2118414945142577
 50
270.79186505348775
 51
307.63347858088002
  0
ARC
  8
_0-1_レイヤ___3
  6
CONTINUOUS
 62
    7
 10
1280.5716975375835
 20
1227.8393260704959
 40
1.1042617957653718
 50
226.69836952588579
 51
268.06190057799489
  0
ARC
  8
_0-1_レイヤ___3
  6
CONTINUOUS
 62
    7
 10
1283.675474554248
 20
1230.5945576262072
 40
5.2510728690745436
 50
205.96289207065439
 51
222.66728312935803
  0
ARC
  8
_0-1_レイヤ___3
  6
CONTINUOUS
 62
    7
 10
1278.1252011989341
 20
1227.931564950409
 40
0.9055837289596222
 50
23.709235330925811
 51
107.40285510823109
  0
ARC
  8
_0-1_レイヤ___3
  6
CONTINUOUS
 62
    7
 10
1282.4153022324845
 20
1230.3514409352717
 40
4.8189845923588086
 50
172.79669102304035
 51
198.83456203594025
  0
ARC
  8
_0-1_レイヤ___3
  6
CONTINUOUS
 62
    7
 10
1279.583824668724
 20
1230.5828052755433
 40
1.9848154757242342
 50
105.47166728380451
 51
169.1713938958612
  0
ARC
  8
_0-1_レイヤ___3
  6
CONTINUOUS
 62
    7
 10
1259.3912004043111
 20
1282.5949625795463
 40
53.819847939488469
 50
291.42920372628726
 51
294.43499714889879
  0
ARC
  8
_0-1_レイヤ___3
  6
CONTINUOUS
 62
    7
 10
1282.4982033890001
 20
1231.6879043030233
 40
2.0860859954599977
 50
48.724561874970178
 51
113.86069758196514
  0
ARC
  8
_0-1_レイヤ___3
  6
CONTINUOUS
 62
    7
 10
1279.9462806644322
 20
1229.1320367576307
 40
5.6951125592225713
 50
21.244967585438737
 51
46.391523994194692
  0
ARC
  8
_0-1_レイヤ___3
  6
CONTINUOUS
 62
    7
 10
1278.8906945469098
 20
1228.9637536229557
 40
6.7437154834485309
 50
359.76161661157687
 51
19.327434519533227
  0
ARC
  8
_0-1_レイヤ___3
  6
CONTINUOUS
 62
    7
 10
1283.2778653611949
 20
1228.8800726820396
 40
2.3571426849861061
 50
326.9830491817558
 51
1.3521775774056637
  0
ARC
  8
_0-1_レイヤ___3
  6
CONTINUOUS
 62
    7
 10
1284.5253356286339
 20
1228.5724160819759
 40
1.2187889706085573
 50
266.66112461061221
 51
306.73736385729666
  0
ARC
  8
_0-1_レイヤ___3
  6
CONTINUOUS
 62
    7
 10
1283.6071117671286
 20
1219.9183442661533
 40
7.4854536137453103
 50
83.501059352263979
 51
103.54184740158935
  0
ARC
  8
_0-1_レイヤ___3
  6
CONTINUOUS
 62
    7
 10
1330.4895005930916
 20
1311.431098237234
 40
1.9807079169045336
 50
274.19383917943981
 51
313.55672252841686
  0
ARC
  8
_0-1_レイヤ___3
  6
CONTINUOUS
 62
    7
 10
1330.6255377673642
 20
1310.4010125442101
 40
0.9453596627157706
 50
226.46293646648434
 51
270.53419488537128
  0
ARC
  8
_0-1_レイヤ___3
  6
CONTINUOUS
 62
    7
 10
1333.7066595145916
 20
1313.074962065667
 40
5.0214344608233858
 50
204.96372394945328
 51
221.98883264276208
  0
ARC
  8
_0-1_レイヤ___3
  6
CONTINUOUS
 62
    7
 10
1328.393380572254
 20
1310.6482662447027
 40
0.8207245616041403
 50
21.998410776991047
 51
114.39877025023897
  0
ARC
  8
_0-1_レイヤ___3
  6
CONTINUOUS
 62
    7
 10
1332.9121843936214
 20
1312.9764057459076
 40
5.1085407470981785
 50
173.71460079340784
 51
198.02460009262771
  0
ARC
  8
_0-1_レイヤ___3
  6
CONTINUOUS
 62
    7
 10
1329.8391213810696
 20
1313.2499556804123
 40
2.0250303689960694
 50
109.76437344723725
 51
171.8883106118902
  0
ARC
  8
_0-1_レイヤ___3
  6
CONTINUOUS
 62
    7
 10
1350.6139325468268
 20
1263.4681282118445
 40
55.965329139761977
 50
109.58470307473786
 51
112.5471882314926
  0
ARC
  8
_0-1_レイヤ___3
  6
CONTINUOUS
 62
    7
 10
1332.7802386904868
 20
1314.6322253363674
 40
1.8170583250626338
 50
50.56854745510833
 51
120.63404183488983
  0
ARC
  8
_0-1_レイヤ___3
  6
CONTINUOUS
 62
    7
 10
1330.613527845564
 20
1312.146563522726
 40
5.1140205764152604
 50
18.812510739350948
 51
49.506878351985776
  0
ARC
  8
_0-1_レイヤ___3
  6
CONTINUOUS
 62
    7
 10
1331.9268547736947
 20
1312.297311433824
 40
3.8325428273046827
 50
330.25264378626616
 51
23.014434886879819
  0
ARC
  8
_0-1_レイヤ___3
  6
CONTINUOUS
 62
    7
 10
1334.5328686453909
 20
1311.3473040261158
 40
1.1941940558277091
 50
266.23014425476606
 51
307.16834421321755
  0
ARC
  8
_0-1_レイヤ___3
  6
CONTINUOUS
 62
    7
 10
1333.5794044716338
 20
1303.1685858179551
 40
7.0416768536948648
 50
82.862399193643199
 51
104.18050756022265
  0
ARC
  8
_0-1_レイヤ___3
  6
CONTINUOUS
 62
    7
 10
1178.1273797723077
 20
1300.9226678597702
 40
3.729136192919031
 50
271.95124931876978
 51
358.04875068122783
  0
ARC
  8
_0-1_レイヤ___3
  6
CONTINUOUS
 62
    7
 10
1178.1273797723074
 20
1300.6687200798078
 40
3.7291361929193254
 50
1.9512493187675879
 51
88.048750681225613
  0
ARC
  8
_0-1_レイヤ___3
  6
CONTINUOUS
 62
    7
 10
1178.3813275522702
 20
1300.6687200798078
 40
3.7291361929193991
 50
91.951249318773193
 51
178.04875068123127
  0
ARC
  8
_0-1_レイヤ___3
  6
CONTINUOUS
 62
    7
 10
1178.38132755227
 20
1300.9226678597702
 40
3.7291361929191047
 50
181.95124931877328
 51
268.0487506812313
  0
ARC
  8
_0-1_レイヤ___3
  6
CONTINUOUS
 62
    7
 10
1248.3273788428485
 20
1240.7226688597702
 40
3.7291351570482929
 50
271.95123340327314
 51
358.04873476573124
  0
ARC
  8
_0-1_レイヤ___3
  6
CONTINUOUS
 62
    7
 10
1248.3273777723075
 20
1240.468720079808
 40
3.7291361929192517
 50
1.9512493187709792
 51
88.048750681228995
  0
ARC
  8
_0-1_レイヤ___3
  6
CONTINUOUS
 62
    7
 10
1248.5813255522701
 20
1240.468720079808
 40
3.729136192919178
 50
91.951249318772099
 51
178.04875068123013
  0
ARC
  8
_0-1_レイヤ___3
  6
CONTINUOUS
 62
    7
 10
1248.5813244817293
 20
1240.7226688597702
 40
3.7291351570482183
 50
181.95126523426762
 51
268.04876659672567
  0
ARC
  8
_0-1_レイヤ___3
  6
CONTINUOUS
 62
    7
 10
1245.7273777723074
 20
1188.12266985977
 40
3.7291361929191047
 50
271.95124931877325
 51
358.0487506812313
  0
ARC
  8
_0-1_レイヤ___3
  6
CONTINUOUS
 62
    7
 10
1245.7273777723074
 20
1187.8687220798079
 40
3.7291361929191047
 50
1.9512493187687165
 51
88.048750681226778
  0
ARC
  8
_0-1_レイヤ___3
  6
CONTINUOUS
 62
    7
 10
1246.0535208861934
 20
1188.0020361472125
 40
3.5991748082236934
 50
93.172223838117105
 51
180.10093024511562
  0
ARC
  8
_0-1_レイヤ___3
  6
CONTINUOUS
 62
    7
 10
1246.1760082752389
 20
1188.105038326464
 40
3.7232625069526963
 50
181.68286721904823
 51
265.04397869771913
  0
ARC
  8
_0-1_レイヤ___3
  6
CONTINUOUS
 62
    7
 10
1328.5273777723073
 20
1230.7226698597699
 40
3.7291361929192517
 50
271.95124931877098
 51
358.04875068122902
  0
ARC
  8
_0-1_レイヤ___3
  6
CONTINUOUS
 62
    7
 10
1328.5273777723073
 20
1230.4687220798078
 40
3.7291361929192517
 50
1.9512493187709792
 51
88.048750681228995
  0
ARC
  8
_0-1_レイヤ___3
  6
CONTINUOUS
 62
    7
 10
1328.7813255522701
 20
1230.4687220798078
 40
3.7291361929191047
 50
91.951249318773193
 51
178.04875068123127
  0
ARC
  8
_0-1_レイヤ___3
  6
CONTINUOUS
 62
    7
 10
1328.7813255522701
 20
1230.7226698597699
 40
3.7291361929191047
 50
181.9512493187687
 51
268.04875068122675
  0
ARC
  8
_0-1_レイヤ___3
  6
CONTINUOUS
 62
    7
 10
1393.7450073056134
 20
1308.517350582739
 40
3.7232625069524667
 50
271.68286721904929
 51
355.04397869772021
  0
ARC
  8
_0-1_レイヤ___3
  6
CONTINUOUS
 62
    7
 10
1393.7273757723074
 20
1308.0687200798079
 40
3.7291361929191047
 50
1.9512493187687165
 51
88.048750681226778
  0
ARC
  8
_0-1_レイヤ___3
  6
CONTINUOUS
 62
    7
 10
1393.9813235522702
 20
1308.0687200798075
 40
3.7291361929192517
 50
91.951249318770977
 51
178.04875068122902
  0
ARC
  8
_0-1_レイヤ___3
  6
CONTINUOUS
 62
    7
 10
1393.8480156847891
 20
1308.3948697583187
 40
3.5991813619225539
 50
183.1723227193514
 51
270.10083136388363
  0
ARC
  8
_0-1_レイヤ___3
  6
CONTINUOUS
 62
    7
 10
1375.5511601266428
 20
1368.0093204630452
 40
15.389358402417701
 50
65.166811412745972
 51
88.87112871858821
  0
ARC
  8
_0-1_レイヤ___3
  6
CONTINUOUS
 62
    7
 10
1378.0973912079121
 20
1373.7550995609031
 40
9.1060805556696405
 50
36.532006188699093
 51
64.523074114616918
  0
ARC
  8
_0-1_レイヤ___3
  6
CONTINUOUS
 62
    7
 10
1380.5494786515362
 20
1375.9550658192516
 40
5.8343296746746587
 50
327.21320606937792
 51
33.505226893723787
  0
ARC
  8
_0-1_レイヤ___3
  6
CONTINUOUS
 62
    7
 10
1371.1320154983614
 20
1381.5475749021189
 40
16.784657004669768
 50
276.02697838213396
 51
328.5723411047033
  0
ARC
  8
_0-1_レイヤ___3
  6
CONTINUOUS
 62
    7
 10
1372.077023403413
 20
1374.2647520193943
 40
9.4444902241615303
 50
236.42787190071334
 51
274.96458718866933
  0
ARC
  8
_0-1_レイヤ___3
  6
CONTINUOUS
 62
    7
 10
1372.7535498948519
 20
1374.1301662161682
 40
9.7274161170308506
 50
165.07386226544159
 51
232.6666802210722
  0
ARC
  8
_0-1_レイヤ___3
  6
CONTINUOUS
 62
    7
 10
1371.9566781091635
 20
1373.5984498420714
 40
9.1227679160598072
 50
117.42853094789329
 51
160.55329524896206
  0
ARC
  8
_0-1_レイヤ___3
  6
CONTINUOUS
 62
    7
 10
1374.2093594462544
 20
1369.847115837141
 40
13.492809480691662
 50
95.592927077693773
 51
118.58119600775557
  0
ARC
  8
_0-1_レイヤ___3
  6
CONTINUOUS
 62
    7
 10
1375.1928565227047
 20
1363.1458560795791
 40
20.260637372850816
 50
88.129007438671465
 51
96.514053741005014
  0
ARC
  8
_0-1_レイヤ___3
  6
CONTINUOUS
 62
    7
 10
1252.3659859272493
 20
1384.3565834588167
 40
2.099300158567118
 50
89.225796105276331
 51
128.66721327373571
  0
ARC
  8
_0-1_レイヤ___3
  6
CONTINUOUS
 62
    7
 10
1252.3035987475916
 20
1385.4241861403952
 40
1.0354903995689693
 50
41.897890989194345
 51
84.972006656620934
  0
ARC
  8
_0-1_レイヤ___3
  6
CONTINUOUS
 62
    7
 10
1267.5917402074726
 20
1396.3876242760075
 40
17.783901806841303
 50
215.28172098863953
 51
222.6632184203298
  0
ARC
  8
_0-1_レイヤ___3
  6
CONTINUOUS
 62
    7
 10
1254.5403769645964
 20
1385.1815485900461
 40
0.8462568985790363
 50
268.23768038743441
 51
291.77827921545372
  0
ARC
  8
_0-1_レイヤ___3
  6
CONTINUOUS
 62
    7
 10
1250.1487016127778
 20
1382.7692574189334
 40
4.9787982221295159
 50
353.38474767507762
 51
19.066910453772852
  0
ARC
  8
_0-1_レイヤ___3
  6
CONTINUOUS
 62
    7
 10
1253.4538726525873
 20
1382.413248840983
 40
1.6548420992574273
 50
317.52057699325786
 51
352.44563605052821
  0
ARC
  8
_0-1_レイヤ___3
  6
CONTINUOUS
 62
    7
 10
1252.5126707609304
 20
1383.4991945513179
 40
3.0867925013031767
 50
290.9100285557746
 51
314.45108093096422
  0
ARC
  8
_0-1_レイヤ___3
  6
CONTINUOUS
 62
    7
 10
1270.8979093437429
 20
1333.5148021025866
 40
50.171856577273161
 50
110.15048997006851
 51
113.29789303273868
  0
ARC
  8
_0-1_レイヤ___3
  6
CONTINUOUS
 62
    7
 10
1250.2817042529375
 20
1381.249095623868
 40
1.8250281264949404
 50
224.24633773460201
 51
295.04702217756488
  0
ARC
  8
_0-1_レイヤ___3
  6
CONTINUOUS
 62
    7
 10
1253.344431101908
 20
1384.2726745738964
 40
6.1287563019413316
 50
201.80966270531707
 51
224.51678655895432
  0
ARC
  8
_0-1_レイヤ___3
  6
CONTINUOUS
 62
    7
 10
1251.2969383545451
 20
1383.795691969789
 40
4.0630576922563026
 50
153.70352045665166
 51
206.29647954334828
  0
ARC
  8
_0-1_レイヤ___3
  6
CONTINUOUS
 62
    7
 10
1248.3758346791863
 20
1384.6440819134627
 40
1.194194055827398
 50
86.230144254750158
 51
127.16834421320161
  0
ARC
  8
_0-1_レイヤ___3
  6
CONTINUOUS
 62
    7
 10
1249.3292988529454
 20
1392.8228001216235
 40
7.0416768536951526
 50
262.86239919363049
 51
284.18050756021
  0
ARC
  8
_0-1_レイヤ___3
  6
CONTINUOUS
 62
    7
 10
1289.5813255522705
 20
1343.6687200798078
 40
3.7291361929192517
 50
91.95124931877551
 51
178.04875068123354
  0
ARC
  8
_0-1_レイヤ___3
  6
CONTINUOUS
 62
    7
 10
1289.5813255522698
 20
1343.9226678597702
 40
3.7291361929189577
 50
181.95124931877098
 51
268.04875068122902
  0
ARC
  8
_0-1_レイヤ___3
  6
CONTINUOUS
 62
    7
 10
1289.3327507423485
 20
1343.7160948386215
 40
3.5225003990073924
 50
271.97831178753154
 51
1.2948422956989747
  0
ARC
  8
_0-1_レイヤ___3
  6
CONTINUOUS
 62
    7
 10
1289.1966569041313
 20
1343.7467600315294
 40
3.6580220713066787
 50
0.7664775414487441
 51
85.960368375311688
  0
ARC
  8
_0-1_レイヤ___3
  6
CONTINUOUS
 62
    7
 10
1104.9441905170554
 20
1355.6511903177297
 40
15.147679427684315
 50
64.964615292357877
 51
88.826732418248142
  0
ARC
  8
_0-1_レイヤ___3
  6
CONTINUOUS
 62
    7
 10
1107.5430271675152
 20
1361.3624945159688
 40
8.8734195852819813
 50
36.300145162187533
 51
64.562788502466887
  0
ARC
  8
_0-1_レイヤ___3
  6
CONTINUOUS
 62
    7
 10
1109.9468235935101
 20
1363.5360960924177
 40
5.6588837097315725
 50
326.29267294164504
 51
32.970414007681249
  0
ARC
  8
_0-1_レイヤ___3
  6
CONTINUOUS
 62
    7
 10
1100.1886498294728
 20
1368.9581973598035
 40
16.809909329997911
 50
277.05869579760713
 51
329.37796719841145
  0
ARC
  8
_0-1_レイヤ___3
  6
CONTINUOUS
 62
    7
 10
1101.2822069038098
 20
1361.7150953496778
 40
9.4893291507181523
 50
236.56990596179139
 51
275.88005739886188
  0
ARC
  8
_0-1_レイヤ___3
  6
CONTINUOUS
 62
    7
 10
1102.6642779535748
 20
1360.9254888100008
 40
9.7224006089054384
 50
109.40325332277402
 51
227.16687006249947
  0
ARC
  8
_0-1_レイヤ___3
  6
CONTINUOUS
 62
    7
 10
1104.3692531043403
 20
1353.6101014658661
 40
17.208369844600757
 50
87.05173044110461
 51
106.66487100643199
  0
ARC
  8
_0-1_レイヤ___3
  6
CONTINUOUS
 62
    7
 10
1022.1373759176357
 20
1375.6219057427611
 40
15.177096712548956
 50
64.988080031103749
 51
88.803267679498418
  0
ARC
  8
_0-1_レイヤ___3
  6
CONTINUOUS
 62
    7
 10
1024.6596440007811
 20
1381.209086468823
 40
9.0477745514955359
 50
36.695481611990793
 51
64.503197061050344
  0
ARC
  8
_0-1_レイヤ___3
  6
CONTINUOUS
 62
    7
 10
1027.1205655844851
 20
1383.3962175950473
 40
5.7745509400877086
 50
328.69377509968325
 51
33.8850207084392
  0
ARC
  8
_0-1_レイヤ___3
  6
CONTINUOUS
 62
    7
 10
1017.3952708779457
 20
1389.4532844096743
 40
17.231620571543175
 50
276.59508435556904
 51
328.28880530572076
  0
ARC
  8
_0-1_レイヤ___3
  6
CONTINUOUS
 62
    7
 10
1018.5339956767582
 20
1381.660396685995
 40
9.3624955513854271
 50
237.14247079168871
 51
275.14969198521607
  0
ARC
  8
_0-1_レイヤ___3
  6
CONTINUOUS
 62
    7
 10
1019.4675274581682
 20
1381.6440341784451
 40
9.8870981825271222
 50
165.52318659380731
 51
232.54171295845404
  0
ARC
  8
_0-1_レイヤ___3
  6
CONTINUOUS
 62
    7
 10
1018.365218752299
 20
1381.2088974373298
 40
8.9557230832373307
 50
117.18000949471589
 51
161.06023433032311
  0
ARC
  8
_0-1_レイヤ___3
  6
CONTINUOUS
 62
    7
 10
1020.5441696304815
 20
1377.5681358949582
 40
13.192646634625163
 50
94.7384712796391
 51
118.37567147163341
  0
ARC
  8
_0-1_レイヤ___3
  6
CONTINUOUS
 62
    7
 10
1021.4913039672599
 20
1370.6201305333993
 40
20.198533309149987
 50
87.267141895412607
 51
95.787908989017154
  0
ARC
  8
_0-1_レイヤ___3
  6
CONTINUOUS
 62
    7
 10
1036.7712047281875
 20
1334.1413945169547
 40
2.1144261968689806
 50
89.37265376204553
 51
128.5203556169846
  0
ARC
  8
_0-1_レイヤ___3
  6
CONTINUOUS
 62
    7
 10
1036.7156619471555
 20
1335.2059698251305
 40
1.0526696921069498
 50
43.884974024121433
 51
85.712778684942265
  0
ARC
  8
_0-1_レイヤ___3
  6
CONTINUOUS
 62
    7
 10
1049.7702859741246
 20
1345.2799254631077
 40
15.443592989788657
 50
217.23283858478368
 51
225.33658320435549
  0
ARC
  8
_0-1_レイヤ___3
  6
CONTINUOUS
 62
    7
 10
1039.0177069714666
 20
1335.2455969002272
 40
0.955508801824496
 50
263.79053179163293
 51
297.19242223306912
  0
ARC
  8
_0-1_レイヤ___3
  6
CONTINUOUS
 62
    7
 10
1034.4103261318273
 20
1332.9772700549888
 40
5.2396717746673938
 50
351.6425653804659
 51
15.706433661198096
  0
ARC
  8
_0-1_レイヤ___3
  6
CONTINUOUS
 62
    7
 10
1037.4907105253246
 20
1332.6263005568057
 40
2.1433433303078395
 50
286.91594042150837
 51
348.955406471331
  0
ARC
  8
_0-1_レイヤ___3
  6
CONTINUOUS
 62
    7
 10
1004.9680603441028
 20
1416.4442098334321
 40
92.043896646899199
 50
289.34252186432349
 51
291.10719699801496
  0
ARC
  8
_0-1_レイヤ___3
  6
CONTINUOUS
 62
    7
 10
1034.5638083934305
 20
1331.0438531090629
 40
1.7000703899346894
 50
229.26266858157135
 51
301.58948889863143
  0
ARC
  8
_0-1_レイヤ___3
  6
CONTINUOUS
 62
    7
 10
1036.1556858539004
 20
1332.6892552070192
 40
3.9878523464004174
 50
207.373340727863
 51
227.35999809765536
  0
ARC
  8
_0-1_レイヤ___3
  6
CONTINUOUS
 62
    7
 10
1044.4033888789993
 20
1337.3543418657182
 40
13.461564866684794
 50
203.45759302711795
 51
208.86553985692774
  0
ARC
  8
_0-1_レイヤ___3
  6
CONTINUOUS
 62
    7
 10
1035.2145528286683
 20
1333.6956939697891
 40
3.5884322663792596
 50
151.72236491861625
 51
208.27763508138375
  0
ARC
  8
_0-1_レイヤ___3
  6
CONTINUOUS
 62
    7
 10
1032.7833716959449
 20
1334.4189738576029
 40
1.2187889706083981
 50
86.661124610655122
 51
126.73736385733959
  0
ARC
  8
_0-1_レイヤ___3
  6
CONTINUOUS
 62
    7
 10
1033.7015955574507
 20
1343.0730456734252
 40
7.4854536137452072
 50
263.50105935225145
 51
283.54184740157689
  0
ARC
  8
_0-1_レイヤ___3
  6
CONTINUOUS
 62
    7
 10
1189.2535228861934
 20
1345.0020341472125
 40
3.599174808223772
 50
93.172223838120502
 51
180.100930245119
  0
ARC
  8
_0-1_レイヤ___3
  6
CONTINUOUS
 62
    7
 10
1189.2052127926108
 20
1344.9437275928713
 40
3.5512393706593293
 50
179.1615433273812
 51
267.56530258939728
  0
ARC
  8
_0-1_レイヤ___3
  6
CONTINUOUS
 62
    7
 10
1188.9273797723079
 20
1345.1226678597704
 40
3.7291361929187361
 50
271.95124931876535
 51
358.04875068122334
  0
ARC
  8
_0-1_レイヤ___3
  6
CONTINUOUS
 62
    7
 10
1188.9273797723074
 20
1344.8687200798076
 40
3.7291361929193254
 50
1.9512493187675879
 51
88.048750681225613
  0
ARC
  8
_0-1_レイヤ___3
  6
CONTINUOUS
 62
    7
 10
973.78132955226977
 20
1337.2687200798077
 40
3.7291361929186633
 50
91.951249318766443
 51
178.0487506812245
  0
ARC
  8
_0-1_レイヤ___3
  6
CONTINUOUS
 62
    7
 10
973.64802168478934
 20
1337.594869758319
 40
3.5991813619226876
 50
183.17232271934438
 51
270.10083136387664
  0
ARC
  8
_0-1_レイヤ___3
  6
CONTINUOUS
 62
    7
 10
973.47174444380539
 20
1337.5783051882722
 40
3.5872621872286574
 50
272.9179289630307
 51
357.08207103697413
  0
ARC
  8
_0-1_レイヤ___3
  6
CONTINUOUS
 62
    7
 10
973.33269904933911
 20
1337.2863516131135
 40
3.7232625069523033
 50
1.6828672190562108
 51
85.043978697727098
  0
ARC
  8
_0-1_レイヤ___3
  6
CONTINUOUS
 62
    7
 10
991.69375399569094
 20
1419.4037119091645
 40
13.810095083242995
 50
233.26823081995764
 51
269.00672652053458
  0
ARC
  8
_0-1_レイヤ___3
  6
CONTINUOUS
 62
    7
 10
987.56751962565193
 20
1413.1125070167914
 40
6.3167243363401679
 50
150.78430876257846
 51
229.13183243434088
  0
ARC
  8
_0-1_レイヤ___3
  6
CONTINUOUS
 62
    7
 10
996.02046922216414
 20
1407.87217873901
 40
16.258327111676667
 50
87.553939990971855
 51
149.20593714247488
  0
ARC
  8
_0-1_レイヤ___3
  6
CONTINUOUS
 62
    7
 10
995.69213631821538
 20
1416.2393101626594
 40
7.94243808657518
 50
53.159344596418897
 51
82.605322749616519
  0
ARC
  8
_0-1_レイヤ___3
  6
CONTINUOUS
 62
    7
 10
994.4891352451923
 20
1414.7830176841578
 40
9.8296355028002278
 50
345.70351619411684
 51
52.637137500210464
  0
ARC
  8
_0-1_レイヤ___3
  6
CONTINUOUS
 62
    7
 10
995.51413174267896
 20
1415.2879016077131
 40
8.9917551147841763
 50
297.27246380719163
 51
340.96778001783736
  0
ARC
  8
_0-1_レイヤ___3
  6
CONTINUOUS
 62
    7
 10
993.18688706125999
 20
1419.1523295351867
 40
13.496284885791692
 50
275.38872547016661
 51
298.53671020934729
  0
ARC
  8
_0-1_レイヤ___3
  6
CONTINUOUS
 62
    7
 10
992.13238128406442
 20
1426.2050514254472
 40
20.620509594001266
 50
268.11571047903573
 51
276.46550960623057
  0
ARC
  8
_0-1_レイヤ___3
  6
CONTINUOUS
 62
    7
 10
1115.1037855429563
 20
1404.7473222252647
 40
2.2118414945144695
 50
270.79186505348582
 51
307.63347858087809
  0
ARC
  8
_0-1_レイヤ___3
  6
CONTINUOUS
 62
    7
 10
1115.1716995375832
 20
1403.6393220704954
 40
1.104261795765217
 50
226.69836952590506
 51
268.0619005780141
  0
ARC
  8
_0-1_レイヤ___3
  6
CONTINUOUS
 62
    7
 10
1118.27547655425
 20
1406.3945536262058
 40
5.2510728690756086
 50
205.96289207063359
 51
222.66728312933722
  0
ARC
  8
_0-1_レイヤ___3
  6
CONTINUOUS
 62
    7
 10
1112.7252031989342
 20
1403.7315609504089
 40
0.9055837289597191
 50
23.709235330928589
 51
107.40285510823387
  0
ARC
  8
_0-1_レイヤ___3
  6
CONTINUOUS
 62
    7
 10
1117.0153042324848
 20
1406.1514369352722
 40
4.8189845923594357
 50
172.79669102303956
 51
198.83456203593943
  0
ARC
  8
_0-1_レイヤ___3
  6
CONTINUOUS
 62
    7
 10
1114.1838266687241
 20
1406.3828012755437
 40
1.9848154757242342
 50
105.47166728380451
 51
169.1713938958612
  0
ARC
  8
_0-1_レイヤ___3
  6
CONTINUOUS
 62
    7
 10
1093.9912024043169
 20
1458.3949585795519
 40
53.819847939491339
 50
291.42920372627975
 51
294.43499714889128
  0
ARC
  8
_0-1_レイヤ___3
  6
CONTINUOUS
 62
    7
 10
1117.1112707962011
 20
1407.564497265437
 40
2.0217766987574781
 50
48.370724742943239
 51
115.07748960289868
  0
ARC
  8
_0-1_レイヤ___3
  6
CONTINUOUS
 62
    7
 10
1114.9940880296554
 20
1405.235513178593
 40
5.1691789867187632
 50
19.908204338829897
 51
47.978969700679748
  0
ARC
  8
_0-1_レイヤ___3
  6
CONTINUOUS
 62
    7
 10
1115.6951072532358
 20
1405.295691969789
 40
4.4932539090529842
 50
337.76879630468426
 51
22.231203695315724
  0
ARC
  8
_0-1_レイヤ___3
  6
CONTINUOUS
 62
    7
 10
1118.9933795112254
 20
1404.5939350007707
 40
1.3182433909191706
 50
270.04234024611731
 51
310.77742542153089
  0
ARC
  8
_0-1_レイヤ___3
  6
CONTINUOUS
 62
    7
 10
1118.3018874744989
 20
1391.2647452279205
 40
12.030891532103219
 50
86.700383420836403
 51
97.39043355694325
  0
ARC
  8
_0-1_レイヤ___3
  6
CONTINUOUS
 62
    7
 10
1117.1426843878323
 20
1402.2881958814728
 40
0.9870916384561017
 50
113.16678378956055
 51
134.21335126234885
  0
ARC
  8
_0-1_レイヤ___3
  6
CONTINUOUS
 62
    7
 10
1077.8717444438059
 20
1445.378303188272
 40
3.5872621872279078
 50
272.91792896302832
 51
357.08207103697168
  0
ARC
  8
_0-1_レイヤ___3
  6
CONTINUOUS
 62
    7
 10
1077.7326990493386
 20
1445.086349613114
 40
3.7232625069524756
 50
1.6828672190446552
 51
85.043978697715559
  0
ARC
  8
_0-1_レイヤ___3
  6
CONTINUOUS
 62
    7
 10
1078.1813295522702
 20
1445.0687180798077
 40
3.7291361929192517
 50
91.951249318770977
 51
178.04875068122902
  0
ARC
  8
_0-1_レイヤ___3
  6
CONTINUOUS
 62
    7
 10
1078.0480216847891
 20
1445.3948677583189
 40
3.5991813619224122
 50
183.17232271935379
 51
270.10083136388602
  0
ARC
  8
_0-1_レイヤ___3
  6
CONTINUOUS
 62
    7
 10
1262.4994547179137
 20
1432.6310011366625
 40
14.4373898697479
 50
234.10285750156686
 51
269.02724485258557
  0
ARC
  8
_0-1_レイヤ___3
  6
CONTINUOUS
 62
    7
 10
1258.0477735270435
 20
1425.8385603439908
 40
6.3360613443399565
 50
181.65387306727442
 51
230.69670689624999
  0
ARC
  8
_0-1_レイヤ___3
  6
CONTINUOUS
 62
    7
 10
1257.8153191970907
 20
1425.3253145947165
 40
6.1099062243760214
 50
147.63857676924425
 51
176.90036720767341
  0
ARC
  8
_0-1_レイヤ___3
  6
CONTINUOUS
 62
    7
 10
1267.1200554951049
 20
1420.0331885797746
 40
16.809909329998177
 50
97.058695797606603
 51
149.37796719841089
  0
ARC
  8
_0-1_レイヤ___3
  6
CONTINUOUS
 62
    7
 10
1266.0264984207672
 20
1427.2762905899003
 40
9.4893291507183495
 50
56.569905961786418
 51
95.880057398856934
  0
ARC
  8
_0-1_レイヤ___3
  6
CONTINUOUS
 62
    7
 10
1265.2891312451927
 20
1427.3830176841579
 40
9.8296355027998992
 50
345.70351619411593
 51
52.637137500209597
  0
ARC
  8
_0-1_レイヤ___3
  6
CONTINUOUS
 62
    7
 10
1266.3141277426787
 20
1427.887901607713
 40
8.9917551147841763
 50
297.27246380719163
 51
340.96778001783736
  0
ARC
  8
_0-1_レイヤ___3
  6
CONTINUOUS
 62
    7
 10
1263.98688306126
 20
1431.7523295351864
 40
13.496284885791356
 50
275.38872547016706
 51
298.5367102093478
  0
ARC
  8
_0-1_レイヤ___3
  6
CONTINUOUS
 62
    7
 10
1262.9323772840607
 20
1438.805051425446
 40
20.620509594000449
 50
268.11571047904664
 51
276.46550960624148
  0
ARC
  8
_0-1_レイヤ___3
  6
CONTINUOUS
 62
    7
 10
1345.1244355790573
 20
1412.154113389794
 40
13.96103412575741
 50
233.47067593859316
 51
268.89151234773396
  0
ARC
  8
_0-1_レイヤ___3
  6
CONTINUOUS
 62
    7
 10
1340.8151472653151
 20
1405.5967470637993
 40
6.1426215939607207
 50
150.77640774475077
 51
229.35900690245728
  0
ARC
  8
_0-1_レイヤ___3
  6
CONTINUOUS
 62
    7
 10
1349.9200554951049
 20
1400.0331885797746
 40
16.809909329998177
 50
97.058695797606603
 51
149.37796719841089
  0
ARC
  8
_0-1_レイヤ___3
  6
CONTINUOUS
 62
    7
 10
1348.8264984207672
 20
1407.2762905899003
 40
9.4893291507183495
 50
56.569905961786418
 51
95.880057398856934
  0
ARC
  8
_0-1_レイヤ___3
  6
CONTINUOUS
 62
    7
 10
1348.1786389929248
 20
1407.4875414445969
 40
9.6922434911603315
 50
344.85728011055204
 51
52.68271590860261
  0
ARC
  8
_0-1_レイヤ___3
  6
CONTINUOUS
 62
    7
 10
1348.9209876919665
 20
1408.0521319067288
 40
9.153029264395121
 50
296.98577877224926
 51
340.22686396281119
  0
ARC
  8
_0-1_レイヤ___3
  6
CONTINUOUS
 62
    7
 10
1346.56582437729
 20
1411.985636544277
 40
13.730538490305415
 50
275.3847829053467
 51
298.29545452533495
  0
ARC
  8
_0-1_レイヤ___3
  6
CONTINUOUS
 62
    7
 10
1345.5308368417714
 20
1418.8435624826732
 40
20.65894936619241
 50
268.12349238584261
 51
276.45772769944551
  0
ARC
  8
_0-1_レイヤ___3
  6
CONTINUOUS
 62
    7
 10
1223.5332608815827
 20
1425.815254966491
 40
48.876217740269468
 50
226.47617574312625
 51
240.21526440783447
  0
ARC
  8
_0-1_レイヤ___3
  6
CONTINUOUS
 62
    7
 10
1215.7855534780983
 20
1416.2997339124049
 40
36.65305207670022
 50
217.87744855991676
 51
225.01419496902028
  0
ARC
  8
_0-1_レイヤ___3
  6
CONTINUOUS
 62
    7
 10
1188.5630742771664
 20
1395.2927090308985
 40
2.2717363889677356
 50
182.95261024258005
 51
221.22173296386507
  0
ARC
  8
_0-1_レイヤ___3
  6
CONTINUOUS
 62
    7
 10
1187.1559814170412
 20
1395.1788803306997
 40
0.8616336538255996
 50
134.28603140742021
 51
180.21201590699948
  0
ARC
  8
_0-1_レイヤ___3
  6
CONTINUOUS
 62
    7
 10
1188.0066293956074
 20
1394.0411405031518
 40
2.2776206125398235
 50
103.51489585058602
 51
129.61520650356994
  0
ARC
  8
_0-1_レイヤ___3
  6
CONTINUOUS
 62
    7
 10
1185.0093982996352
 20
1408.2501442074442
 40
12.245116962335006
 50
281.61305340929437
 51
293.20555208460962
  0
ARC
  8
_0-1_レイヤ___3
  6
CONTINUOUS
 62
    7
 10
1189.3343233966559
 20
1397.6817615128225
 40
0.8489532875414129
 50
306.08580826429852
 51
38.971073382539863
  0
ARC
  8
_0-1_レイヤ___3
  6
CONTINUOUS
 62
    7
 10
1185.8443205060871
 20
1395.9195151693416
 40
4.7429108252723822
 50
28.955369117848559
 51
40.434937944624807
  0
ARC
  8
_0-1_レイヤ___3
  6
CONTINUOUS
 62
    7
 10
1206.4188395772617
 20
1071.4889058467045
 40
327.94586251244419
 50
91.087552031628405
 51
92.96520730589053
  0
ARC
  8
_0-1_レイヤ___3
  6
CONTINUOUS
 62
    7
 10
1199.1894040130171
 20
1390.4763400522611
 40
8.9559135965895393
 50
57.097514405650251
 51
83.557229485163617
  0
ARC
  8
_0-1_レイヤ___3
  6
CONTINUOUS
 62
    7
 10
1195.49376958785
 20
1385.5546453523582
 40
15.10176283195522
 50
21.607006152301011
 51
55.468452574019622
  0
ARC
  8
_0-1_レイヤ___3
  6
CONTINUOUS
 62
    7
 10
1201.5063210210858
 20
1388.4914788803756
 40
8.4460524759718414
 50
307.55475888355602
 51
18.101596258253121
  0
ARC
  8
_0-1_レイヤ___3
  6
CONTINUOUS
 62
    7
 10
1204.6082848583301
 20
1384.0459499846327
 40
3.0413909127076026
 50
257.5838525313967
 51
312.2789818248911
  0
ARC
  8
_0-1_レイヤ___3
  6
CONTINUOUS
 62
    7
 10
1205.2969088581376
 20
1387.9989390508031
 40
7.0522198348230862
 50
243.71885090109541
 51
259.02542274597624
  0
ARC
  8
_0-1_レイヤ___3
  6
CONTINUOUS
 62
    7
 10
1214.2103596111519
 20
1405.4475160225095
 40
26.645169505832861
 50
235.85406297316257
 51
243.14627055994134
  0
ARC
  8
_0-1_レイヤ___3
  6
CONTINUOUS
 62
    7
 10
1330.5924600890276
 20
1454.6946217945256
 40
1.9593776976768642
 50
271.22507939330558
 51
310.09274073330306
  0
ARC
  8
_0-1_レイヤ___3
  6
CONTINUOUS
 62
    7
 10
1330.6770042337305
 20
1453.7530377983903
 40
1.0182395478587154
 50
224.78885213257084
 51
267.59926083051965
  0
ARC
  8
_0-1_レイヤ___3
  6
CONTINUOUS
 62
    7
 10
1317.3813743474409
 20
1443.1822787334809
 40
15.974026135108234
 50
38.085716971317154
 51
46.117129430117274
  0
ARC
  8
_0-1_レイヤ___3
  6
CONTINUOUS
 62
    7
 10
1328.4587155052011
 20
1453.8282365981345
 40
0.8674663480140659
 50
90.288231164802696
 51
117.78425577087782
  0
ARC
  8
_0-1_レイヤ___3
  6
CONTINUOUS
 62
    7
 10
1333.1423389979618
 20
1456.2372521513018
 40
5.3462449399082947
 50
173.14146414943028
 51
197.88149068261606
  0
ARC
  8
_0-1_レイヤ___3
  6
CONTINUOUS
 62
    7
 10
1329.844457508088
 20
1456.5451020008597
 40
2.0371095304062972
 50
108.61041058643198
 51
170.66051626737391
  0
ARC
  8
_0-1_レイヤ___3
  6
CONTINUOUS
 62
    7
 10
1283.0764191261342
 20
1571.724531743107
 40
122.27903913349985
 50
292.15745723683875
 51
293.5098511190144
  0
ARC
  8
_0-1_レイヤ___3
  6
CONTINUOUS
 62
    7
 10
1332.6693995958767
 20
1457.8209936694325
 40
1.9529099291405232
 50
47.277348030550982
 51
114.66742606800695
  0
ARC
  8
_0-1_レイヤ___3
  6
CONTINUOUS
 62
    7
 10
1330.0410659011811
 20
1454.906470022597
 40
5.8774313994222691
 50
22.922993733110825
 51
47.730295402070489
  0
ARC
  8
_0-1_レイヤ___3
  6
CONTINUOUS
 62
    7
 10
1329.3889177903091
 20
1455.1331931090206
 40
6.4065115004991036
 50
358.94908533790829
 51
18.780161438924594
  0
ARC
  8
_0-1_レイヤ___3
  6
CONTINUOUS
 62
    7
 10
1333.8928551968847
 20
1454.9261202031119
 40
1.9036049772287855
 50
315.66123675239322
 51
2.6969775409750469
  0
ARC
  8
_0-1_レイヤ___3
  6
CONTINUOUS
 62
    7
 10
1334.5328686453909
 20
1454.5473020261159
 40
1.1941940558277091
 50
266.23014425476606
 51
307.16834421321755
  0
ARC
  8
_0-1_レイヤ___3
  6
CONTINUOUS
 62
    7
 10
1333.5794044716338
 20
1446.3685838179551
 40
7.0416768536948648
 50
82.862399193643199
 51
104.18050756022265
  0
ARC
  8
_0-1_レイヤ___3
  6
CONTINUOUS
 62
    7
 10
1178.1273797723077
 20
1444.1226658597702
 40
3.729136192919031
 50
271.95124931876978
 51
358.04875068122783
  0
ARC
  8
_0-1_レイヤ___3
  6
CONTINUOUS
 62
    7
 10
1178.1273797723074
 20
1443.8687180798079
 40
3.7291361929193254
 50
1.9512493187675879
 51
88.048750681225613
  0
ARC
  8
_0-1_レイヤ___3
  6
CONTINUOUS
 62
    7
 10
1178.3813275522702
 20
1443.8687180798079
 40
3.7291361929193991
 50
91.951249318773193
 51
178.04875068123127
  0
ARC
  8
_0-1_レイヤ___3
  6
CONTINUOUS
 62
    7
 10
1178.38132755227
 20
1444.1226658597702
 40
3.7291361929191047
 50
181.95124931877328
 51
268.0487506812313
  0
ARC
  8
_0-1_レイヤ___3
  6
CONTINUOUS
 62
    7
 10
1393.7273757723074
 20
1451.7226658597704
 40
3.7291361929192517
 50
271.95124931877547
 51
358.04875068123351
  0
ARC
  8
_0-1_レイヤ___3
  6
CONTINUOUS
 62
    7
 10
1393.9339487934562
 20
1451.474091049849
 40
3.5225003990072539
 50
1.9783117875339504
 51
91.294842295701372
  0
ARC
  8
_0-1_レイヤ___3
  6
CONTINUOUS
 62
    7
 10
1393.9032836005483
 20
1451.3379972116318
 40
3.658022071306382
 50
90.766477541448609
 51
175.96036837531159
  0
ARC
  8
_0-1_レイヤ___3
  6
CONTINUOUS
 62
    7
 10
1393.9813235522704
 20
1451.7226658597704
 40
3.7291361929193991
 50
181.9512493187687
 51
268.04875068122675
  0
ARC
  8
_0-1_レイヤ___3
  6
CONTINUOUS
 62
    7
 10
1289.5813255522705
 20
1486.8687180798079
 40
3.7291361929192517
 50
91.95124931877551
 51
178.04875068123354
  0
ARC
  8
_0-1_レイヤ___3
  6
CONTINUOUS
 62
    7
 10
1289.5813255522698
 20
1487.1226658597702
 40
3.7291361929189577
 50
181.95124931877098
 51
268.04875068122902
  0
ARC
  8
_0-1_レイヤ___3
  6
CONTINUOUS
 62
    7
 10
1289.3327507423485
 20
1486.9160928386216
 40
3.5225003990073924
 50
271.97831178753154
 51
1.2948422956989747
  0
ARC
  8
_0-1_レイヤ___3
  6
CONTINUOUS
 62
    7
 10
1289.1966569041313
 20
1486.9467580315295
 40
3.6580220713066787
 50
0.7664775414487441
 51
85.960368375311688
  0
ARC
  8
_0-1_レイヤ___3
  6
CONTINUOUS
 62
    7
 10
1036.9072355766009
 20
1477.3328329168148
 40
2.2081576654462975
 50
93.970000400388045
 51
131.14449286901731
  0
ARC
  8
_0-1_レイヤ___3
  6
CONTINUOUS
 62
    7
 10
1036.7708410675132
 20
1478.5595768757603
 40
0.9762542933970328
 50
47.183431968285042
 51
90.96756454184802
  0
ARC
  8
_0-1_レイヤ___3
  6
CONTINUOUS
 62
    7
 10
1034.1816992084059
 20
1476.3156756724172
 40
4.3978938695347427
 50
24.16027457578933
 51
42.303147560171404
  0
ARC
  8
_0-1_レイヤ___3
  6
CONTINUOUS
 62
    7
 10
1039.0797246853763
 20
1478.4744707565019
 40
0.9553012743833091
 50
202.05930641598258
 51
293.08896974134331
  0
ARC
  8
_0-1_レイヤ___3
  6
CONTINUOUS
 62
    7
 10
1034.4103261318273
 20
1476.1772680549889
 40
5.2396717746673938
 50
351.6425653804659
 51
15.706433661198096
  0
ARC
  8
_0-1_レイヤ___3
  6
CONTINUOUS
 62
    7
 10
1037.4907105253242
 20
1475.8262985568056
 40
2.143343330308249
 50
286.91594042151826
 51
348.95540647134089
  0
ARC
  8
_0-1_レイヤ___3
  6
CONTINUOUS
 62
    7
 10
1004.9680603441213
 20
1559.6442078334317
 40
92.043896646892819
 50
289.34252186431274
 51
291.10719699800416
  0
ARC
  8
_0-1_レイヤ___3
  6
CONTINUOUS
 62
    7
 10
1034.6360577338614
 20
1474.4762368144848
 40
1.8691823010883271
 50
226.70915825708613
 51
295.96257087670551
  0
ARC
  8
_0-1_レイヤ___3
  6
CONTINUOUS
 62
    7
 10
1037.1405033827882
 20
1476.9282842951009
 40
5.3731531525233152
 50
198.81137044779567
 51
225.19939596837
  0
ARC
  8
_0-1_レイヤ___3
  6
CONTINUOUS
 62
    7
 10
1035.2145528286683
 20
1476.8956919697891
 40
3.5884322663792596
 50
151.72236491861625
 51
208.27763508138375
  0
ARC
  8
_0-1_レイヤ___3
  6
CONTINUOUS
 62
    7
 10
1032.7833716959449
 20
1477.6189718576029
 40
1.2187889706083981
 50
86.661124610655122
 51
126.73736385733959
  0
ARC
  8
_0-1_レイヤ___3
  6
CONTINUOUS
 62
    7
 10
1033.7015955574507
 20
1486.2730436734253
 40
7.4854536137452072
 50
263.50105935225145
 51
283.54184740157689
  0
ARC
  8
_0-1_レイヤ___3
  6
CONTINUOUS
 62
    7
 10
1189.2535228861934
 20
1488.2020321472125
 40
3.599174808223772
 50
93.172223838120502
 51
180.100930245119
  0
ARC
  8
_0-1_レイヤ___3
  6
CONTINUOUS
 62
    7
 10
1189.1249874096095
 20
1488.26632571711
 40
3.4713524359105108
 50
181.16591299809915
 51
268.83408700191035
  0
ARC
  8
_0-1_レイヤ___3
  6
CONTINUOUS
 62
    7
 10
1189.0054197240295
 20
1488.4533867279465
 40
3.6580220713061622
 50
270.76647754144733
 51
355.96036837531028
  0
ARC
  8
_0-1_レイヤ___3
  6
CONTINUOUS
 62
    7
 10
1188.9273797723074
 20
1488.0687180798077
 40
3.7291361929193254
 50
1.9512493187675879
 51
88.048750681225613
  0
ARC
  8
_0-1_レイヤ___3
  6
CONTINUOUS
 62
    7
 10
973.76369801896362
 20
1480.4740353568388
 40
3.7232625069521736
 50
91.68286721904451
 51
175.04397869771537
  0
ARC
  8
_0-1_レイヤ___3
  6
CONTINUOUS
 62
    7
 10
973.78132955227034
 20
1480.9226658597704
 40
3.7291361929192517
 50
181.95124931876646
 51
268.04875068122448
  0
ARC
  8
_0-1_レイヤ___3
  6
CONTINUOUS
 62
    7
 10
973.45517987375888
 20
1480.7893579922895
 40
3.5991813619228461
 50
273.1723227193512
 51
0.1008313638834162
  0
ARC
  8
_0-1_レイヤ___3
  6
CONTINUOUS
 62
    7
 10
973.47174444380596
 20
1480.6130807513057
 40
3.5872621872280579
 50
2.9179289630354845
 51
87.082071036978903
  0
ARC
  8
_0-1_レイヤ___3
  6
CONTINUOUS
 62
    7
 10
701.69964110330272
 20
1101.7006688897172
 40
14.04897207615196
 50
297.99596164948787
 51
333.33422887105309
  0
ARC
  8
_0-1_レイヤ___3
  6
CONTINUOUS
 62
    7
 10
705.55455955519176
 20
1095.2049550649442
 40
6.5135108845756342
 50
246.85497061401898
 51
294.87458195057116
  0
ARC
  8
_0-1_レイヤ___3
  6
CONTINUOUS
 62
    7
 10
705.80610975384798
 20
1094.5796866001788
 40
6.0562622635032701
 50
211.71773171314666
 51
242.33691368786612
  0
ARC
  8
_0-1_レイヤ___3
  6
CONTINUOUS
 62
    7
 10
715.1931142128193
 20
1100.528463155837
 40
17.169239465511392
 50
160.44326609144699
 51
212.13568072189489
  0
ARC
  8
_0-1_レイヤ___3
  6
CONTINUOUS
 62
    7
 10
707.76956272743303
 20
1102.8708187699622
 40
9.3939751680430632
 50
120.12837030807856
 51
158.74906242732894
  0
ARC
  8
_0-1_レイヤ___3
  6
CONTINUOUS
 62
    7
 10
707.42227037901341
 20
1102.3748207189951
 40
9.6642710081532446
 50
49.064720866074971
 51
116.86981620591496
  0
ARC
  8
_0-1_レイヤ___3
  6
CONTINUOUS
 62
    7
 10
707.31727426681755
 20
1103.3306114457766
 40
9.0385931430423287
 50
1.0465441813067913
 51
44.587615353603567
  0
ARC
  8
_0-1_レイヤ___3
  6
CONTINUOUS
 62
    7
 10
702.86677135123011
 20
1102.957839334292
 40
13.498308425887613
 50
339.06918285648396
 51
2.2836335872353586
  0
ARC
  8
_0-1_レイヤ___3
  6
CONTINUOUS
 62
    7
 10
696.22821319530874
 20
1105.0635442069083
 40
20.45505334418888
 50
331.7942943518666
 51
340.20314371692245
  0
ARC
  8
_0-1_レイヤ___3
  6
CONTINUOUS
 62
    7
 10
807.74178289760175
 20
1070.397583375898
 40
58.252559798227963
 50
296.43452637323412
 51
303.45381394903325
  0
ARC
  8
_0-1_レイヤ___3
  6
CONTINUOUS
 62
    7
 10
819.28646656789863
 20
1047.4042265731841
 40
32.524059879282191
 50
280.21499353077462
 51
296.25563200602096
  0
ARC
  8
_0-1_レイヤ___3
  6
CONTINUOUS
 62
    7
 10
824.30449713404289
 20
1017.7565767665724
 40
2.4771030468920912
 50
250.91010855167013
 51
287.62084937981325
  0
ARC
  8
_0-1_レイヤ___3
  6
CONTINUOUS
 62
    7
 10
823.82407485890167
 20
1016.1806377906728
 40
0.8329744049583655
 50
198.54593128279851
 51
246.68218065640133
  0
ARC
  8
_0-1_レイヤ___3
  6
CONTINUOUS
 62
    7
 10
825.0339404149172
 20
1016.455889624842
 40
2.0712648813700656
 50
167.1738236295389
 51
195.11770204682173
  0
ARC
  8
_0-1_レイヤ___3
  6
CONTINUOUS
 62
    7
 10
807.23072610320753
 20
1020.9240048490178
 40
16.28464151373613
 50
345.75076687360684
 51
355.03882481636987
  0
ARC
  8
_0-1_レイヤ___3
  6
CONTINUOUS
 62
    7
 10
822.65036176542128
 20
1019.3572533719189
 40
0.819459634621547
 50
11.148499331983309
 51
108.2042869429046
  0
ARC
  8
_0-1_レイヤ___3
  6
CONTINUOUS
 62
    7
 10
822.92280859214361
 20
1015.3167430548249
 40
4.8478435265301876
 50
96.258101026901301
 51
105.16814501860723
  0
ARC
  8
_0-1_レイヤ___3
  6
CONTINUOUS
 62
    7
 10
766.99092257123357
 20
1045.4264636062148
 40
60.289426741417984
 50
335.05100028549117
 51
340.53453484990126
  0
ARC
  8
_0-1_レイヤ___3
  6
CONTINUOUS
 62
    7
 10
846.41639321428056
 20
1017.4652574594145
 40
23.914266944624597
 50
149.29670953985246
 51
160.78519408455332
  0
ARC
  8
_0-1_レイヤ___3
  6
CONTINUOUS
 62
    7
 10
833.29614369267847
 20
1025.3422045159912
 40
8.6115820170401634
 50
122.61672254088157
 51
149.78694358802832
  0
ARC
  8
_0-1_レイヤ___3
  6
CONTINUOUS
 62
    7
 10
836.0677189340031
 20
1018.8621578247828
 40
15.606666852965741
 50
85.271076607934177
 51
118.3601615403356
  0
ARC
  8
_0-1_レイヤ___3
  6
CONTINUOUS
 62
    7
 10
836.14186689671737
 20
1025.743736853676
 40
8.7563144904681049
 50
13.552764168683819
 51
82.040652837868947
  0
ARC
  8
_0-1_レイヤ___3
  6
CONTINUOUS
 62
    7
 10
841.6381805227893
 20
1027.1196981382561
 40
3.0910031234331403
 50
319.09523565725505
 51
12.63264074644994
  0
ARC
  8
_0-1_レイヤ___3
  6
CONTINUOUS
 62
    7
 10
837.61414523853023
 20
1030.1479424576578
 40
8.1226520570888994
 50
307.63754092575812
 51
321.53807359145674
  0
ARC
  8
_0-1_レイヤ___3
  6
CONTINUOUS
 62
    7
 10
810.82102435493584
 20
1065.8129201552154
 40
52.729975268883173
 50
303.40845716740472
 51
307.0267287689685
  0
ARC
  8
_0-1_レイヤ___3
  6
CONTINUOUS
 62
    7
 10
769.70024808627795
 20
1205.604800847311
 40
2.2336861300712596
 50
338.21144534738903
 51
15.339509439565779
  0
ARC
  8
_0-1_レイヤ___3
  6
CONTINUOUS
 62
    7
 10
770.84637199545841
 20
1205.198990854574
 40
1.0199704256863049
 50
292.35791006600482
 51
335.48024156069465
  0
ARC
  8
_0-1_レイヤ___3
  6
CONTINUOUS
 62
    7
 10
770.18558479125647
 20
1207.4987012202987
 40
3.4083737742423246
 50
266.78375975032878
 51
287.92099896942261
  0
ARC
  8
_0-1_レイヤ___3
  6
CONTINUOUS
 62
    7
 10
769.70976981323236
 20
1203.2808851525383
 40
0.8630805582880268
 50
70.747168823495812
 51
172.35560107312426
  0
ARC
  8
_0-1_レイヤ___3
  6
CONTINUOUS
 62
    7
 10
769.57375834046627
 20
1208.444608211212
 40
5.0999067912810911
 50
237.2435972692198
 51
261.89074537197348
  0
ARC
  8
_0-1_レイヤ___3
  6
CONTINUOUS
 62
    7
 10
767.98107700604407
 20
1205.7953430217688
 40
2.0123796399494736
 50
170.84005153390345
 51
234.56563271252546
  0
ARC
  8
_0-1_レイヤ___3
  6
CONTINUOUS
 62
    7
 10
867.82000641875402
 20
1197.5897003889352
 40
102.18196973056052
 50
173.70387695255761
 51
175.21371349135947
  0
ARC
  8
_0-1_レイヤ___3
  6
CONTINUOUS
 62
    7
 10
768.21030517935594
 20
1208.8952821988014
 40
1.9584790738589914
 50
114.62150470969431
 51
182.91467619326392
  0
ARC
  8
_0-1_レイヤ___3
  6
CONTINUOUS
 62
    7
 10
769.29259461188724
 20
1205.6986397947569
 40
5.3267611259844392
 50
83.946278074963644
 51
110.87670764341148
  0
ARC
  8
_0-1_レイヤ___3
  6
CONTINUOUS
 62
    7
 10
769.69057548865283
 20
1206.6681276225174
 40
4.3306665833150264
 50
39.037319270471897
 51
87.832578375368044
  0
ARC
  8
_0-1_レイヤ___3
  6
CONTINUOUS
 62
    7
 10
771.71700304102546
 20
1209.2703046891372
 40
1.3432221356501808
 50
327.85858074326057
 51
5.3564237492249598
  0
ARC
  8
_0-1_レイヤ___3
  6
CONTINUOUS
 62
    7
 10
777.43763776081505
 20
1205.221764572108
 40
5.6675864962850584
 50
143.9674085197608
 51
170.10504536052079
  0
ARC
  8
_0-1_レイヤ___3
  6
CONTINUOUS
 62
    7
 10
798.57405212142805
 20
1123.6754920363378
 40
3.4910675992065254
 50
250.94597338109702
 51
274.60539523083401
  0
ARC
  8
_0-1_レイヤ___3
  6
CONTINUOUS
 62
    7
 10
799.2596363889636
 20
1126.504941706876
 40
6.3952551500734174
 50
236.11776017094752
 51
253.4165771826103
  0
ARC
  8
_0-1_レイヤ___3
  6
CONTINUOUS
 62
    7
 10
796.68157490833482
 20
1122.8777567764687
 40
1.9503647093276815
 50
200.46953969841698
 51
239.59097884538386
  0
ARC
  8
_0-1_レイヤ___3
  6
CONTINUOUS
 62
    7
 10
798.93752083899199
 20
1122.4781372978148
 40
4.092918066454871
 50
82.463205521404234
 51
183.95697326210848
  0
ARC
  8
_0-1_レイヤ___3
  6
CONTINUOUS
 62
    7
 10
798.18738103209046
 20
1122.5012051580038
 40
4.2347880826515762
 50
39.514631075026102
 51
72.307625693536892
  0
ARC
  8
_0-1_レイヤ___3
  6
CONTINUOUS
 62
    7
 10
799.82274862225427
 20
1123.4437026265541
 40
2.3940833863304181
 50
318.44760570077653
 51
47.037617014193202
  0
ARC
  8
_0-1_レイヤ___3
  6
CONTINUOUS
 62
    7
 10
797.4652143933115
 20
1125.6298170194148
 40
5.6088676361903733
 50
284.33964611009901
 51
317.70990264702169
  0
ARC
  8
_0-1_レイヤ___3
  6
CONTINUOUS
 62
    7
 10
899.15149451425759
 20
1156.3785170816018
 40
4.0726823379099333
 50
196.88358334033146
 51
324.19177224361664
  0
ARC
  8
_0-1_レイヤ___3
  6
CONTINUOUS
 62
    7
 10
900.0240378945266
 20
1154.9769295783356
 40
4.7746945715751981
 50
94.68132418849936
 51
177.37390938438648
  0
ARC
  8
_0-1_レイヤ___3
  6
CONTINUOUS
 62
    7
 10
901.80854575799469
 20
1147.1523332646493
 40
12.769812482750895
 50
88.178890660645365
 51
99.802935536201645
  0
ARC
  8
_0-1_レイヤ___3
  6
CONTINUOUS
 62
    7
 10
901.50894170463243
 20
1138.6142443720794
 40
21.313128626339292
 50
79.878694138039776
 51
88.10329394695664
  0
ARC
  8
_0-1_レイヤ___3
  6
CONTINUOUS
 62
    7
 10
1080.1434543411031
 20
1068.6511476303726
 40
197.12206119506754
 50
152.5249963794142
 51
154.34490126642513
  0
ARC
  8
_0-1_レイヤ___3
  6
CONTINUOUS
 62
    7
 10
752.79851195955575
 20
1090.2414900731865
 40
3.5624232019283064
 50
336.05590189105249
 51
62.302114160569914
  0
ARC
  8
_0-1_レイヤ___3
  6
CONTINUOUS
 62
    7
 10
752.84922161978545
 20
1090.2111120972982
 40
3.5662382582715009
 50
63.25036411291498
 51
153.61953353292088
  0
ARC
  8
_0-1_レイヤ___3
  6
CONTINUOUS
 62
    7
 10
753.18028306072063
 20
1090.3043391026004
 40
3.8283530509024883
 50
157.07310905220109
 51
239.79678859364699
  0
ARC
  8
_0-1_レイヤ___3
  6
CONTINUOUS
 62
    7
 10
752.66550820346583
 20
1090.5326351933174
 40
3.8080526688118521
 50
248.24924993846719
 51
332.86284050070196
  0
ARC
  8
_0-1_レイヤ___3
  6
CONTINUOUS
 62
    7
 10
716.71566820686382
 20
1190.2827988179806
 40
3.83846481002456
 50
337.20586287036588
 51
59.6640347754863
  0
ARC
  8
_0-1_レイヤ___3
  6
CONTINUOUS
 62
    7
 10
717.16300079509961
 20
1190.0697725713574
 40
3.8283530509022845
 50
67.073109052202099
 51
149.79678859364802
  0
ARC
  8
_0-1_レイヤ___3
  6
CONTINUOUS
 62
    7
 10
717.38028306072022
 20
1190.5043371025997
 40
3.8283530509020123
 50
157.0731090522001
 51
239.79678859364597
  0
ARC
  8
_0-1_レイヤ___3
  6
CONTINUOUS
 62
    7
 10
716.91109311909133
 20
1190.8254955993821
 40
3.9112041259898556
 50
248.13311880178941
 51
328.73677884405868
  0
ARC
  8
_0-1_レイヤ___3
  6
CONTINUOUS
 62
    7
 10
791.28450879260117
 20
1018.2057476798932
 40
3.5553079479933762
 50
333.0728002011013
 51
63.797097444744793
  0
ARC
  8
_0-1_レイヤ___3
  6
CONTINUOUS
 62
    7
 10
791.39370715373514
 20
1017.7776554954485
 40
3.9017607687905165
 50
68.015406242222539
 51
148.85449140360311
  0
ARC
  8
_0-1_レイヤ___3
  6
CONTINUOUS
 62
    7
 10
791.59129688581731
 20
1018.3845494286127
 40
3.808052668811976
 50
158.24924993846304
 51
242.86284050069787
  0
ARC
  8
_0-1_レイヤ___3
  6
CONTINUOUS
 62
    7
 10
791.30015176568622
 20
1018.2515456725221
 40
3.5624232019284348
 50
246.05590189104817
 51
332.30211416056562
  0
ARC
  8
_0-1_レイヤ___3
  6
CONTINUOUS
 62
    7
 10
884.8245580326959
 20
1077.8524314265915
 40
3.9112041259897854
 50
338.13311880178634
 51
58.736778844055607
  0
ARC
  8
_0-1_レイヤ___3
  6
CONTINUOUS
 62
    7
 10
885.36725481409701
 20
1077.657006514364
 40
3.8384648100246284
 50
67.205862870358757
 51
149.66403477547917
  0
ARC
  8
_0-1_レイヤ___3
  6
CONTINUOUS
 62
    7
 10
885.58028106072027
 20
1078.1043391026001
 40
3.8283530509020123
 50
157.0731090522001
 51
239.79678859364597
  0
ARC
  8
_0-1_レイヤ___3
  6
CONTINUOUS
 62
    7
 10
885.14571652947882
 20
1078.3216213682206
 40
3.8283530509020114
 50
247.07310905218992
 51
329.79678859363577
  0
ARC
  8
_0-1_レイヤ___3
  6
CONTINUOUS
 62
    7
 10
834.88450679260086
 20
1165.8057456798931
 40
3.555307947993755
 50
333.07280020109926
 51
63.797097444742761
  0
ARC
  8
_0-1_レイヤ___3
  6
CONTINUOUS
 62
    7
 10
834.96299879509945
 20
1165.4697725713575
 40
3.8283530509024883
 50
67.073109052201104
 51
149.79678859364699
  0
ARC
  8
_0-1_レイヤ___3
  6
CONTINUOUS
 62
    7
 10
835.28415729188157
 20
1165.9389625129868
 40
3.9112041259898556
 50
158.13311880178938
 51
238.7367788440587
  0
ARC
  8
_0-1_レイヤ___3
  6
CONTINUOUS
 62
    7
 10
834.74146051048035
 20
1166.1343874252143
 40
3.8384648100247656
 50
247.20586287036485
 51
329.66403477548522
  0
ARC
  8
_0-1_レイヤ___3
  6
CONTINUOUS
 62
    7
 10
885.15059038691436
 20
1240.3808564009719
 40
13.861924934817587
 50
297.23490671820241
 51
332.57250260763294
  0
ARC
  8
_0-1_レイヤ___3
  6
CONTINUOUS
 62
    7
 10
888.79895059560522
 20
1234.0521323054143
 40
6.5743796652107278
 50
246.66083726919675
 51
294.20398826587041
  0
ARC
  8
_0-1_レイヤ___3
  6
CONTINUOUS
 62
    7
 10
889.01821378699606
 20
1233.3926791495198
 40
6.0733937405834384
 50
211.76196942473854
 51
242.29267597625244
  0
ARC
  8
_0-1_レイヤ___3
  6
CONTINUOUS
 62
    7
 10
898.39311221281878
 20
1239.3284611558377
 40
17.169239465510778
 50
160.44326609144832
 51
212.13568072189619
  0
ARC
  8
_0-1_レイヤ___3
  6
CONTINUOUS
 62
    7
 10
890.96956072743308
 20
1241.6708167699621
 40
9.3939751680433421
 50
120.12837030807657
 51
158.74906242732698
  0
ARC
  8
_0-1_レイヤ___3
  6
CONTINUOUS
 62
    7
 10
889.73801859099819
 20
1240.7130141065577
 40
9.7278449290771309
 50
353.04869236645419
 51
110.98431112298647
  0
ARC
  8
_0-1_レイヤ___3
  6
CONTINUOUS
 62
    7
 10
882.50196323301464
 20
1242.3414091113452
 40
17.123814616192622
 50
330.8318295428096
 51
350.56963907219432
  0
ARC
  8
_0-1_レイヤ___3
  6
CONTINUOUS
 62
    7
 10
809.0940690715787
 20
1351.0711547227518
 40
15.835787666074522
 50
308.60308229968496
 51
331.83182384141389
  0
ARC
  8
_0-1_レイヤ___3
  6
CONTINUOUS
 62
    7
 10
813.46747913644845
 20
1345.8028869890384
 40
8.9909913657364786
 50
279.51898948346764
 51
307.76966982868305
  0
ARC
  8
_0-1_レイヤ___3
  6
CONTINUOUS
 62
    7
 10
814.29365494756314
 20
1342.7289747830978
 40
5.8308347002732894
 50
210.20289531755304
 51
276.50628495958358
  0
ARC
  8
_0-1_レイヤ___3
  6
CONTINUOUS
 62
    7
 10
823.09445704336565
 20
1348.5900475667704
 40
16.397833719928776
 50
150.13414400263014
 51
212.43292604047508
  0
ARC
  8
_0-1_レイヤ___3
  6
CONTINUOUS
 62
    7
 10
815.15162791002592
 20
1352.4074129334335
 40
7.6362061670161285
 50
117.25716257129309
 51
145.28954758223668
  0
ARC
  8
_0-1_レイヤ___3
  6
CONTINUOUS
 62
    7
 10
816.17461686295076
 20
1350.2229190444764
 40
10.047060018754729
 50
63.00978568423502
 51
116.73781035332294
  0
ARC
  8
_0-1_レイヤ___3
  6
CONTINUOUS
 62
    7
 10
816.19703894950521
 20
1351.5440143957944
 40
8.8786144314022675
 50
0.9788714534416853
 51
59.266934632950779
  0
ARC
  8
_0-1_レイヤ___3
  6
CONTINUOUS
 62
    7
 10
811.30173592830647
 20
1351.108269017652
 40
13.78514336166875
 50
339.74423272090894
 51
2.4422789115318362
  0
ARC
  8
_0-1_レイヤ___3
  6
CONTINUOUS
 62
    7
 10
804.61261835103119
 20
1353.1618444760975
 40
20.775201186360039
 50
332.58320130478313
 51
340.81787217384937
  0
ARC
  8
_0-1_レイヤ___3
  6
CONTINUOUS
 62
    7
 10
906.19141007099461
 20
712.11586361488708
 40
15.947392455316633
 50
308.84727207362721
 51
331.86435503354124
  0
ARC
  8
_0-1_レイヤ___3
  6
CONTINUOUS
 62
    7
 10
910.53412929483
 20
706.92954478636375
 40
9.1851313616802202
 50
280.41354889976265
 51
308.04194173614667
  0
ARC
  8
_0-1_レイヤ___3
  6
CONTINUOUS
 62
    7
 10
911.46425208204289
 20
703.43126511254445
 40
5.583501708022121
 50
210.52048452571404
 51
277.51358339051404
  0
ARC
  8
_0-1_レイヤ___3
  6
CONTINUOUS
 62
    7
 10
920.40751809538779
 20
709.56765587891914
 40
16.420881308818601
 50
151.37017439665757
 51
213.11864684342964
  0
ARC
  8
_0-1_レイヤ___3
  6
CONTINUOUS
 62
    7
 10
912.95067228436085
 20
712.79957054096963
 40
8.3596667246092657
 50
117.78045902641884
 51
146.31798275556204
  0
ARC
  8
_0-1_レイヤ___3
  6
CONTINUOUS
 62
    7
 10
912.54599027605013
 20
711.13657500182308
 40
9.7087218381829423
 50
353.60800397089071
 51
111.07801226312522
  0
ARC
  8
_0-1_レイヤ___3
  6
CONTINUOUS
 62
    7
 10
905.76532394745061
 20
712.81847219081124
 40
16.65971332578847
 50
330.42436090860269
 51
350.45423202635396
  0
ARC
  8
_0-1_レイヤ___3
  6
CONTINUOUS
 62
    7
 10
892.64757091640422
 20
977.06932327352001
 40
15.875928956465932
 50
308.79476344560499
 51
331.91688664011605
  0
ARC
  8
_0-1_レイヤ___3
  6
CONTINUOUS
 62
    7
 10
897.08758403300226
 20
971.78564003634983
 40
8.9772939102846774
 50
279.66241516149012
 51
307.83657382423985
  0
ARC
  8
_0-1_レイヤ___3
  6
CONTINUOUS
 62
    7
 10
897.9501669586291
 20
968.48352636899358
 40
5.585101558467275
 50
208.76702974609401
 51
276.62328867641713
  0
ARC
  8
_0-1_レイヤ___3
  6
CONTINUOUS
 62
    7
 10
906.42513921542206
 20
974.71522861800645
 40
16.072827711637508
 50
150.80332774885724
 51
213.7068977791559
  0
ARC
  8
_0-1_レイヤ___3
  6
CONTINUOUS
 62
    7
 10
899.16689086136262
 20
978.08795367079279
 40
8.1134422444344381
 50
118.83105122042608
 51
146.58772869429876
  0
ARC
  8
_0-1_レイヤ___3
  6
CONTINUOUS
 62
    7
 10
899.69059412987417
 20
976.26225309655388
 40
9.9742985367124746
 50
49.756547083352316
 51
116.40841726022202
  0
ARC
  8
_0-1_レイヤ___3
  6
CONTINUOUS
 62
    7
 10
899.74449715367984
 20
977.52135581241737
 40
9.0115471242418685
 50
1.1085436171681597
 51
44.840315914189965
  0
ARC
  8
_0-1_レイヤ___3
  6
CONTINUOUS
 62
    7
 10
895.31248126787762
 20
977.15033439275294
 40
13.45293508621042
 50
339.02948730695925
 51
2.3233291367601625
  0
ARC
  8
_0-1_レイヤ___3
  6
CONTINUOUS
 62
    7
 10
888.63992607944272
 20
979.25833514364035
 40
20.44226660025673
 50
331.79164675422345
 51
340.20576023366129
  0
ARC
  8
_0-1_レイヤ___3
  6
CONTINUOUS
 62
    7
 10
801.14498256335867
 20
1307.7979342562753
 40
43.893530542719709
 50
290.46870140829304
 51
304.89343138866258
  0
ARC
  8
_0-1_レイヤ___3
  6
CONTINUOUS
 62
    7
 10
806.15735031257077
 20
1296.815168284309
 40
31.862857283234739
 50
279.56950949697728
 51
288.93055589862587
  0
ARC
  8
_0-1_レイヤ___3
  6
CONTINUOUS
 62
    7
 10
810.70435966228888
 20
1267.6314644542501
 40
2.3582132344609392
 50
251.45572354599705
 51
288.54427645400295
  0
ARC
  8
_0-1_レイヤ___3
  6
CONTINUOUS
 62
    7
 10
810.27611581521921
 20
1266.1009806036031
 40
0.7752136852413129
 50
196.89461721627245
 51
245.47723311514201
  0
ARC
  8
_0-1_レイヤ___3
  6
CONTINUOUS
 62
    7
 10
811.54044748097203
 20
1266.4068386191502
 40
2.0752115494122809
 50
167.50855839011061
 51
194.82972026571437
  0
ARC
  8
_0-1_レイヤ___3
  6
CONTINUOUS
 62
    7
 10
796.08481678813246
 20
1270.1895257958777
 40
13.837162153181751
 50
346.05837458740297
 51
356.37929994383461
  0
ARC
  8
_0-1_レイヤ___3
  6
CONTINUOUS
 62
    7
 10
809.01167140047517
 20
1269.2183323966483
 40
0.8880415775559336
 50
6.2943490131690849
 51
98.894937724018547
  0
ARC
  8
_0-1_レイヤ___3
  6
CONTINUOUS
 62
    7
 10
808.98790464505441
 20
1265.7526251111333
 40
4.3445528623943837
 50
91.497596952656608
 51
102.40831798375805
  0
ARC
  8
_0-1_レイヤ___3
  6
CONTINUOUS
 62
    7
 10
1139.1920486198815
 20
1125.070140971055
 40
361.46311701218428
 50
154.62784033345488
 51
156.36295256850099
  0
ARC
  8
_0-1_レイヤ___3
  6
CONTINUOUS
 62
    7
 10
820.13932170163162
 20
1275.013648884694
 40
9.0194379979150447
 50
122.79288443897043
 51
146.77469663610901
  0
ARC
  8
_0-1_レイヤ___3
  6
CONTINUOUS
 62
    7
 10
822.53863458907222
 20
1269.4726677567267
 40
15.00914648465044
 50
85.50720263285838
 51
119.03359704398031
  0
ARC
  8
_0-1_レイヤ___3
  6
CONTINUOUS
 62
    7
 10
822.63745317154462
 20
1275.8683628008039
 40
8.6347487885434013
 50
12.897430260090573
 51
82.835556543101347
  0
ARC
  8
_0-1_レイヤ___3
  6
CONTINUOUS
 62
    7
 10
827.81093573254782
 20
1277.0560180649725
 40
3.3266959973060661
 50
320.40428577062346
 51
12.846833299627237
  0
ARC
  8
_0-1_レイヤ___3
  6
CONTINUOUS
 62
    7
 10
824.37328726557337
 20
1279.6448683429253
 40
7.6281825609339027
 50
307.28565149439407
 51
321.87792862263154
  0
ARC
  8
_0-1_レイヤ___3
  6
CONTINUOUS
 62
    7
 10
816.02928214899077
 20
1290.534293355428
 40
21.346832931095992
 50
298.6199350939367
 51
307.39839494798383
  0
ARC
  8
_0-1_レイヤ___3
  6
CONTINUOUS
 62
    7
 10
872.49608057197247
 20
1339.5359657823979
 40
2.0115166339703383
 50
334.6800122585725
 51
13.211603953211432
  0
ARC
  8
_0-1_レイヤ___3
  6
CONTINUOUS
 62
    7
 10
873.39785613984373
 20
1339.2063208728453
 40
1.0590278329164295
 50
287.38917127338993
 51
329.93044523479023
  0
ARC
  8
_0-1_レイヤ___3
  6
CONTINUOUS
 62
    7
 10
877.41333565371508
 20
1319.5092286473036
 40
19.04905311109987
 50
101.19692621198041
 51
108.48295211183665
  0
ARC
  8
_0-1_レイヤ___3
  6
CONTINUOUS
 62
    7
 10
872.17161525924314
 20
1337.1149810444356
 40
0.9208018654896431
 50
149.97758084781492
 51
174.97128240482547
  0
ARC
  8
_0-1_レイヤ___3
  6
CONTINUOUS
 62
    7
 10
871.8982247278102
 20
1341.9016599316878
 40
4.7498084627291801
 50
236.17721457849638
 51
262.20920339608773
  0
ARC
  8
_0-1_レイヤ___3
  6
CONTINUOUS
 62
    7
 10
870.47722158778913
 20
1339.5810646071072
 40
2.0340171801010314
 50
169.95920949151022
 51
233.04365915657996
  0
ARC
  8
_0-1_レイヤ___3
  6
CONTINUOUS
 62
    7
 10
803.22763723323828
 20
1345.4777952555341
 40
65.481672347368701
 50
355.14491108080171
 51
357.65253268475044
  0
ARC
  8
_0-1_レイヤ___3
  6
CONTINUOUS
 62
    7
 10
870.73833771759394
 20
1342.6212370742223
 40
2.0912694898841626
 50
110.83973768637249
 51
175.21473733449346
  0
ARC
  8
_0-1_レイヤ___3
  6
CONTINUOUS
 62
    7
 10
871.62284278062498
 20
1340.2299058283861
 40
4.6408876683886557
 50
79.678493284607669
 51
110.54234183743844
  0
ARC
  8
_0-1_レイヤ___3
  6
CONTINUOUS
 62
    7
 10
872.46613766431312
 20
1340.8127056112314
 40
3.983005778661568
 50
46.370964111396617
 51
90.169456290081371
  0
ARC
  8
_0-1_レイヤ___3
  6
CONTINUOUS
 62
    7
 10
874.28363432640947
 20
1342.9413467685672
 40
1.1980340679385455
 50
12.257395858426463
 51
39.024615790175631
  0
ARC
  8
_0-1_レイヤ___3
  6
CONTINUOUS
 62
    7
 10
874.58430152544918
 20
1342.8716429501585
 40
0.9284431832780727
 50
333.38411761157374
 51
20.427766270607435
  0
ARC
  8
_0-1_レイヤ___3
  6
CONTINUOUS
 62
    7
 10
882.33580105569547
 20
1338.3373258162642
 40
8.054026005427291
 50
149.24668602295441
 51
168.11748942612246
  0
ARC
  8
_0-1_レイヤ___3
  6
CONTINUOUS
 62
    7
 10
863.08260477136355
 20
716.73740303397813
 40
2.0243140510894411
 50
334.80656688356146
 51
13.085049328200729
  0
ARC
  8
_0-1_レイヤ___3
  6
CONTINUOUS
 62
    7
 10
863.99611131756319
 20
716.40850990069703
 40
1.0616311227734399
 50
287.4438562456786
 51
329.87576026243539
  0
ARC
  8
_0-1_レイヤ___3
  6
CONTINUOUS
 62
    7
 10
867.7683120946283
 20
698.58600086563661
 40
17.16088145846896
 50
101.61117985594618
 51
109.16575580959821
  0
ARC
  8
_0-1_レイヤ___3
  6
CONTINUOUS
 62
    7
 10
862.91145715748212
 20
714.43228207075072
 40
0.8578797400842636
 50
154.93629480516904
 51
182.44384024682179
  0
ARC
  8
_0-1_レイヤ___3
  6
CONTINUOUS
 62
    7
 10
862.71260173588428
 20
719.56869859613357
 40
5.214707983827461
 50
237.80714242762483
 51
262.74830204347359
  0
ARC
  8
_0-1_レイヤ___3
  6
CONTINUOUS
 62
    7
 10
861.04176117460429
 20
716.74378676658739
 40
1.9360671116751087
 50
170.12857017793073
 51
235.11115971814044
  0
ARC
  8
_0-1_レイヤ___3
  6
CONTINUOUS
 62
    7
 10
1048.3617282024236
 20
697.81599012977972
 40
190.20497959226432
 50
173.3035314451873
 51
174.18840306698306
  0
ARC
  8
_0-1_レイヤ___3
  6
CONTINUOUS
 62
    7
 10
861.32631353553859
 20
720.05186506220275
 40
1.8727981963746858
 50
113.00649178226713
 51
181.71849304919195
  0
ARC
  8
_0-1_レイヤ___3
  6
CONTINUOUS
 62
    7
 10
862.19861507875305
 20
717.7008235856747
 40
4.3793008236029092
 50
78.731545683609454
 51
111.48928943842232
  0
ARC
  8
_0-1_レイヤ___3
  6
CONTINUOUS
 62
    7
 10
863.06125855488699
 20
718.00950375498451
 40
3.9862041882008099
 50
36.770707489110229
 51
90.099190156746005
  0
ARC
  8
_0-1_レイヤ___3
  6
CONTINUOUS
 62
    7
 10
865.02471979036488
 20
720.27811143777035
 40
1.2352476793303875
 50
326.46491709407337
 51
5.4625959700736475
  0
ARC
  8
_0-1_レイヤ___3
  6
CONTINUOUS
 62
    7
 10
869.65366910847013
 20
716.68765553387993
 40
4.6272861333627411
 50
141.06368817103467
 51
173.69658193288831
  0
ARC
  8
_0-1_レイヤ___3
  6
CONTINUOUS
 62
    7
 10
762.23631718794832
 20
1279.6563464783421
 40
3.9017607687906555
 50
338.01540624222866
 51
58.854491403609238
  0
ARC
  8
_0-1_レイヤ___3
  6
CONTINUOUS
 62
    7
 10
762.76725681409698
 20
1279.4570025143639
 40
3.8384648100247647
 50
67.205862870354679
 51
149.66403477547507
  0
ARC
  8
_0-1_レイヤ___3
  6
CONTINUOUS
 62
    7
 10
762.993051117714
 20
1279.9085911215977
 40
3.8384648100249015
 50
157.20586287036079
 51
239.66403477548118
  0
ARC
  8
_0-1_レイヤ___3
  6
CONTINUOUS
 62
    7
 10
762.54571852947845
 20
1280.1216173682205
 40
3.8283530509021482
 50
247.073109052196
 51
329.79678859364191
  0
ARC
  8
_0-1_レイヤ___3
  6
CONTINUOUS
 62
    7
 10
847.31566620686363
 20
1315.8827968179808
 40
3.8384648100246976
 50
337.20586287036178
 51
59.664034775482179
  0
ARC
  8
_0-1_レイヤ___3
  6
CONTINUOUS
 62
    7
 10
847.64921961978575
 20
1316.0111080972981
 40
3.5662382582715644
 50
63.250364112918035
 51
153.61953353292398
  0
ARC
  8
_0-1_レイヤ___3
  6
CONTINUOUS
 62
    7
 10
847.9802810607207
 20
1316.1043351025999
 40
3.8283530509024883
 50
157.07310905220109
 51
239.79678859364699
  0
ARC
  8
_0-1_レイヤ___3
  6
CONTINUOUS
 62
    7
 10
847.51501017084183
 20
1316.4137364441297
 40
3.9017607687907949
 50
248.0154062422348
 51
328.85449140361544
  0
ARC
  8
_0-1_レイヤ___3
  6
CONTINUOUS
 62
    7
 10
893.728611913284
 20
1290.4867389266569
 40
3.463163517771422
 50
334.49789877484102
 51
63.860117276776869
  0
ARC
  8
_0-1_レイヤ___3
  6
CONTINUOUS
 62
    7
 10
893.6443079521847
 20
1290.4258431001012
 40
3.5553079479938177
 50
63.072800201102325
 51
153.79709744474579
  0
ARC
  8
_0-1_レイヤ___3
  6
CONTINUOUS
 62
    7
 10
893.78933323941351
 20
1290.5774246053111
 40
3.6240240189927251
 50
156.96134358180498
 51
241.39667246982575
  0
ARC
  8
_0-1_レイヤ___3
  6
CONTINUOUS
 62
    7
 10
893.65949570479233
 20
1290.5802798422797
 40
3.5662382582712477
 50
243.25036411291296
 51
333.61953353291887
  0
ARC
  8
_0-1_レイヤ___3
  6
CONTINUOUS
 62
    7
 10
866.86977178979828
 20
812.80084001229193
 40
3.5662382582712477
 50
333.25036411292314
 51
63.619533532929033
  0
ARC
  8
_0-1_レイヤ___3
  6
CONTINUOUS
 62
    7
 10
867.00856555889163
 20
812.73985426705599
 40
3.5624232019282385
 50
66.055901891049245
 51
152.30211416056667
  0
ARC
  8
_0-1_レイヤ___3
  6
CONTINUOUS
 62
    7
 10
867.02420853197668
 20
812.78565225968487
 40
3.5553079479936915
 50
153.07280020109621
 51
243.79709744473965
  0
ARC
  8
_0-1_レイヤ___3
  6
CONTINUOUS
 62
    7
 10
866.87262702676708
 20
812.93067754691401
 40
3.6240240189933246
 50
246.96134358180166
 51
331.39667246982248
  0
ARC
  8
_0-1_レイヤ___3
  6
CONTINUOUS
 62
    7
 10
886.59030247159694
 20
864.9973742587465
 40
13.896550156167695
 50
117.03259560629778
 51
152.58543394498375
  0
ARC
  8
_0-1_レイヤ___3
  6
CONTINUOUS
 62
    7
 10
882.70300076337651
 20
871.55217460568201
 40
6.3096556941613358
 50
35.271551683148395
 51
112.63808939000441
  0
ARC
  8
_0-1_レイヤ___3
  6
CONTINUOUS
 62
    7
 10
873.84792846742175
 20
866.2706071855373
 40
16.608351513570657
 50
331.1457653323119
 51
32.50585774362159
  0
ARC
  8
_0-1_レイヤ___3
  6
CONTINUOUS
 62
    7
 10
881.66338744320865
 20
862.74045652771997
 40
8.088201374474
 50
297.95018622720301
 51
326.32500332057549
  0
ARC
  8
_0-1_レイヤ___3
  6
CONTINUOUS
 62
    7
 10
881.21356546940081
 20
864.54172780776639
 40
9.9002895160254329
 50
227.72981172798191
 51
295.36291284922925
  0
ARC
  8
_0-1_レイヤ___3
  6
CONTINUOUS
 62
    7
 10
881.25030365488396
 20
863.43155841771454
 40
9.13633345387532
 50
179.47232399174084
 51
222.87060557295425
  0
ARC
  8
_0-1_レイヤ___3
  6
CONTINUOUS
 62
    7
 10
886.11039056948709
 20
863.68773805736419
 40
13.997090206287567
 50
157.97986833529984
 51
180.70423955170884
  0
ARC
  8
_0-1_レイヤ___3
  6
CONTINUOUS
 62
    7
 10
892.76977810280857
 20
861.48095570418627
 40
21.002927127938982
 50
151.8315839722697
 51
159.21033405740269
  0
ARC
  8
_0-1_レイヤ___3
  6
CONTINUOUS
 62
    7
 10
773.76373576121682
 20
908.79345178120366
 40
43.89353759621067
 50
110.46869657829792
 51
124.89342655866746
  0
ARC
  8
_0-1_レイヤ___3
  6
CONTINUOUS
 62
    7
 10
768.75136901200688
 20
919.77622565527008
 40
31.862857283233055
 50
99.569509496978029
 51
108.93055589862664
  0
ARC
  8
_0-1_レイヤ___3
  6
CONTINUOUS
 62
    7
 10
764.20435966228854
 20
948.95287437132174
 40
2.3649030984672517
 50
71.510085063856678
 51
108.48991493614331
  0
ARC
  8
_0-1_レイヤ___3
  6
CONTINUOUS
 62
    7
 10
764.63225361395291
 20
950.49010717749434
 40
0.7756374764745717
 50
16.908745531407373
 51
65.463104800079179
  0
ARC
  8
_0-1_レイヤ___3
  6
CONTINUOUS
 62
    7
 10
763.38608247991669
 20
950.18491880280158
 40
2.0579054402886618
 50
347.39142208992013
 51
14.946856565904225
  0
ARC
  8
_0-1_レイヤ___3
  6
CONTINUOUS
 62
    7
 10
778.38307854771256
 20
946.46327653681305
 40
13.39460986401798
 50
165.85899989539396
 51
176.43699190582907
  0
ARC
  8
_0-1_レイヤ___3
  6
CONTINUOUS
 62
    7
 10
765.81756939324532
 20
947.44300297850009
 40
0.8166051973127418
 50
190.39216295012099
 51
285.39532513958221
  0
ARC
  8
_0-1_レイヤ___3
  6
CONTINUOUS
 62
    7
 10
765.66203024084314
 20
951.30791515252076
 40
4.6670906681266473
 50
274.57578388398224
 51
284.80178923684355
  0
ARC
  8
_0-1_レイヤ___3
  6
CONTINUOUS
 62
    7
 10
457.76584915319972
 20
1076.2349049778547
 40
335.09732186612212
 50
335.45177350550495
 51
337.27717843946971
  0
ARC
  8
_0-1_レイヤ___3
  6
CONTINUOUS
 62
    7
 10
754.44704443566582
 20
941.95224316904068
 40
9.5090857368610884
 50
303.20352549658753
 51
328.72544310786355
  0
ARC
  8
_0-1_レイヤ___3
  6
CONTINUOUS
 62
    7
 10
752.42309700671387
 20
946.98085550748965
 40
14.862887469539622
 50
264.9483324924193
 51
299.11285970065165
  0
ARC
  8
_0-1_レイヤ___3
  6
CONTINUOUS
 62
    7
 10
752.34553319525435
 20
940.81683589869135
 40
8.7284029701904888
 50
193.38884473357479
 51
261.89117610456975
  0
ARC
  8
_0-1_レイヤ___3
  6
CONTINUOUS
 62
    7
 10
747.09778159202972
 20
939.53537587460551
 40
3.326695997305753
 50
140.40428577062218
 51
192.84683329962598
  0
ARC
  8
_0-1_レイヤ___3
  6
CONTINUOUS
 62
    7
 10
750.5354300590044
 20
936.94652559665292
 40
7.6281825609339027
 50
127.28565149439407
 51
141.87792862263152
  0
ARC
  8
_0-1_レイヤ___3
  6
CONTINUOUS
 62
    7
 10
758.87943517559063
 20
926.05710058414979
 40
21.346832931098017
 50
118.61993509394506
 51
127.39839494799216
  0
ARC
  8
_0-1_レイヤ___3
  6
CONTINUOUS
 62
    7
 10
818.41263675260495
 20
761.05543015717922
 40
2.0115166339699551
 50
154.68001225855909
 51
193.21160395319797
  0
ARC
  8
_0-1_レイヤ___3
  6
CONTINUOUS
 62
    7
 10
817.51086118473484
 20
761.38507506673227
 40
1.0590278329169192
 50
107.38917127342306
 51
149.93044523482328
  0
ARC
  8
_0-1_レイヤ___3
  6
CONTINUOUS
 62
    7
 10
813.49538167086041
 20
781.08216729227456
 40
19.049053111100445
 50
281.19692621198698
 51
288.48295211184319
  0
ARC
  8
_0-1_レイヤ___3
  6
CONTINUOUS
 62
    7
 10
818.73710206533462
 20
763.4764148951424
 40
0.9208018654896431
 50
329.97758084781492
 51
354.97128240482544
  0
ARC
  8
_0-1_レイヤ___3
  6
CONTINUOUS
 62
    7
 10
818.95672642475927
 20
758.40521995755944
 40
5.0390081214955851
 50
57.092270042220072
 51
82.042035846080466
  0
ARC
  8
_0-1_レイヤ___3
  6
CONTINUOUS
 62
    7
 10
820.48363718548626
 20
760.97449449959845
 40
2.0555909933561796
 50
351.07824011972457
 51
53.914702880730054
  0
ARC
  8
_0-1_レイヤ___3
  6
CONTINUOUS
 62
    7
 10
744.12906853626407
 20
766.33981916305879
 40
78.591111072673669
 50
353.75869173480805
 51
355.85245044972953
  0
ARC
  8
_0-1_レイヤ___3
  6
CONTINUOUS
 62
    7
 10
820.35573806316745
 20
757.74547904477822
 40
1.8992837398253728
 50
292.88568355527582
 51
1.5152538994815021
  0
ARC
  8
_0-1_レイヤ___3
  6
CONTINUOUS
 62
    7
 10
818.92766943446543
 20
761.3838466399809
 40
5.8074642369550364
 50
265.32519478506339
 51
291.90611444137676
  0
ARC
  8
_0-1_レイヤ___3
  6
CONTINUOUS
 62
    7
 10
819.80641126268961
 20
763.00749774091832
 40
7.534106455517934
 50
241.35203610795318
 51
259.66184006972617
  0
ARC
  8
_0-1_レイヤ___3
  6
CONTINUOUS
 62
    7
 10
816.81986684695585
 20
757.71654611560712
 40
1.4614679249340194
 50
200.87830554699772
 51
244.65934523697933
  0
ARC
  8
_0-1_レイヤ___3
  6
CONTINUOUS
 62
    7
 10
816.62686068600817
 20
757.55780417271717
 40
1.2271416609294106
 50
155.03681272466807
 51
197.16219979056976
  0
ARC
  8
_0-1_レイヤ___3
  6
CONTINUOUS
 62
    7
 10
806.9458009221604
 20
762.70722784904274
 40
9.7401863869861121
 50
331.60764033287029
 51
347.47973214057743
  0
ARC
  8
_0-1_レイヤ___3
  6
CONTINUOUS
 62
    7
 10
789.93813584014379
 20
842.94326759508499
 40
3.4640753775033244
 50
70.852447211128379
 51
94.698921400805446
  0
ARC
  8
_0-1_レイヤ___3
  6
CONTINUOUS
 62
    7
 10
789.42725980788725
 20
840.67571777190869
 40
5.7796488373609423
 50
55.096402493008306
 51
73.442186303905501
  0
ARC
  8
_0-1_レイヤ___3
  6
CONTINUOUS
 62
    7
 10
791.93170734867624
 20
844.08500421900362
 40
1.5540276438036003
 50
11.53282817452161
 51
58.902357761857544
  0
ARC
  8
_0-1_レイヤ___3
  6
CONTINUOUS
 62
    7
 10
789.60900226812203
 20
844.27246241067814
 40
3.8473316707619643
 50
228.39405988450761
 51
1.8356098877840847
  0
ARC
  8
_0-1_レイヤ___3
  6
CONTINUOUS
 62
    7
 10
788.75568340256496
 20
843.18109590862059
 40
2.4661997339273194
 50
139.71549489068951
 51
226.38125498990689
  0
ARC
  8
_0-1_レイヤ___3
  6
CONTINUOUS
 62
    7
 10
790.57469444314836
 20
841.62105139522714
 40
4.8625389581398846
 50
100.91020969428961
 51
139.5513932451218
  0
ARC
  8
_0-1_レイヤ___3
  6
CONTINUOUS
 62
    7
 10
689.39401584790903
 20
810.22122650625397
 40
4.097735614346198
 50
19.59827265132316
 51
144.58740194276524
  0
ARC
  8
_0-1_レイヤ___3
  6
CONTINUOUS
 62
    7
 10
688.30486450782428
 20
811.77561521378811
 40
4.9527639818017724
 50
276.6027783663277
 51
357.91822545595517
  0
ARC
  8
_0-1_レイヤ___3
  6
CONTINUOUS
 62
    7
 10
686.76153509801156
 20
818.83097101489489
 40
12.160225998807446
 50
268.36397855430778
 51
280.00585369594216
  0
ARC
  8
_0-1_レイヤ___3
  6
CONTINUOUS
 62
    7
 10
686.91974185659478
 20
827.42882822993602
 40
20.759278906838986
 50
259.83020489310229
 51
268.60500319228618
  0
ARC
  8
_0-1_レイヤ___3
  6
CONTINUOUS
 62
    7
 10
750.16138860622686
 20
777.04221139318884
 40
73.305946908823927
 50
150.9874325622412
 51
155.88249782405566
  0
ARC
  8
_0-1_レイヤ___3
  6
CONTINUOUS
 62
    7
 10
835.63894353477974
 20
876.39056192728526
 40
3.5662382582715644
 50
153.25036411291802
 51
243.61953353292395
  0
ARC
  8
_0-1_レイヤ___3
  6
CONTINUOUS
 62
    7
 10
835.54571652947789
 20
876.72162336822089
 40
3.8283530509026242
 50
247.0731090522072
 51
329.7967885936531
  0
ARC
  8
_0-1_レイヤ___3
  6
CONTINUOUS
 62
    7
 10
835.31742043876068
 20
876.20684851096621
 40
3.8080526688120493
 50
338.24924993846605
 51
62.862840500700884
  0
ARC
  8
_0-1_レイヤ___3
  6
CONTINUOUS
 62
    7
 10
835.608565558892
 20
876.33985226705613
 40
3.5624232019287083
 50
66.055901891060799
 51
152.30211416057821
  0
ARC
  8
_0-1_レイヤ___3
  6
CONTINUOUS
 62
    7
 10
871.39766567927541
 20
776.17680464211753
 40
3.535705565681698
 50
152.75018268684181
 51
244.11971495900016
  0
ARC
  8
_0-1_レイヤ___3
  6
CONTINUOUS
 62
    7
 10
871.31501017084179
 20
776.61374444412922
 40
3.9017607687907949
 50
248.0154062422348
 51
328.85449140361544
  0
ARC
  8
_0-1_レイヤ___3
  6
CONTINUOUS
 62
    7
 10
871.11742043876052
 20
776.00685051096571
 40
3.8080526688120493
 50
338.24924993846605
 51
62.862840500700884
  0
ARC
  8
_0-1_レイヤ___3
  6
CONTINUOUS
 62
    7
 10
871.40856555889184
 20
776.13985426705563
 40
3.5624232019283748
 50
66.055901891055555
 51
152.30211416057298
  0
ARC
  8
_0-1_レイヤ___3
  6
CONTINUOUS
 62
    7
 10
797.18933523941405
 20
948.57743060531084
 40
3.6240240189932549
 50
156.96134358179847
 51
241.39667246981935
  0
ARC
  8
_0-1_レイヤ___3
  6
CONTINUOUS
 62
    7
 10
797.05949770479197
 20
948.58028584227986
 40
3.5662382582716279
 50
243.25036411292109
 51
333.61953353292699
  0
ARC
  8
_0-1_レイヤ___3
  6
CONTINUOUS
 62
    7
 10
797.08450879260101
 20
948.60574967989328
 40
3.5553079479938177
 50
333.07280020110232
 51
63.797097444745816
  0
ARC
  8
_0-1_レイヤ___3
  6
CONTINUOUS
 62
    7
 10
797.23921995073727
 20
948.26940586726005
 40
3.799653997503043
 50
68.133878301160266
 51
152.9782121380089
  0
ARC
  8
_0-1_レイヤ___3
  6
CONTINUOUS
 62
    7
 10
703.5802830607206
 20
888.7043411025993
 40
3.82835305090242
 50
157.07310905219805
 51
239.79678859364392
  0
ARC
  8
_0-1_レイヤ___3
  6
CONTINUOUS
 62
    7
 10
703.11501217084174
 20
889.01374244412955
 40
3.9017607687907949
 50
248.0154062422348
 51
328.85449140361544
  0
ARC
  8
_0-1_レイヤ___3
  6
CONTINUOUS
 62
    7
 10
702.91566820686353
 20
888.48280281798088
 40
3.8384648100249015
 50
337.20586287036082
 51
59.664034775481213
  0
ARC
  8
_0-1_レイヤ___3
  6
CONTINUOUS
 62
    7
 10
703.24922161978589
 20
888.61111409729824
 40
3.5662382582714387
 50
63.250364112922107
 51
153.61953353292802
  0
ARC
  8
_0-1_レイヤ___3
  6
CONTINUOUS
 62
    7
 10
753.36981149300198
 20
800.83151130221063
 40
3.3085573626202032
 50
151.78566734184517
 51
246.57234870977268
  0
ARC
  8
_0-1_レイヤ___3
  6
CONTINUOUS
 62
    7
 10
753.61855032986671
 20
800.71115380050196
 40
3.3085573626200842
 50
241.78566734184943
 51
336.57234870977697
  0
ARC
  8
_0-1_レイヤ___3
  6
CONTINUOUS
 62
    7
 10
753.73890783157594
 20
800.95989263736692
 40
3.3085573626198386
 50
331.78566734184739
 51
66.572348709774886
  0
ARC
  8
_0-1_レイヤ___3
  6
CONTINUOUS
 62
    7
 10
753.51529185273466
 20
801.00802192225706
 40
3.3607977905293289
 50
62.745279264464394
 51
155.6127367871494
  0
ARC
  8
_0-1_レイヤ___3
  6
CONTINUOUS
 62
    7
 10
703.39030447159689
 20
726.19737625874654
 40
13.896550156167695
 50
117.03259560629778
 51
152.58543394498375
  0
ARC
  8
_0-1_レイヤ___3
  6
CONTINUOUS
 62
    7
 10
699.50300276337668
 20
732.75217660568183
 40
6.3096556941612105
 50
35.271551683152367
 51
112.63808939000837
  0
ARC
  8
_0-1_レイヤ___3
  6
CONTINUOUS
 62
    7
 10
690.56930115634952
 20
727.34143971158596
 40
16.744209093177719
 50
340.51304622344787
 51
32.734022510593327
  0
ARC
  8
_0-1_レイヤ___3
  6
CONTINUOUS
 62
    7
 10
697.82849951416335
 20
724.95364873603171
 40
9.1058857221643361
 50
299.08088811591438
 51
339.43954077397404
  0
ARC
  8
_0-1_レイヤ___3
  6
CONTINUOUS
 62
    7
 10
697.73409488443622
 20
725.96549282465526
 40
10.04439852066513
 50
243.00208884719882
 51
296.74550724595463
  0
ARC
  8
_0-1_レイヤ___3
  6
CONTINUOUS
 62
    7
 10
697.66990378001526
 20
724.52907335234408
 40
8.7556077142953228
 50
180.21837935968932
 51
239.10626582825896
  0
ARC
  8
_0-1_レイヤ___3
  6
CONTINUOUS
 62
    7
 10
702.57020936801428
 20
724.91074269194064
 40
13.662155393143554
 50
158.78025974244474
 51
181.74084836656016
  0
ARC
  8
_0-1_レイヤ___3
  6
CONTINUOUS
 62
    7
 10
709.36055165871448
 20
722.80316392758459
 40
20.760791572529868
 50
151.85632063036223
 51
160.14111743840809
  0
ARC
  8
_0-1_レイヤ___3
  6
CONTINUOUS
 62
    7
 10
779.51731216499309
 20
615.47554332469099
 40
15.947396314803218
 50
128.84728356289824
 51
151.86436652281228
  0
ARC
  8
_0-1_レイヤ___3
  6
CONTINUOUS
 62
    7
 10
775.17458802974761
 20
620.66186315321465
 40
9.1851313616802202
 50
100.41354889976266
 51
128.04194173614667
  0
ARC
  8
_0-1_レイヤ___3
  6
CONTINUOUS
 62
    7
 10
774.24446524253437
 20
624.16014282703395
 40
5.5835017080223466
 50
30.520484525709282
 51
97.513583390509282
  0
ARC
  8
_0-1_レイヤ___3
  6
CONTINUOUS
 62
    7
 10
765.30119755660576
 20
618.02375106065915
 40
16.420883256050562
 50
331.37017413037313
 51
33.118646577145185
  0
ARC
  8
_0-1_レイヤ___3
  6
CONTINUOUS
 62
    7
 10
772.75804504021562
 20
614.79183539860878
 40
8.3596667246100385
 50
297.78045902642469
 51
326.31798275556787
  0
ARC
  8
_0-1_レイヤ___3
  6
CONTINUOUS
 62
    7
 10
772.28644894556442
 20
616.01657922058371
 40
9.6642710081534968
 50
229.06472086607516
 51
296.86981620591519
  0
ARC
  8
_0-1_レイヤ___3
  6
CONTINUOUS
 62
    7
 10
772.39144756167195
 20
615.06078949380117
 40
9.0385956282718727
 50
181.04653755344893
 51
224.58760872574575
  0
ARC
  8
_0-1_レイヤ___3
  6
CONTINUOUS
 62
    7
 10
776.84194797334737
 20
615.43356260528617
 40
13.498308425887613
 50
159.06918285648402
 51
182.28363358723539
  0
ARC
  8
_0-1_レイヤ___3
  6
CONTINUOUS
 62
    7
 10
783.48050612926886
 20
613.32785773266755
 40
20.455053344189672
 50
151.79429435186165
 51
160.20314371691754
  0
ARC
  8
_0-1_レイヤ___3
  6
CONTINUOUS
 62
    7
 10
723.15812693766259
 20
551.4105455386059
 40
13.861924934817258
 50
117.2349067181983
 51
152.57250260762885
  0
ARC
  8
_0-1_レイヤ___3
  6
CONTINUOUS
 62
    7
 10
719.50976672897229
 20
557.7392696341642
 40
6.5743796652103743
 50
66.660837269196776
 51
114.20398826587044
  0
ARC
  8
_0-1_レイヤ___3
  6
CONTINUOUS
 62
    7
 10
719.29050353758259
 20
558.39872279005726
 40
6.0733937405830973
 50
31.761969424749434
 51
62.292675976263354
  0
ARC
  8
_0-1_レイヤ___3
  6
CONTINUOUS
 62
    7
 10
711.10984297483537
 20
552.69592241633723
 40
16.040020976296017
 50
330.82071487067469
 51
33.70028895160808
  0
ARC
  8
_0-1_レイヤ___3
  6
CONTINUOUS
 62
    7
 10
718.54045442229915
 20
549.29479180350859
 40
7.9211457321613912
 50
296.33448787664349
 51
326.09036502224245
  0
ARC
  8
_0-1_レイヤ___3
  6
CONTINUOUS
 62
    7
 10
717.68644894556428
 20
550.8165812205832
 40
9.6642710081532446
 50
229.06472086607496
 51
296.86981620591496
  0
ARC
  8
_0-1_レイヤ___3
  6
CONTINUOUS
 62
    7
 10
717.79144756167216
 20
549.86079149380112
 40
9.0385956282718727
 50
181.04653755344893
 51
224.58760872574575
  0
ARC
  8
_0-1_レイヤ___3
  6
CONTINUOUS
 62
    7
 10
722.24194797334758
 20
550.23356460528726
 40
13.498308425887497
 50
159.069182856487
 51
182.28363358723834
  0
ARC
  8
_0-1_レイヤ___3
  6
CONTINUOUS
 62
    7
 10
728.88050612926872
 20
548.1278597326675
 40
20.455053344189672
 50
151.79429435186165
 51
160.20314371691754
  0
ARC
  8
_0-1_レイヤ___3
  6
CONTINUOUS
 62
    7
 10
694.15812793766281
 20
990.81054067792115
 40
13.861922601173379
 50
117.23491633153085
 51
152.57251222096139
  0
ARC
  8
_0-1_レイヤ___3
  6
CONTINUOUS
 62
    7
 10
690.50976672897309
 20
997.13926163416454
 40
6.574379665210027
 50
66.660837269202943
 51
114.2039882658766
  0
ARC
  8
_0-1_レイヤ___3
  6
CONTINUOUS
 62
    7
 10
690.29050353758134
 20
997.79871479005783
 40
6.0733937405838345
 50
31.761969424741981
 51
62.2926759762559
  0
ARC
  8
_0-1_レイヤ___3
  6
CONTINUOUS
 62
    7
 10
680.91560304741006
 20
991.86293178374035
 40
17.169241745508476
 50
340.44326525286368
 51
32.135679883311568
  0
ARC
  8
_0-1_レイヤ___3
  6
CONTINUOUS
 62
    7
 10
688.3391565971441
 20
989.52057516961554
 40
9.3939751680437151
 50
300.12837030808197
 51
338.74906242733238
  0
ARC
  8
_0-1_レイヤ___3
  6
CONTINUOUS
 62
    7
 10
689.57069973357943
 20
990.47837723139514
 40
9.7278440092403216
 50
173.04868813617696
 51
290.98430689270924
  0
ARC
  8
_0-1_レイヤ___3
  6
CONTINUOUS
 62
    7
 10
696.80676183972321
 20
988.84998382823164
 40
17.123820122820806
 50
150.83183599488814
 51
170.5696455242728
  0
ARC
  8
_0-1_レイヤ___3
  6
CONTINUOUS
 62
    7
 10
786.642570115382
 20
658.14519720457247
 40
44.300563677439484
 50
102.49975300629977
 51
123.71288778444254
  0
ARC
  8
_0-1_レイヤ___3
  6
CONTINUOUS
 62
    7
 10
777.68863122746905
 20
699.18579381692871
 40
2.2991290660762429
 50
67.880087007206313
 51
106.01414796317995
  0
ARC
  8
_0-1_レイヤ___3
  6
CONTINUOUS
 62
    7
 10
778.15227414550645
 20
700.56132430477783
 40
0.8548440935481589
 50
15.913049740022608
 51
61.942252882325995
  0
ARC
  8
_0-1_レイヤ___3
  6
CONTINUOUS
 62
    7
 10
776.85551028668203
 20
700.25312698227685
 40
2.1872156875551454
 50
347.92834325570504
 51
14.363182420655534
  0
ARC
  8
_0-1_レイヤ___3
  6
CONTINUOUS
 62
    7
 10
792.75069384863616
 20
696.42586117346377
 40
14.163070666998983
 50
166.23550314158365
 51
176.47889169840238
  0
ARC
  8
_0-1_レイヤ___3
  6
CONTINUOUS
 62
    7
 10
779.41752501152837
 20
697.44293624513966
 40
0.8165487867383497
 50
190.38784288317353
 51
285.39964520662136
  0
ARC
  8
_0-1_レイヤ___3
  6
CONTINUOUS
 62
    7
 10
779.26296150131736
 20
701.30246462692207
 40
4.6615792601489554
 50
274.56972262893873
 51
284.80785049173267
  0
ARC
  8
_0-1_レイヤ___3
  6
CONTINUOUS
 62
    7
 10
496.40880162763278
 20
816.24395408069313
 40
308.13919499761192
 50
335.23714610472155
 51
337.19203068957393
  0
ARC
  8
_0-1_レイヤ___3
  6
CONTINUOUS
 62
    7
 10
768.60122492839264
 20
691.77767672560572
 40
8.895952659594025
 50
301.53786901530776
 51
328.84795969174922
  0
ARC
  8
_0-1_レイヤ___3
  6
CONTINUOUS
 62
    7
 10
765.86052376028772
 20
697.05468416401936
 40
14.833144676073706
 50
266.11051746411522
 51
299.89864162100156
  0
ARC
  8
_0-1_レイヤ___3
  6
CONTINUOUS
 62
    7
 10
765.89713426901585
 20
690.83290457658131
 40
8.6403558450794691
 50
192.27653348003372
 51
263.06827390072579
  0
ARC
  8
_0-1_レイヤ___3
  6
CONTINUOUS
 62
    7
 10
760.22600176044295
 20
689.86886629794162
 40
2.9059271105048157
 50
142.05576827512283
 51
197.48621515016313
  0
ARC
  8
_0-1_レイヤ___3
  6
CONTINUOUS
 62
    7
 10
763.69155185523755
 20
687.30458927225504
 40
7.216471510208736
 50
127.94247844433184
 51
142.91909598965285
  0
ARC
  8
_0-1_レイヤ___3
  6
CONTINUOUS
 62
    7
 10
784.33375264921085
 20
660.84455378809957
 40
40.775880255342031
 50
123.11946737913659
 51
127.95588820481437
  0
ARC
  8
_0-1_レイヤ___3
  6
CONTINUOUS
 62
    7
 10
716.24045527553403
 20
627.08409440846458
 40
2.2399864398786691
 50
155.98529963634496
 51
192.59351408867414
  0
ARC
  8
_0-1_レイヤ___3
  6
CONTINUOUS
 62
    7
 10
715.11047839273022
 20
627.50636149325965
 40
1.0386190772374997
 50
107.71993215254328
 51
151.89121003199782
  0
ARC
  8
_0-1_レイヤ___3
  6
CONTINUOUS
 62
    7
 10
715.95362968677262
 20
624.00882229286458
 40
4.6342220676602395
 50
86.774729525933637
 51
104.48663598929977
  0
ARC
  8
_0-1_レイヤ___3
  6
CONTINUOUS
 62
    7
 10
716.29004547130376
 20
629.39626175982517
 40
0.7643143945203061
 50
264.3170035159435
 51
359.95818603184722
  0
ARC
  8
_0-1_レイヤ___3
  6
CONTINUOUS
 62
    7
 10
716.38329988737371
 20
624.18695828186947
 40
5.2517952038260596
 50
57.896609467263445
 51
82.658835003830092
  0
ARC
  8
_0-1_レイヤ___3
  6
CONTINUOUS
 62
    7
 10
718.02424369587197
 20
626.98877823448106
 40
2.0087635783796864
 50
352.1869362100968
 51
55.071819251243518
  0
ARC
  8
_0-1_レイヤ___3
  6
CONTINUOUS
 62
    7
 10
922.14779084430415
 20
614.17551595980308
 40
202.5220489644035
 50
176.44996790058568
 51
177.27731536274212
  0
ARC
  8
_0-1_レイヤ___3
  6
CONTINUOUS
 62
    7
 10
717.8895293010213
 20
623.94446715821823
 40
1.9704539666762253
 50
288.48761738681128
 51
355.67022582240872
  0
ARC
  8
_0-1_レイヤ___3
  6
CONTINUOUS
 62
    7
 10
716.58234616187497
 20
628.10339400913654
 40
6.3297490768773468
 50
265.21519912086603
 51
287.77185150422122
  0
ARC
  8
_0-1_レイヤ___3
  6
CONTINUOUS
 62
    7
 10
716.21814383592482
 20
626.12327231706013
 40
4.3306665833147173
 50
219.03731927046988
 51
267.83257837536598
  0
ARC
  8
_0-1_レイヤ___3
  6
CONTINUOUS
 62
    7
 10
714.19171628355241
 20
623.52109525044079
 40
1.3432221356501808
 50
147.8585807432606
 51
185.356423749225
  0
ARC
  8
_0-1_レイヤ___3
  6
CONTINUOUS
 62
    7
 10
708.47108156376282
 20
627.56963536747003
 40
5.6675864962850584
 50
323.96740851976085
 51
350.10504536052082
  0
ARC
  8
_0-1_レイヤ___3
  6
CONTINUOUS
 62
    7
 10
768.20845759281224
 20
545.58660186102748
 40
2.2336731740717788
 50
158.21133373703447
 51
195.33962104991767
  0
ARC
  8
_0-1_レイヤ___3
  6
CONTINUOUS
 62
    7
 10
767.06234732911855
 20
545.99241108500428
 40
1.01997042568549
 50
112.35791006598861
 51
155.48024156067842
  0
ARC
  8
_0-1_レイヤ___3
  6
CONTINUOUS
 62
    7
 10
767.72313453332276
 20
543.69270071927895
 40
3.4083737742432918
 50
86.783759750352957
 51
107.92099896944676
  0
ARC
  8
_0-1_レイヤ___3
  6
CONTINUOUS
 62
    7
 10
768.1989495113454
 20
547.91051678704002
 40
0.8630805582880268
 50
250.74716882349583
 51
352.35560107312426
  0
ARC
  8
_0-1_レイヤ___3
  6
CONTINUOUS
 62
    7
 10
768.35672742475947
 20
542.80521943747522
 40
5.039012459604435
 50
57.092288418663841
 51
82.042054222524229
  0
ARC
  8
_0-1_レイヤ___3
  6
CONTINUOUS
 62
    7
 10
769.88363918548669
 20
545.37449849959808
 40
2.0555909933556755
 50
351.07824011973042
 51
53.914702880735902
  0
ARC
  8
_0-1_レイヤ___3
  6
CONTINUOUS
 62
    7
 10
693.52907053626393
 20
550.7398231630591
 40
78.591111072673669
 50
353.75869173480805
 51
355.85245044972953
  0
ARC
  8
_0-1_レイヤ___3
  6
CONTINUOUS
 62
    7
 10
769.90632639998194
 20
542.13568121627736
 40
1.7490635372008962
 50
290.34264393898468
 51
1.9666755388748782
  0
ARC
  8
_0-1_レイヤ___3
  6
CONTINUOUS
 62
    7
 10
768.59084662850432
 20
546.03251284682619
 40
5.8614104774143527
 50
264.74844490669835
 51
289.15747002963803
  0
ARC
  8
_0-1_レイヤ___3
  6
CONTINUOUS
 62
    7
 10
768.21814383592414
 20
544.52327431706044
 40
4.3306665833147173
 50
219.03731927048005
 51
267.83257837537622
  0
ARC
  8
_0-1_レイヤ___3
  6
CONTINUOUS
 62
    7
 10
766.1917162835523
 20
541.92109725044043
 40
1.3432221356501808
 50
147.8585807432606
 51
185.356423749225
  0
ARC
  8
_0-1_レイヤ___3
  6
CONTINUOUS
 62
    7
 10
760.47108156376009
 20
545.96963736747034
 40
5.6675864962873721
 50
323.96740851977069
 51
350.10504536053065
  0
ARC
  8
_0-1_レイヤ___3
  6
CONTINUOUS
 62
    7
 10
825.91020536502231
 20
686.94991186639209
 40
3.5624232019286994
 50
156.05590189105021
 51
242.30211416056764
  0
ARC
  8
_0-1_レイヤ___3
  6
CONTINUOUS
 62
    7
 10
825.86440737239275
 20
686.96555483947668
 40
3.5553079479936289
 50
243.07280020110335
 51
333.79709744474678
  0
ARC
  8
_0-1_レイヤ___3
  6
CONTINUOUS
 62
    7
 10
825.79850995955564
 20
686.84149607318636
 40
3.5624232019283064
 50
336.05590189105249
 51
62.302114160569914
  0
ARC
  8
_0-1_レイヤ___3
  6
CONTINUOUS
 62
    7
 10
825.84921961978569
 20
686.8111180972985
 40
3.5662382582713108
 50
63.250364112916003
 51
153.61953353292191
  0
ARC
  8
_0-1_レイヤ___3
  6
CONTINUOUS
 62
    7
 10
741.19305111771428
 20
650.70860112159744
 40
3.8384648100249699
 50
157.20586287036383
 51
239.66403477548425
  0
ARC
  8
_0-1_レイヤ___3
  6
CONTINUOUS
 62
    7
 10
740.74571852947872
 20
650.9216273682207
 40
3.8283530509021482
 50
247.073109052196
 51
329.79678859364191
  0
ARC
  8
_0-1_レイヤ___3
  6
CONTINUOUS
 62
    7
 10
740.42456003269604
 20
650.4524374265909
 40
3.9112041259898556
 50
338.13311880178941
 51
58.736778844058662
  0
ARC
  8
_0-1_レイヤ___3
  6
CONTINUOUS
 62
    7
 10
740.96725681409691
 20
650.25701251436408
 40
3.8384648100246284
 50
67.205862870358757
 51
149.66403477547917
  0
ARC
  8
_0-1_レイヤ___3
  6
CONTINUOUS
 62
    7
 10
695.08415929188163
 20
676.33897051298709
 40
3.9112041259898556
 50
158.13311880178938
 51
238.7367788440587
  0
ARC
  8
_0-1_レイヤ___3
  6
CONTINUOUS
 62
    7
 10
694.54146251048076
 20
676.53439542521392
 40
3.8384648100246284
 50
247.2058628703588
 51
329.66403477547919
  0
ARC
  8
_0-1_レイヤ___3
  6
CONTINUOUS
 62
    7
 10
694.68450879260092
 20
676.20575367989295
 40
3.555307947993755
 50
333.07280020109926
 51
63.797097444742761
  0
ARC
  8
_0-1_レイヤ___3
  6
CONTINUOUS
 62
    7
 10
694.76300079509929
 20
675.8697805713573
 40
3.8283530509023516
 50
67.073109052194994
 51
149.79678859364088
  0
ARC
  8
_0-1_レイヤ___3
  6
CONTINUOUS
 62
    7
 10
696.68415929188154
 20
583.33897051298641
 40
3.9112041259897161
 50
158.13311880178327
 51
238.73677884405259
  0
ARC
  8
_0-1_レイヤ___3
  6
CONTINUOUS
 62
    7
 10
696.25949770479212
 20
583.18028984227999
 40
3.5662382582715009
 50
243.25036411291498
 51
333.61953353292091
  0
ARC
  8
_0-1_レイヤ___3
  6
CONTINUOUS
 62
    7
 10
695.92843626385718
 20
583.08706283697825
 40
3.82835305090242
 50
337.07310905219805
 51
59.796788593643946
  0
ARC
  8
_0-1_レイヤ___3
  6
CONTINUOUS
 62
    7
 10
696.3937071537357
 20
582.77766149544868
 40
3.9017607687906555
 50
68.01540624222865
 51
148.85449140360922
  0
ARC
  8
_0-1_レイヤ___3
  6
CONTINUOUS
 62
    7
 10
737.2523069338489
 20
490.39933980337514
 40
3.6736744726509922
 50
157.66008083191693
 51
240.69793521970539
  0
ARC
  8
_0-1_レイヤ___3
  6
CONTINUOUS
 62
    7
 10
737.05949770479219
 20
490.38029184228003
 40
3.5662382582715009
 50
243.25036411291498
 51
333.61953353292091
  0
ARC
  8
_0-1_レイヤ___3
  6
CONTINUOUS
 62
    7
 10
736.99851195955591
 20
490.24149807318599
 40
3.5624232019283748
 50
336.05590189105561
 51
62.302114160573019
  0
ARC
  8
_0-1_レイヤ___3
  6
CONTINUOUS
 62
    7
 10
737.04430995218456
 20
490.22585510010094
 40
3.5553079479935019
 50
63.072800201097245
 51
153.79709744474073
  0
ARC
  8
_0-1_レイヤ___3
  6
CONTINUOUS
 62
    7
 10
721.45115835217905
 20
1281.8149715500115
 40
14.595489524431617
 50
208.74557199290192
 51
242.95335463909254
  0
ARC
  8
_0-1_レイヤ___3
  6
CONTINUOUS
 62
    7
 10
717.19085902366328
 20
1274.4908521126222
 40
6.1526554560431901
 50
247.27827087878097
 51
325.38403287335132
  0
ARC
  8
_0-1_レイヤ___3
  6
CONTINUOUS
 62
    7
 10
708.6979526183701
 20
1280.0067228156558
 40
16.278046959062962
 50
326.3877642988013
 51
29.149886485136076
  0
ARC
  8
_0-1_レイヤ___3
  6
CONTINUOUS
 62
    7
 10
716.15057792197024
 20
1283.5308760083931
 40
8.071627141023658
 50
33.073622118471995
 51
61.076430604371112
  0
ARC
  8
_0-1_レイヤ___3
  6
CONTINUOUS
 62
    7
 10
715.76699545968938
 20
1281.4852423193083
 40
10.068854010336985
 50
64.798398353996461
 51
130.90110013606835
  0
ARC
  8
_0-1_レイヤ___3
  6
CONTINUOUS
 62
    7
 10
715.65741265822919
 20
1282.7025006069889
 40
9.1051028287618827
 50
135.39984433380405
 51
178.7841987873397
  0
ARC
  8
_0-1_レイヤ___3
  6
CONTINUOUS
 62
    7
 10
720.0017050844333
 20
1282.3512282928273
 40
13.458363265117296
 50
177.68143418127215
 51
200.96574937500057
  0
ARC
  8
_0-1_レイヤ___3
  6
CONTINUOUS
 62
    7
 10
726.66423005688432
 20
1284.4562931965793
 40
20.437284776867905
 50
199.79319429167987
 51
208.20936763954535
  0
ARC
  8
_0-1_レイヤ___3
  6
CONTINUOUS
 62
    7
 10
706.27240096244475
 20
1369.8563454783421
 40
3.901759305630208
 50
121.14550143440789
 51
201.98458659578847
  0
ARC
  8
_0-1_レイヤ___3
  6
CONTINUOUS
 62
    7
 10
705.711094298175
 20
1369.5658933401965
 40
3.9112036370892267
 50
31.263242641868196
 51
111.86690268413749
  0
ARC
  8
_0-1_レイヤ___3
  6
CONTINUOUS
 62
    7
 10
705.86977378979793
 20
1369.9905559272861
 40
3.5662382582716279
 50
296.38046646707301
 51
26.749635887078909
  0
ARC
  8
_0-1_レイヤ___3
  6
CONTINUOUS
 62
    7
 10
705.84430995218486
 20
1369.9655448394769
 40
3.5553079479936289
 50
206.20290255525322
 51
296.92719979889671
  0
ARC
  8
_0-1_レイヤ___3
  6
CONTINUOUS
 62
    7
 10
769.69496875199195
 20
1325.0050962745945
 40
2.2386993413679948
 50
338.25452959583589
 51
15.296425191116224
  0
ARC
  8
_0-1_レイヤ___3
  6
CONTINUOUS
 62
    7
 10
770.83253093017322
 20
1324.6133622685247
 40
1.0385542356357782
 50
292.76246916533336
 51
335.07568246133485
  0
ARC
  8
_0-1_レイヤ___3
  6
CONTINUOUS
 62
    7
 10
769.93679371911173
 20
1327.3710896288535
 40
3.9354596021667332
 50
269.67338408601057
 51
289.25126033003266
  0
ARC
  8
_0-1_レイヤ___3
  6
CONTINUOUS
 62
    7
 10
769.76925440035654
 20
1322.5299934669895
 40
0.9172507496930083
 50
80.897807612614997
 51
175.89252139388199
  0
ARC
  8
_0-1_レイヤ___3
  6
CONTINUOUS
 62
    7
 10
769.57125181843094
 20
1327.4938312227935
 40
4.950321495903637
 50
236.71311712407828
 51
261.67330085048621
  0
ARC
  8
_0-1_レイヤ___3
  6
CONTINUOUS
 62
    7
 10
768.10302341651561
 20
1325.0722505150113
 40
2.1226699093510288
 50
173.41440594339892
 51
233.96697286226251
  0
ARC
  8
_0-1_レイヤ___3
  6
CONTINUOUS
 62
    7
 10
807.06500320224495
 20
1323.0596636502078
 40
41.132559288099266
 50
172.82702155047573
 51
176.8558748883064
  0
ARC
  8
_0-1_レイヤ___3
  6
CONTINUOUS
 62
    7
 10
768.16392606910188
 20
1328.2306448808779
 40
1.9098862343642984
 50
112.45729341469772
 51
181.04857108662645
  0
ARC
  8
_0-1_レイヤ___3
  6
CONTINUOUS
 62
    7
 10
769.50447518154863
 20
1324.9919950782746
 40
5.4150143914878335
 50
86.295322969599553
 51
112.47571355050985
  0
ARC
  8
_0-1_レイヤ___3
  6
CONTINUOUS
 62
    7
 10
769.69057548865283
 20
1326.0681256225175
 40
4.3306665833150264
 50
39.037319270471897
 51
87.832578375368044
  0
ARC
  8
_0-1_レイヤ___3
  6
CONTINUOUS
 62
    7
 10
771.51919802949533
 20
1328.6310475086816
 40
1.543965574731794
 50
329.85545669460527
 51
6.12158653264337
  0
ARC
  8
_0-1_レイヤ___3
  6
CONTINUOUS
 62
    7
 10
777.74120573617597
 20
1324.3421337601048
 40
6.0188345962438916
 50
144.28449963895699
 51
167.97884033443589
  0
ARC
  8
_0-1_レイヤ___3
  6
CONTINUOUS
 62
    7
 10
885.15059038691436
 20
1359.7808544009717
 40
13.861924934817587
 50
297.23490671820241
 51
332.57250260763294
  0
ARC
  8
_0-1_レイヤ___3
  6
CONTINUOUS
 62
    7
 10
888.79895059560499
 20
1353.4521303054139
 40
6.5743796652107296
 50
246.66083726919982
 51
294.20398826587348
  0
ARC
  8
_0-1_レイヤ___3
  6
CONTINUOUS
 62
    7
 10
889.01821378699606
 20
1352.7926771495199
 40
6.0733937405834384
 50
211.76196942473854
 51
242.29267597625244
  0
ARC
  8
_0-1_レイヤ___3
  6
CONTINUOUS
 62
    7
 10
898.39311427716791
 20
1358.7284601558376
 40
17.169241745508799
 50
160.44326525286357
 51
212.13567988331147
  0
ARC
  8
_0-1_レイヤ___3
  6
CONTINUOUS
 62
    7
 10
890.96956072743308
 20
1361.0708167699618
 40
9.3939751680433421
 50
120.12837030807657
 51
158.74906242732698
  0
ARC
  8
_0-1_レイヤ___3
  6
CONTINUOUS
 62
    7
 10
889.73801859099854
 20
1360.1130141065578
 40
9.7278449290768272
 50
353.04869236645652
 51
110.98431112298879
  0
ARC
  8
_0-1_レイヤ___3
  6
CONTINUOUS
 62
    7
 10
882.50195748485351
 20
1361.7414081113457
 40
17.123820122821314
 50
330.83183599489166
 51
350.56964552427638
  0
ARC
  8
_0-1_レイヤ___3
  6
CONTINUOUS
 62
    7
 10
809.09406907158018
 20
1470.4711527227519
 40
15.835787666073438
 50
308.60308229968166
 51
331.83182384141065
  0
ARC
  8
_0-1_レイヤ___3
  6
CONTINUOUS
 62
    7
 10
813.46747913644788
 20
1465.2028849890389
 40
8.9909913657367131
 50
279.51898948347099
 51
307.76966982868646
  0
ARC
  8
_0-1_レイヤ___3
  6
CONTINUOUS
 62
    7
 10
814.2936549475628
 20
1462.1289727830979
 40
5.830834700273174
 50
210.20289531755532
 51
276.50628495958586
  0
ARC
  8
_0-1_レイヤ___3
  6
CONTINUOUS
 62
    7
 10
823.01031137559858
 20
1467.9592695822776
 40
16.310318823034066
 50
150.07597384085389
 51
212.50020699528238
  0
ARC
  8
_0-1_レイヤ___3
  6
CONTINUOUS
 62
    7
 10
815.49099991089076
 20
1471.5336680133441
 40
8.0369142560185622
 50
118.51424752883496
 51
145.41461422105561
  0
ARC
  8
_0-1_レイヤ___3
  6
CONTINUOUS
 62
    7
 10
816.17461686295042
 20
1469.622917044476
 40
10.047060018754729
 50
63.009785684233236
 51
116.73781035332117
  0
ARC
  8
_0-1_レイヤ___3
  6
CONTINUOUS
 62
    7
 10
816.19703894950544
 20
1470.9440123957943
 40
8.878614431402017
 50
0.9788714534426393
 51
59.266934632951731
  0
ARC
  8
_0-1_レイヤ___3
  6
CONTINUOUS
 62
    7
 10
811.30173592830556
 20
1470.5082670176516
 40
13.785143361669466
 50
339.74423272090939
 51
2.4422789115323482
  0
ARC
  8
_0-1_レイヤ___3
  6
CONTINUOUS
 62
    7
 10
804.61261835103119
 20
1472.5618424760974
 40
20.775201186360039
 50
332.58320130478313
 51
340.81787217384937
  0
ARC
  8
_0-1_レイヤ___3
  6
CONTINUOUS
 62
    7
 10
800.47977067809927
 20
1430.1075455492876
 40
46.840862765641788
 50
289.21320106158294
 51
303.38475496200965
  0
ARC
  8
_0-1_レイヤ___3
  6
CONTINUOUS
 62
    7
 10
805.93561212650354
 20
1417.1505429502481
 40
32.822141251469731
 50
279.67975021898735
 51
287.66286404539744
  0
ARC
  8
_0-1_レイヤ___3
  6
CONTINUOUS
 62
    7
 10
810.70435966228888
 20
1387.0385175682566
 40
2.3649030984672517
 50
251.51008506385665
 51
288.48991493614329
  0
ARC
  8
_0-1_レイヤ___3
  6
CONTINUOUS
 62
    7
 10
810.27646571062451
 20
1385.5012847620831
 40
0.7756374764743443
 50
196.90874553138815
 51
245.46310480005994
  0
ARC
  8
_0-1_レイヤ___3
  6
CONTINUOUS
 62
    7
 10
811.52261981496042
 20
1385.8064727892315
 40
2.0578888971440685
 50
167.39130914694783
 51
194.94696950887717
  0
ARC
  8
_0-1_レイヤ___3
  6
CONTINUOUS
 62
    7
 10
796.52564077686191
 20
1389.5281154027646
 40
13.394609864021028
 50
345.85899989539604
 51
356.43699190583112
  0
ARC
  8
_0-1_レイヤ___3
  6
CONTINUOUS
 62
    7
 10
809.09114993133289
 20
1388.548388961078
 40
0.8166051973123734
 50
10.392162950136719
 51
105.39532513959794
  0
ARC
  8
_0-1_レイヤ___3
  6
CONTINUOUS
 62
    7
 10
809.24668908373303
 20
1384.6834767870573
 40
4.66709066812638
 50
94.575783883963041
 51
104.80178923682426
  0
ARC
  8
_0-1_レイヤ___3
  6
CONTINUOUS
 62
    7
 10
1092.0999176969449
 20
1269.7474418588924
 40
308.13919499760857
 50
155.237146104723
 51
157.19203068957535
  0
ARC
  8
_0-1_レイヤ___3
  6
CONTINUOUS
 62
    7
 10
819.90749439618594
 20
1394.2137192139714
 40
8.8959526595953022
 50
121.53786901531048
 51
148.84795969175195
  0
ARC
  8
_0-1_レイヤ___3
  6
CONTINUOUS
 62
    7
 10
822.55951013610184
 20
1389.4248481066152
 40
14.366732451468565
 50
85.949326262938797
 51
120.56242484843777
  0
ARC
  8
_0-1_レイヤ___3
  6
CONTINUOUS
 62
    7
 10
822.60496206789821
 20
1395.1058323591119
 40
8.7040105183098841
 50
13.892623470291131
 51
83.605505574403239
  0
ARC
  8
_0-1_レイヤ___3
  6
CONTINUOUS
 62
    7
 10
827.77232965826033
 20
1396.4503374707406
 40
3.3655996714522369
 50
320.63531318183169
 51
12.794953848355403
  0
ARC
  8
_0-1_レイヤ___3
  6
CONTINUOUS
 62
    7
 10
823.75681815759788
 20
1399.453231474479
 40
8.3777169478559212
 50
307.82404582786057
 51
322.17595417215034
  0
ARC
  8
_0-1_レイヤ___3
  6
CONTINUOUS
 62
    7
 10
810.66514364425518
 20
1416.1767381695754
 40
29.616020688401825
 50
301.76103837506366
 51
307.98961831414374
  0
ARC
  8
_0-1_レイヤ___3
  6
CONTINUOUS
 62
    7
 10
872.4960805719719
 20
1458.9359637823982
 40
2.0115166339707664
 50
334.68001225857387
 51
13.211603953212691
  0
ARC
  8
_0-1_レイヤ___3
  6
CONTINUOUS
 62
    7
 10
873.39785613984407
 20
1458.6063188728458
 40
1.0590278329161849
 50
287.38917127337339
 51
329.93044523477369
  0
ARC
  8
_0-1_レイヤ___3
  6
CONTINUOUS
 62
    7
 10
877.41333565371963
 20
1438.9092266473037
 40
19.049053111101017
 50
101.19692621199344
 51
108.48295211184967
  0
ARC
  8
_0-1_レイヤ___3
  6
CONTINUOUS
 62
    7
 10
872.171615259242
 20
1456.5149790444357
 40
0.9208018654883908
 50
149.97758084779028
 51
174.97128240480083
  0
ARC
  8
_0-1_レイヤ___3
  6
CONTINUOUS
 62
    7
 10
871.89822472780963
 20
1461.3016579316879
 40
4.7498084627289572
 50
236.17721457850351
 51
262.20920339609484
  0
ARC
  8
_0-1_レイヤ___3
  6
CONTINUOUS
 62
    7
 10
870.47722158778879
 20
1458.9810626071071
 40
2.0340171801007787
 50
169.95920949151301
 51
233.04365915658278
  0
ARC
  8
_0-1_レイヤ___3
  6
CONTINUOUS
 62
    7
 10
803.22763723323828
 20
1464.877793255534
 40
65.481672347368701
 50
355.14491108080171
 51
357.65253268475044
  0
ARC
  8
_0-1_レイヤ___3
  6
CONTINUOUS
 62
    7
 10
870.61918802355694
 20
1462.0469287813594
 40
1.9704539666767884
 50
108.48761738681465
 51
175.67022582241208
  0
ARC
  8
_0-1_レイヤ___3
  6
CONTINUOUS
 62
    7
 10
871.92637116270146
 20
1457.888001930442
 40
6.3297490768764595
 50
85.215199120853683
 51
107.77185150420891
  0
ARC
  8
_0-1_レイヤ___3
  6
CONTINUOUS
 62
    7
 10
872.46613766431369
 20
1460.2127036112315
 40
3.9830057786612851
 50
46.370964111406813
 51
90.16945629009156
  0
ARC
  8
_0-1_レイヤ___3
  6
CONTINUOUS
 62
    7
 10
874.28363432640947
 20
1462.3413447685675
 40
1.1980340679385455
 50
12.257395858426463
 51
39.024615790175631
  0
ARC
  8
_0-1_レイヤ___3
  6
CONTINUOUS
 62
    7
 10
874.53554455575659
 20
1462.2742764620341
 40
0.9734091911218054
 50
334.53123111133306
 51
19.280652770848132
  0
ARC
  8
_0-1_レイヤ___3
  6
CONTINUOUS
 62
    7
 10
885.55244919631423
 20
1456.4820464930963
 40
11.474186928120906
 50
152.07439412593709
 51
165.28978132313981
  0
ARC
  8
_0-1_レイヤ___3
  6
CONTINUOUS
 62
    7
 10
762.23631718794832
 20
1399.0563444783425
 40
3.9017607687906555
 50
338.01540624222866
 51
58.854491403609238
  0
ARC
  8
_0-1_レイヤ___3
  6
CONTINUOUS
 62
    7
 10
762.79762620548649
 20
1398.7658923401964
 40
3.9112041259897854
 50
68.133118801786338
 51
148.73677884405561
  0
ARC
  8
_0-1_レイヤ___3
  6
CONTINUOUS
 62
    7
 10
762.993051117714
 20
1399.3085891215974
 40
3.8384648100249015
 50
157.20586287036079
 51
239.66403477548118
  0
ARC
  8
_0-1_レイヤ___3
  6
CONTINUOUS
 62
    7
 10
762.54571852947788
 20
1399.5216153682209
 40
3.8283530509022845
 50
247.07310905220211
 51
329.79678859364799
  0
ARC
  8
_0-1_レイヤ___3
  6
CONTINUOUS
 62
    7
 10
847.31566620686363
 20
1435.2827948179809
 40
3.8384648100249015
 50
337.20586287036082
 51
59.664034775481213
  0
ARC
  8
_0-1_レイヤ___3
  6
CONTINUOUS
 62
    7
 10
847.76725481409744
 20
1435.0570005143638
 40
3.8384648100249699
 50
67.205862870363845
 51
149.66403477548425
  0
ARC
  8
_0-1_レイヤ___3
  6
CONTINUOUS
 62
    7
 10
847.9802810607207
 20
1435.5043331025995
 40
3.8283530509024883
 50
157.07310905220109
 51
239.79678859364699
  0
ARC
  8
_0-1_レイヤ___3
  6
CONTINUOUS
 62
    7
 10
847.51501017084183
 20
1435.8137344441295
 40
3.9017607687907949
 50
248.0154062422348
 51
328.85449140361544
  0
ARC
  8
_0-1_レイヤ___3
  6
CONTINUOUS
 62
    7
 10
893.66977178979778
 20
1409.800830012292
 40
3.5662382582715644
 50
333.25036411291802
 51
63.619533532923995
  0
ARC
  8
_0-1_レイヤ___3
  6
CONTINUOUS
 62
    7
 10
893.6443079521847
 20
1409.8258411001009
 40
3.555307947993755
 50
63.07280020109927
 51
153.79709744474275
  0
ARC
  8
_0-1_レイヤ___3
  6
CONTINUOUS
 62
    7
 10
894.07240013662897
 20
1409.9350394612361
 40
3.9017607687905858
 50
158.0154062422358
 51
238.85449140361638
  0
ARC
  8
_0-1_レイヤ___3
  6
CONTINUOUS
 62
    7
 10
893.5110911190917
 20
1410.2254915993817
 40
3.9112041259894381
 50
248.13311880178125
 51
328.73677884405055
  0
ARC
  8
_0-1_レイヤ___3
  6
CONTINUOUS
 62
    7
 10
722.66114640817068
 20
1401.6693152735206
 40
15.875928956464199
 50
208.08311335989245
 51
231.20523655440346
  0
ARC
  8
_0-1_レイヤ___3
  6
CONTINUOUS
 62
    7
 10
718.22113329157605
 20
1396.3856320363502
 40
8.9772939102849136
 50
232.16342617575671
 51
260.33758483850647
  0
ARC
  8
_0-1_レイヤ___3
  6
CONTINUOUS
 62
    7
 10
717.35855036594853
 20
1393.0835183689937
 40
5.585101558467275
 50
263.37671132358292
 51
331.23297025390605
  0
ARC
  8
_0-1_レイヤ___3
  6
CONTINUOUS
 62
    7
 10
708.76812341206926
 20
1399.3689464449781
 40
16.198699456229161
 50
326.36164029792974
 51
28.570031276288461
  0
ARC
  8
_0-1_レイヤ___3
  6
CONTINUOUS
 62
    7
 10
716.46598584951857
 20
1402.9065803990638
 40
7.7676434556483711
 50
32.811543199611066
 51
62.486068319302177
  0
ARC
  8
_0-1_レイヤ___3
  6
CONTINUOUS
 62
    7
 10
715.61812319470346
 20
1400.862247096554
 40
9.9742985367127623
 50
63.59158273977927
 51
130.24345291664898
  0
ARC
  8
_0-1_レイヤ___3
  6
CONTINUOUS
 62
    7
 10
715.56422017089756
 20
1402.121349812418
 40
9.0115471242412184
 50
135.15968408581355
 51
178.89145638283534
  0
ARC
  8
_0-1_レイヤ___3
  6
CONTINUOUS
 62
    7
 10
719.99623605670092
 20
1401.750328392752
 40
13.452935086210999
 50
177.67667086323641
 51
200.97051269303731
  0
ARC
  8
_0-1_レイヤ___3
  6
CONTINUOUS
 62
    7
 10
726.66880483962541
 20
1403.8583281436377
 40
20.44227905287083
 50
199.79422422588928
 51
208.20833770532712
  0
ARC
  8
_0-1_レイヤ___3
  6
CONTINUOUS
 62
    7
 10
706.27240213662969
 20
1489.2563444783423
 40
3.9017607687910023
 50
121.14550859638565
 51
201.98459375776625
  0
ARC
  8
_0-1_レイヤ___3
  6
CONTINUOUS
 62
    7
 10
705.66550820346595
 20
1489.058754746261
 40
3.8080526688118521
 50
27.137159499298008
 51
111.75075006153283
  0
ARC
  8
_0-1_レイヤ___3
  6
CONTINUOUS
 62
    7
 10
706.13890783157547
 20
1489.231501302211
 40
3.3085573626202667
 50
293.42765129022416
 51
28.21433265815164
  0
ARC
  8
_0-1_レイヤ___3
  6
CONTINUOUS
 62
    7
 10
705.84430995218486
 20
1489.3655428394768
 40
3.5553079479936289
 50
206.20290255525322
 51
296.92719979889671
  0
ARC
  8
_0-1_レイヤ___3
  6
CONTINUOUS
 62
    7
 10
819.35059038691566
 20
547.78086640097263
 40
13.861924934816596
 50
297.23490671819548
 51
332.57250260762601
  0
ARC
  8
_0-1_レイヤ___3
  6
CONTINUOUS
 62
    7
 10
822.99895059560458
 20
541.45214230541364
 40
6.574379665210027
 50
246.66083726920297
 51
294.20398826587666
  0
ARC
  8
_0-1_レイヤ___3
  6
CONTINUOUS
 62
    7
 10
823.21821478699621
 20
540.79268548543246
 40
6.0733909615967967
 50
211.76194500063818
 51
242.29265155215211
  0
ARC
  8
_0-1_レイヤ___3
  6
CONTINUOUS
 62
    7
 10
832.59311627716772
 20
546.72847215583806
 40
17.169241745508476
 50
160.44326525286368
 51
212.13567988331155
  0
ARC
  8
_0-1_レイヤ___3
  6
CONTINUOUS
 62
    7
 10
825.16956172743289
 20
549.0708316238622
 40
9.3939732016359443
 50
120.12838432031474
 51
158.74907643956513
  0
ARC
  8
_0-1_レイヤ___3
  6
CONTINUOUS
 62
    7
 10
823.93801859099835
 20
548.11302610655753
 40
9.7278449290771913
 50
353.04869236645686
 51
110.98431112298917
  0
ARC
  8
_0-1_レイヤ___3
  6
CONTINUOUS
 62
    7
 10
816.70195748485287
 20
549.74142011134609
 40
17.123820122822369
 50
330.83183599488996
 51
350.56964552427468
  0
ARC
  8
_0-1_レイヤ___3
  6
CONTINUOUS
 62
    7
 10
872.72617386801312
 20
613.63942726559435
 40
15.160748837747459
 50
309.22998032370134
 51
333.16577494316061
  0
ARC
  8
_0-1_レイヤ___3
  6
CONTINUOUS
 62
    7
 10
876.75463599504963
 20
608.87109163771561
 40
8.920007742991686
 50
280.33136787026353
 51
308.55654169056953
  0
ARC
  8
_0-1_レイヤ___3
  6
CONTINUOUS
 62
    7
 10
877.60002856239782
 20
605.86989809224087
 40
5.8232576926237067
 50
211.86479242559517
 51
277.44285569050459
  0
ARC
  8
_0-1_レイヤ___3
  6
CONTINUOUS
 62
    7
 10
887.19311427716707
 20
611.92847015583743
 40
17.16924174550779
 50
160.44326525286286
 51
212.13567988331073
  0
ARC
  8
_0-1_レイヤ___3
  6
CONTINUOUS
 62
    7
 10
879.76956072743394
 20
614.27082676996201
 40
9.3939751680437151
 50
120.12837030808195
 51
158.74906242733235
  0
ARC
  8
_0-1_レイヤ___3
  6
CONTINUOUS
 62
    7
 10
879.42226837901376
 20
613.77482871899497
 40
9.6642710081531824
 50
49.06472086607797
 51
116.86981620591796
  0
ARC
  8
_0-1_レイヤ___3
  6
CONTINUOUS
 62
    7
 10
879.31726976290508
 20
614.73061844577705
 40
9.0385956282725779
 50
1.0465375534470427
 51
44.58760872574382
  0
ARC
  8
_0-1_レイヤ___3
  6
CONTINUOUS
 62
    7
 10
874.86676935123012
 20
614.35784533429205
 40
13.498308425887613
 50
339.06918285648396
 51
2.2836335872353586
  0
ARC
  8
_0-1_レイヤ___3
  6
CONTINUOUS
 62
    7
 10
868.22821119530875
 20
616.46355020690839
 40
20.45505334418888
 50
331.7942943518666
 51
340.20314371692245
  0
ARC
  8
_0-1_レイヤ___3
  6
CONTINUOUS
 62
    7
 10
810.59643054850324
 20
520.57604197580781
 40
42.732927226602627
 50
283.33751661593453
 51
304.58746133322006
  0
ARC
  8
_0-1_レイヤ___3
  6
CONTINUOUS
 62
    7
 10
819.82387304969575
 20
481.27659774581707
 40
2.3664272946085214
 50
248.44235148786208
 51
285.45187535693577
  0
ARC
  8
_0-1_レイヤ___3
  6
CONTINUOUS
 62
    7
 10
819.30200184732212
 20
479.80364288169289
 40
0.8066890581423407
 50
197.89967840988083
 51
244.47217192150012
  0
ARC
  8
_0-1_レイヤ___3
  6
CONTINUOUS
 62
    7
 10
820.55043735327433
 20
480.08705449409513
 40
2.0849221832890645
 50
167.57340799867728
 51
194.76487065714841
  0
ARC
  8
_0-1_レイヤ___3
  6
CONTINUOUS
 62
    7
 10
805.38345684365947
 20
483.8168120468365
 40
13.534632094043864
 50
345.970408143653
 51
356.60671675245351
  0
ARC
  8
_0-1_レイヤ___3
  6
CONTINUOUS
 62
    7
 10
818.05347190133386
 20
482.85937432835658
 40
0.8552963279687668
 50
10.531768423627073
 51
102.0880965244281
  0
ARC
  8
_0-1_レイヤ___3
  6
CONTINUOUS
 62
    7
 10
818.00827907429505
 20
479.1855667913344
 40
4.512126972719618
 50
91.700781941021106
 51
102.20513299531524
  0
ARC
  8
_0-1_レイヤ___3
  6
CONTINUOUS
 62
    7
 10
747.7560195502856
 20
515.57718642834607
 40
76.322179178793888
 50
335.22647405392604
 51
339.95385120308941
  0
ARC
  8
_0-1_レイヤ___3
  6
CONTINUOUS
 62
    7
 10
838.95672561373158
 20
482.03674352257258
 40
20.851651361497105
 50
148.09951280782772
 51
159.27524079367043
  0
ARC
  8
_0-1_レイヤ___3
  6
CONTINUOUS
 62
    7
 10
828.11103457233696
 20
488.84953978433805
 40
8.0439947929135158
 50
120.28564096031008
 51
148.47334374401595
  0
ARC
  8
_0-1_レイヤ___3
  6
CONTINUOUS
 62
    7
 10
831.29691321798236
 20
482.83846804645373
 40
14.84400975407998
 50
85.45045149275542
 51
119.20336951672719
  0
ARC
  8
_0-1_レイヤ___3
  6
CONTINUOUS
 62
    7
 10
831.34232972942766
 20
489.40611668852034
 40
8.3070829404279038
 50
12.440716145417626
 51
82.167784396200759
  0
ARC
  8
_0-1_レイヤ___3
  6
CONTINUOUS
 62
    7
 10
836.7143304993233
 20
490.33025636305547
 40
2.873456433562644
 50
321.86135662602675
 51
17.528950436436844
  0
ARC
  8
_0-1_レイヤ___3
  6
CONTINUOUS
 62
    7
 10
833.62588314735444
 20
492.6663108618734
 40
6.7456098475769437
 50
306.66958549092828
 51
322.45568677406345
  0
ARC
  8
_0-1_レイヤ___3
  6
CONTINUOUS
 62
    7
 10
820.57670195902904
 20
509.92647799620477
 40
28.38327374692366
 50
300.20070737344054
 51
306.99033286825915
  0
ARC
  8
_0-1_レイヤ___3
  6
CONTINUOUS
 62
    7
 10
880.89496675199189
 20
537.4051082745948
 40
2.2386993413679948
 50
338.25452959583589
 51
15.296425191116224
  0
ARC
  8
_0-1_レイヤ___3
  6
CONTINUOUS
 62
    7
 10
882.03252893017338
 20
537.01337426852456
 40
1.0385542356355053
 50
292.76246916531773
 51
335.07568246131922
  0
ARC
  8
_0-1_レイヤ___3
  6
CONTINUOUS
 62
    7
 10
881.1367917191119
 20
539.77110162885288
 40
3.9354596021659076
 50
269.67338408601256
 51
289.25126033003465
  0
ARC
  8
_0-1_レイヤ___3
  6
CONTINUOUS
 62
    7
 10
880.96925240035671
 20
534.93000546698931
 40
0.9172507496930083
 50
80.897807612614997
 51
175.89252139388199
  0
ARC
  8
_0-1_レイヤ___3
  6
CONTINUOUS
 62
    7
 10
880.75198989981698
 20
539.9861925021039
 40
5.0390124596045922
 50
237.09228841868048
 51
262.04205422254086
  0
ARC
  8
_0-1_レイヤ___3
  6
CONTINUOUS
 62
    7
 10
879.2250781390909
 20
537.41691343997991
 40
2.0555909933557799
 50
171.07824011973742
 51
233.91470288074288
  0
ARC
  8
_0-1_レイヤ___3
  6
CONTINUOUS
 62
    7
 10
955.57964678831365
 20
532.05158877651093
 40
78.591111072674394
 50
173.7586917348024
 51
175.85245044972388
  0
ARC
  8
_0-1_レイヤ___3
  6
CONTINUOUS
 62
    7
 10
879.36392406910204
 20
540.63065688087795
 40
1.9098862343645095
 50
112.45729341470188
 51
181.04857108663063
  0
ARC
  8
_0-1_レイヤ___3
  6
CONTINUOUS
 62
    7
 10
880.70447318154788
 20
537.39200707827399
 40
5.4150143914883504
 50
86.295322969591922
 51
112.47571355050222
  0
ARC
  8
_0-1_レイヤ___3
  6
CONTINUOUS
 62
    7
 10
879.86464864427046
 20
535.52657891573426
 40
7.3658411383594968
 50
62.425065236098327
 51
80.705037118053255
  0
ARC
  8
_0-1_レイヤ___3
  6
CONTINUOUS
 62
    7
 10
882.34225024347086
 20
540.00516495764805
 40
2.2524525927726251
 50
31.907751997473103
 51
65.555042000830539
  0
ARC
  8
_0-1_レイヤ___3
  6
CONTINUOUS
 62
    7
 10
882.7191960294947
 20
541.03105950868121
 40
1.5439655747322403
 50
329.85545669460879
 51
6.1215865326469325
  0
ARC
  8
_0-1_レイヤ___3
  6
CONTINUOUS
 62
    7
 10
888.94120373617523
 20
536.7421457601049
 40
6.0188345962432592
 50
144.28449963895432
 51
167.97884033443322
  0
ARC
  8
_0-1_レイヤ___3
  6
CONTINUOUS
 62
    7
 10
829.18491079043986
 20
618.79685603766438
 40
1.9630207468277605
 50
337.18572207660441
 51
17.762044100157098
  0
ARC
  8
_0-1_レイヤ___3
  6
CONTINUOUS
 62
    7
 10
830.14750923530119
 20
618.50781720381838
 40
0.9695582313805275
 50
285.97553149253997
 51
330.86057919700534
  0
ARC
  8
_0-1_レイヤ___3
  6
CONTINUOUS
 62
    7
 10
833.69484540662415
 20
600.48073363803633
 40
17.406883996977953
 50
100.86287955886988
 51
108.42088952361978
  0
ARC
  8
_0-1_レイヤ___3
  6
CONTINUOUS
 62
    7
 10
828.94763260434377
 20
616.5075577400703
 40
0.897613435682113
 50
147.05547330332419
 51
174.36443425836362
  0
ARC
  8
_0-1_レイヤ___3
  6
CONTINUOUS
 62
    7
 10
828.75198989981823
 20
621.58619050210268
 40
5.039012459604435
 50
237.09228841866383
 51
262.04205422252426
  0
ARC
  8
_0-1_レイヤ___3
  6
CONTINUOUS
 62
    7
 10
827.22507813909135
 20
619.01691143998028
 40
2.0555909933562835
 50
171.07824011973162
 51
233.91470288073708
  0
ARC
  8
_0-1_レイヤ___3
  6
CONTINUOUS
 62
    7
 10
903.57964678831354
 20
613.65158677651925
 40
78.591111072673669
 50
173.75869173480805
 51
175.85245044972947
  0
ARC
  8
_0-1_レイヤ___3
  6
CONTINUOUS
 62
    7
 10
827.35297726140982
 20
622.24592689479982
 40
1.8992837398249487
 50
112.88568355526755
 51
181.51525389947321
  0
ARC
  8
_0-1_レイヤ___3
  6
CONTINUOUS
 62
    7
 10
828.7810468901132
 20
618.60755506615055
 40
5.8074685378180737
 50
85.325188356011466
 51
111.90610801232481
  0
ARC
  8
_0-1_レイヤ___3
  6
CONTINUOUS
 62
    7
 10
827.90230606188959
 20
616.98390819865972
 40
7.5341064555173372
 50
61.352036107966036
 51
79.661840069739029
  0
ARC
  8
_0-1_レイヤ___3
  6
CONTINUOUS
 62
    7
 10
830.88885047762108
 20
622.27485982397093
 40
1.4614679249348381
 50
20.878305546988337
 51
64.659345236969997
  0
ARC
  8
_0-1_レイヤ___3
  6
CONTINUOUS
 62
    7
 10
831.11666946365926
 20
622.4176894673999
 40
1.1988450280657255
 50
336.29413300474056
 51
18.379865463100629
  0
ARC
  8
_0-1_レイヤ___3
  6
CONTINUOUS
 62
    7
 10
851.91955478645764
 20
611.40159819654832
 40
22.34417548588846
 50
151.87170172483889
 51
159.03661022311059
  0
ARC
  8
_0-1_レイヤ___3
  6
CONTINUOUS
 62
    7
 10
771.26977378979814
 20
477.60084401229187
 40
3.5662382582711851
 50
333.25036411292007
 51
63.619533532926027
  0
ARC
  8
_0-1_レイヤ___3
  6
CONTINUOUS
 62
    7
 10
771.3630007950992
 20
477.26978257135693
 40
3.8283530509021482
 50
67.073109052196017
 51
149.79678859364191
  0
ARC
  8
_0-1_レイヤ___3
  6
CONTINUOUS
 62
    7
 10
771.58064459773118
 20
477.78056282057969
 40
3.7996467702511594
 50
158.13377870998625
 51
242.97831172917475
  0
ARC
  8
_0-1_レイヤ___3
  6
CONTINUOUS
 62
    7
 10
771.27262902676694
 20
477.73068154691396
 40
3.6240240189931243
 50
246.96134358180279
 51
331.39667246982356
  0
ARC
  8
_0-1_レイヤ___3
  6
CONTINUOUS
 62
    7
 10
856.28450679260072
 20
514.00575567989313
 40
3.555307947993755
 50
333.07280020109926
 51
63.797097444742761
  0
ARC
  8
_0-1_レイヤ___3
  6
CONTINUOUS
 62
    7
 10
856.4789421016859
 20
513.93287906910791
 40
3.5408766355464767
 50
67.142578532851516
 51
155.59866600583806
  0
ARC
  8
_0-1_レイヤ___3
  6
CONTINUOUS
 62
    7
 10
856.16980949300216
 20
513.83151530221062
 40
3.3085573626202032
 50
151.78566734184517
 51
246.57234870977268
  0
ARC
  8
_0-1_レイヤ___3
  6
CONTINUOUS
 62
    7
 10
856.41854832986678
 20
513.71115780050195
 40
3.3085573626199021
 50
241.78566734185057
 51
336.57234870977811
  0
ARC
  8
_0-1_レイヤ___3
  6
CONTINUOUS
 62
    7
 10
902.128434263857
 20
488.28706483697852
 40
3.82835305090242
 50
337.07310905219805
 51
59.796788593643946
  0
ARC
  8
_0-1_レイヤ___3
  6
CONTINUOUS
 62
    7
 10
902.59762420548623
 20
487.96590634019685
 40
3.9112041259895074
 50
68.133118801784292
 51
148.73677884405359
  0
ARC
  8
_0-1_レイヤ___3
  6
CONTINUOUS
 62
    7
 10
902.79304911771408
 20
488.50860312159762
 40
3.8384648100249015
 50
157.20586287036079
 51
239.66403477548118
  0
ARC
  8
_0-1_レイヤ___3
  6
CONTINUOUS
 62
    7
 10
902.3414605104806
 20
488.73439742521418
 40
3.8384648100246284
 50
247.2058628703588
 51
329.66403477547919
  0
ARC
  8
_0-1_レイヤ___3
  6
CONTINUOUS
 62
    7
 10
900.5156662068639
 20
581.28280681798037
 40
3.8384648100244929
 50
337.20586287036281
 51
59.664034775483252
  0
ARC
  8
_0-1_レイヤ___3
  6
CONTINUOUS
 62
    7
 10
900.96299879509911
 20
581.06978057135711
 40
3.8283530509021482
 50
67.073109052196017
 51
149.79678859364191
  0
ARC
  8
_0-1_レイヤ___3
  6
CONTINUOUS
 62
    7
 10
901.19304911771383
 20
581.50860112159785
 40
3.8384648100244929
 50
157.20586287036284
 51
239.66403477548323
  0
ARC
  8
_0-1_レイヤ___3
  6
CONTINUOUS
 62
    7
 10
900.74146051048058
 20
581.73439542521442
 40
3.8384648100246284
 50
247.2058628703588
 51
329.66403477547919
  0
ARC
  8
_0-1_レイヤ___3
  6
CONTINUOUS
 62
    7
 10
859.71566620686349
 20
674.08280681798055
 40
3.8384648100249699
 50
337.20586287036383
 51
59.664034775484268
  0
ARC
  8
_0-1_レイヤ___3
  6
CONTINUOUS
 62
    7
 10
860.04430795218457
 20
674.2258531001014
 40
3.5553079479935019
 50
63.072800201097245
 51
153.79709744474073
  0
ARC
  8
_0-1_レイヤ___3
  6
CONTINUOUS
 62
    7
 10
860.38028106072045
 20
674.30434510259965
 40
3.82835305090242
 50
157.07310905219805
 51
239.79678859364392
  0
ARC
  8
_0-1_レイヤ___3
  6
CONTINUOUS
 62
    7
 10
859.91109111909157
 20
674.625503599382
 40
3.9112041259897161
 50
248.13311880178327
 51
328.73677884405254
  0
ARC
  8
_0-1_レイヤ___3
  6
CONTINUOUS
 62
    7
 10
1566.9033530822117
 20
1225.6368302756503
 40
14.732729662683052
 50
309.29781595826432
 51
333.20663385547397
  0
ARC
  8
_0-1_レイヤ___3
  6
CONTINUOUS
 62
    7
 10
1570.7007141752561
 20
1221.1536896412601
 40
8.8588789362607798
 50
280.23194690060404
 51
308.65596266023363
  0
ARC
  8
_0-1_レイヤ___3
  6
CONTINUOUS
 62
    7
 10
1571.5084437834776
 20
1218.3369421383829
 40
5.9507407180889214
 50
211.86197692676683
 51
277.39489956704125
  0
ARC
  8
_0-1_レイヤ___3
  6
CONTINUOUS
 62
    7
 10
1580.5394061682273
 20
1224.2499582279927
 40
16.744209093177055
 50
160.51304622344759
 51
212.73402251059301
  0
ARC
  8
_0-1_レイヤ___3
  6
CONTINUOUS
 62
    7
 10
1573.2802078104135
 20
1226.637749203546
 40
9.1058857221638476
 50
119.08088811591001
 51
159.43954077396967
  0
ARC
  8
_0-1_レイヤ___3
  6
CONTINUOUS
 62
    7
 10
1573.3746124401421
 20
1225.6259051149229
 40
10.04439852066497
 50
63.002088847202366
 51
116.74550724595818
  0
ARC
  8
_0-1_レイヤ___3
  6
CONTINUOUS
 62
    7
 10
1573.4388035445618
 20
1227.0623245872334
 40
8.7556077142958273
 50
0.2183793596874928
 51
59.106265828257129
  0
ARC
  8
_0-1_レイヤ___3
  6
CONTINUOUS
 62
    7
 10
1568.5384979565663
 20
1226.6806552476364
 40
13.662155393140621
 50
338.78025974244565
 51
1.7408483665610777
  0
ARC
  8
_0-1_レイヤ___3
  6
CONTINUOUS
 62
    7
 10
1561.7481556658593
 20
1228.7882340119952
 40
20.760791572533858
 50
331.85632063036417
 51
340.14111743841005
  0
ARC
  8
_0-1_レイヤ___3
  6
CONTINUOUS
 62
    7
 10
1616.8996281033026
 20
1378.3006617504657
 40
14.048969773662929
 50
297.99597126028334
 51
333.33423848184862
  0
ARC
  8
_0-1_レイヤ___3
  6
CONTINUOUS
 62
    7
 10
1620.7545475551922
 20
1371.8049510649439
 40
6.5135108845752754
 50
246.85497061401287
 51
294.87458195056507
  0
ARC
  8
_0-1_レイヤ___3
  6
CONTINUOUS
 62
    7
 10
1621.0060977538474
 20
1371.1796826001794
 40
6.0562622635029042
 50
211.71773171315044
 51
242.33691368786987
  0
ARC
  8
_0-1_レイヤ___3
  6
CONTINUOUS
 62
    7
 10
1629.6075080953881
 20
1376.967645878919
 40
16.420881308818604
 50
151.37017439665809
 51
213.11864684343013
  0
ARC
  8
_0-1_レイヤ___3
  6
CONTINUOUS
 62
    7
 10
1622.1506622843619
 20
1380.1995605409695
 40
8.3596667246102516
 50
117.78045902642337
 51
146.31798275556656
  0
ARC
  8
_0-1_レイヤ___3
  6
CONTINUOUS
 62
    7
 10
1621.8457246144169
 20
1378.6658213828268
 40
9.6249975123201743
 50
352.77721485103763
 51
111.90879294706662
  0
ARC
  8
_0-1_レイヤ___3
  6
CONTINUOUS
 62
    7
 10
1614.982319767347
 20
1380.2124221290649
 40
16.641939644984632
 50
330.4135511180491
 51
350.46502857452674
  0
ARC
  8
_0-1_レイヤ___3
  6
CONTINUOUS
 62
    7
 10
1672.1505783869145
 20
1318.9808544009725
 40
13.861924934817589
 50
297.23490671819962
 51
332.57250260763021
  0
ARC
  8
_0-1_レイヤ___3
  6
CONTINUOUS
 62
    7
 10
1675.7989385956053
 20
1312.6521303054139
 40
6.5743796652105537
 50
246.66083726919982
 51
294.20398826587348
  0
ARC
  8
_0-1_レイヤ___3
  6
CONTINUOUS
 62
    7
 10
1676.0182017869954
 20
1311.9926771495204
 40
6.073393740583465
 50
211.7619694247457
 51
242.2926759762596
  0
ARC
  8
_0-1_レイヤ___3
  6
CONTINUOUS
 62
    7
 10
1684.1988623497425
 20
1317.6954775232412
 40
16.04002097629656
 50
150.82071487067415
 51
213.70028895160752
  0
ARC
  8
_0-1_レイヤ___3
  6
CONTINUOUS
 62
    7
 10
1676.7682509022775
 20
1321.0966081360702
 40
7.9211457321604524
 50
116.3344878766388
 51
146.09036502223776
  0
ARC
  8
_0-1_レイヤ___3
  6
CONTINUOUS
 62
    7
 10
1677.6222563790134
 20
1319.5748187189947
 40
9.6642710081534968
 50
49.064720866075135
 51
116.86981620591513
  0
ARC
  8
_0-1_レイヤ___3
  6
CONTINUOUS
 62
    7
 10
1677.517257762906
 20
1320.5306084457766
 40
9.0385956282718727
 50
1.0465375534489318
 51
44.58760872574571
  0
ARC
  8
_0-1_レイヤ___3
  6
CONTINUOUS
 62
    7
 10
1673.0667573512301
 20
1320.1578353342913
 40
13.498308425887554
 50
339.06918285648544
 51
2.2836335872368343
  0
ARC
  8
_0-1_レイヤ___3
  6
CONTINUOUS
 62
    7
 10
1666.4281991953108
 20
1322.2635402069104
 40
20.45505334418791
 50
331.79429435185943
 51
340.20314371691529
  0
ARC
  8
_0-1_レイヤ___3
  6
CONTINUOUS
 62
    7
 10
1677.6829612319052
 20
1188.5328144767047
 40
51.412151676738887
 50
289.65335848490474
 51
302.96056916657642
  0
ARC
  8
_0-1_レイヤ___3
  6
CONTINUOUS
 62
    7
 10
1682.9311132688881
 20
1176.2797294169379
 40
38.116620543378829
 50
281.99745110558945
 51
288.41862727568474
  0
ARC
  8
_0-1_レイヤ___3
  6
CONTINUOUS
 62
    7
 10
1690.2200740971084
 20
1141.2056041226501
 40
2.2991290660762429
 50
247.88008700720633
 51
286.01414796317994
  0
ARC
  8
_0-1_レイヤ___3
  6
CONTINUOUS
 62
    7
 10
1689.7564335332545
 20
1139.8300746348
 40
0.8548460833395492
 50
195.91294202166321
 51
241.94214516396659
  0
ARC
  8
_0-1_レイヤ___3
  6
CONTINUOUS
 62
    7
 10
1691.0531950378959
 20
1140.1382729573006
 40
2.1872156875551392
 50
167.92834325569692
 51
194.36318242064746
  0
ARC
  8
_0-1_レイヤ___3
  6
CONTINUOUS
 62
    7
 10
1675.1580114759417
 20
1143.9655387661114
 40
14.163070666998504
 50
346.23550314159638
 51
356.47889169841511
  0
ARC
  8
_0-1_レイヤ___3
  6
CONTINUOUS
 62
    7
 10
1688.491180313049
 20
1142.9484636944383
 40
0.8165487867384728
 50
10.387842883147005
 51
105.39964520659485
  0
ARC
  8
_0-1_レイヤ___3
  6
CONTINUOUS
 62
    7
 10
1688.6457438232633
 20
1139.0889353126565
 40
4.6615792601487058
 50
94.569722628979022
 51
104.807850491773
  0
ARC
  8
_0-1_レイヤ___3
  6
CONTINUOUS
 62
    7
 10
1971.4999036969284
 20
1024.1474458588928
 40
308.13919499759334
 50
155.23714610472175
 51
157.1920306895741
  0
ARC
  8
_0-1_レイヤ___3
  6
CONTINUOUS
 62
    7
 10
1699.3074803961872
 20
1148.6137232139718
 40
8.8959526595959435
 50
121.53786901531731
 51
148.84795969175875
  0
ARC
  8
_0-1_レイヤ___3
  6
CONTINUOUS
 62
    7
 10
1701.858285744918
 20
1144.0668989177946
 40
14.10689443650147
 50
85.788204368868477
 51
120.7083375662519
  0
ARC
  8
_0-1_レイヤ___3
  6
CONTINUOUS
 62
    7
 10
1701.8205161792202
 20
1149.3213412380383
 40
8.8795247111459812
 50
13.509760679429714
 51
83.054035806105901
  0
ARC
  8
_0-1_レイヤ___3
  6
CONTINUOUS
 62
    7
 10
1707.5127826201331
 20
1150.7136777772419
 40
3.0195930099839492
 50
319.07662380711861
 51
13.053705963868053
  0
ARC
  8
_0-1_レイヤ___3
  6
CONTINUOUS
 62
    7
 10
1703.1677369522797
 20
1153.8313922317152
 40
8.3593099828502364
 50
308.34965731858028
 51
322.44061676643844
  0
ARC
  8
_0-1_レイヤ___3
  6
CONTINUOUS
 62
    7
 10
1689.6411852773763
 20
1171.2721497140783
 40
30.430447973917079
 50
301.75052024393665
 51
307.94818319552877
  0
ARC
  8
_0-1_レイヤ___3
  6
CONTINUOUS
 62
    7
 10
1635.7848987904404
 20
1329.1968460376645
 40
1.9630207468269323
 50
337.18572207660935
 51
17.76204410016209
  0
ARC
  8
_0-1_レイヤ___3
  6
CONTINUOUS
 62
    7
 10
1636.7474972353007
 20
1328.9078072038183
 40
0.9695582313806988
 50
285.97553149258806
 51
330.86057919705348
  0
ARC
  8
_0-1_レイヤ___3
  6
CONTINUOUS
 62
    7
 10
1640.29483340662
 20
1310.8807236380355
 40
17.406883996977903
 50
100.86287955885521
 51
108.4208895236051
  0
ARC
  8
_0-1_レイヤ___3
  6
CONTINUOUS
 62
    7
 10
1635.5476206043443
 20
1326.9075477400702
 40
0.8976134356827808
 50
147.05547330331873
 51
174.36443425835822
  0
ARC
  8
_0-1_レイヤ___3
  6
CONTINUOUS
 62
    7
 10
1635.3519778998182
 20
1331.9861805021035
 40
5.0390124596047432
 50
237.09228841866516
 51
262.04205422252556
  0
ARC
  8
_0-1_レイヤ___3
  6
CONTINUOUS
 62
    7
 10
1633.8250661390907
 20
1329.4169014399799
 40
2.0555909933557799
 50
171.07824011973742
 51
233.91470288074288
  0
ARC
  8
_0-1_レイヤ___3
  6
CONTINUOUS
 62
    7
 10
1710.1796347883214
 20
1324.0515767765073
 40
78.59111107268248
 50
173.7586917348001
 51
175.85245044972154
  0
ARC
  8
_0-1_レイヤ___3
  6
CONTINUOUS
 62
    7
 10
1633.9136447116439
 20
1332.6519934657149
 40
1.8601512272323295
 50
112.08221630430953
 51
181.73438381832304
  0
ARC
  8
_0-1_レイヤ___3
  6
CONTINUOUS
 62
    7
 10
1634.9214114697668
 20
1329.8409042800561
 40
4.845450567405277
 50
78.899053819222715
 51
110.62822956223833
  0
ARC
  8
_0-1_レイヤ___3
  6
CONTINUOUS
 62
    7
 10
1635.7476288987777
 20
1330.3758057219295
 40
4.2212374124226333
 50
46.854328578737061
 51
88.551355667679957
  0
ARC
  8
_0-1_レイヤ___3
  6
CONTINUOUS
 62
    7
 10
1637.7957042239682
 20
1332.7719958905925
 40
1.0820178027949325
 50
11.931469006831344
 51
39.188461336777415
  0
ARC
  8
_0-1_レイヤ___3
  6
CONTINUOUS
 62
    7
 10
1638.0002483802455
 20
1332.6707803093589
 40
0.9138112791642274
 50
332.98418681397516
 51
20.827697068181742
  0
ARC
  8
_0-1_レイヤ___3
  6
CONTINUOUS
 62
    7
 10
1651.573000071865
 20
1324.7359219717782
 40
14.809801931324936
 50
149.48549882542704
 51
160.02255405144129
  0
ARC
  8
_0-1_レイヤ___3
  6
CONTINUOUS
 62
    7
 10
1664.1031245733298
 20
1246.2936497211253
 40
2.3631431027370442
 50
254.5690196417936
 51
283.48893649598335
  0
ARC
  8
_0-1_レイヤ___3
  6
CONTINUOUS
 62
    7
 10
1664.4246370800997
 20
1248.2326397645456
 40
4.3226942541287841
 50
214.31596586466981
 51
257.30049601599353
  0
ARC
  8
_0-1_レイヤ___3
  6
CONTINUOUS
 62
    7
 10
1664.9635978742233
 20
1246.3799305418499
 40
4.150576600115218
 50
104.64307047106757
 51
188.09184620440149
  0
ARC
  8
_0-1_レイヤ___3
  6
CONTINUOUS
 62
    7
 10
1664.3710726450336
 20
1246.801171200053
 40
3.6234228954015539
 50
37.275564188415522
 51
97.241308747479422
  0
ARC
  8
_0-1_レイヤ___3
  6
CONTINUOUS
 62
    7
 10
1665.4015550420622
 20
1247.1646239375227
 40
2.6049281267365156
 50
321.29386179031746
 51
44.662179513591568
  0
ARC
  8
_0-1_レイヤ___3
  6
CONTINUOUS
 62
    7
 10
1663.8450212439802
 20
1248.7359029846575
 40
4.8088031274649321
 50
279.68902662640932
 51
318.28009416105471
  0
ARC
  8
_0-1_レイヤ___3
  6
CONTINUOUS
 62
    7
 10
1618.6844967926008
 20
1214.0057456798932
 40
3.5553079479937226
 50
333.07280020109772
 51
63.797097444741183
  0
ARC
  8
_0-1_レイヤ___3
  6
CONTINUOUS
 62
    7
 10
1618.7936951537358
 20
1213.5776534954484
 40
3.9017607687910023
 50
68.015406242233738
 51
148.8544914036143
  0
ARC
  8
_0-1_レイヤ___3
  6
CONTINUOUS
 62
    7
 10
1618.6973990199194
 20
1214.0100464223328
 40
3.6099399711876865
 50
153.94425503172826
 51
242.92564261411476
  0
ARC
  8
_0-1_レイヤ___3
  6
CONTINUOUS
 62
    7
 10
1618.5414505104804
 20
1214.3343874252141
 40
3.8384648100248331
 50
247.20586287035775
 51
329.66403477547811
  0
ARC
  8
_0-1_レイヤ___3
  6
CONTINUOUS
 62
    7
 10
1582.8844967926011
 20
1314.2057436798932
 40
3.5553079479938177
 50
333.07280020110232
 51
63.797097444745816
  0
ARC
  8
_0-1_レイヤ___3
  6
CONTINUOUS
 62
    7
 10
1583.0392079507374
 20
1313.8693998672602
 40
3.7996539975031176
 50
68.133878301163207
 51
152.97821213801186
  0
ARC
  8
_0-1_レイヤ___3
  6
CONTINUOUS
 62
    7
 10
1582.9095483368828
 20
1314.149676813126
 40
3.5619232233783569
 50
156.04836933113572
 51
242.30964672048216
  0
ARC
  8
_0-1_レイヤ___3
  6
CONTINUOUS
 62
    7
 10
1582.8594857047915
 20
1314.18027984228
 40
3.5662382582716914
 50
243.25036411292416
 51
333.61953353293006
  0
ARC
  8
_0-1_レイヤ___3
  6
CONTINUOUS
 62
    7
 10
1555.2697617897979
 20
1245.6008320122921
 40
3.5662382582715644
 50
333.25036411291802
 51
63.619533532923995
  0
ARC
  8
_0-1_レイヤ___3
  6
CONTINUOUS
 62
    7
 10
1555.4085555588915
 20
1245.5398462670562
 40
3.5624232019284348
 50
66.05590189104818
 51
152.30211416056559
  0
ARC
  8
_0-1_レイヤ___3
  6
CONTINUOUS
 62
    7
 10
1555.4389335347798
 20
1245.5905559272865
 40
3.5662382582715955
 50
153.25036411291956
 51
243.61953353292546
  0
ARC
  8
_0-1_レイヤ___3
  6
CONTINUOUS
 62
    7
 10
1555.3001397656863
 20
1245.6515416725219
 40
3.5624232019283362
 50
246.05590189104873
 51
332.30211416056613
  0
ARC
  8
_0-1_レイヤ___3
  6
CONTINUOUS
 62
    7
 10
1550.2697617897979
 20
1307.4008320122921
 40
3.5662382582715644
 50
333.25036411291802
 51
63.619533532923995
  0
ARC
  8
_0-1_レイヤ___3
  6
CONTINUOUS
 62
    7
 10
1550.3629887950997
 20
1307.0697705713574
 40
3.8283530509022845
 50
67.073109052202099
 51
149.79678859364802
  0
ARC
  8
_0-1_レイヤ___3
  6
CONTINUOUS
 62
    7
 10
1550.5806325977305
 20
1307.5805508205799
 40
3.7996467702508023
 50
158.13377870998997
 51
242.97831172917847
  0
ARC
  8
_0-1_レイヤ___3
  6
CONTINUOUS
 62
    7
 10
1550.2726170267672
 20
1307.5306695469139
 40
3.6240240189928858
 50
246.961343581797
 51
331.39667246981782
  0
ARC
  8
_0-1_レイヤ___3
  6
CONTINUOUS
 62
    7
 10
1469.1985019595559
 20
1243.0414860731864
 40
3.5624232019282727
 50
336.05590189105084
 51
62.302114160568287
  0
ARC
  8
_0-1_レイヤ___3
  6
CONTINUOUS
 62
    7
 10
1469.2442999521847
 20
1243.0258431001014
 40
3.5553079479935961
 50
63.072800201096726
 51
153.79709744474019
  0
ARC
  8
_0-1_レイヤ___3
  6
CONTINUOUS
 62
    7
 10
1469.3101973650221
 20
1243.1499018663922
 40
3.5624232019286994
 50
156.05590189105021
 51
242.30211416056764
  0
ARC
  8
_0-1_レイヤ___3
  6
CONTINUOUS
 62
    7
 10
1469.2594877047918
 20
1243.18027984228
 40
3.5662382582714387
 50
243.25036411292211
 51
333.61953353292802
  0
ARC
  8
_0-1_レイヤ___3
  6
CONTINUOUS
 62
    7
 10
1712.4666656147569
 20
1209.5347637793427
 40
3.3607977905293049
 50
332.74527926447337
 51
65.612736787158312
  0
ARC
  8
_0-1_レイヤ___3
  6
CONTINUOUS
 62
    7
 10
1712.2442959521845
 20
1209.425845100101
 40
3.5553079479934073
 50
63.072800201097742
 51
153.79709744474121
  0
ARC
  8
_0-1_レイヤ___3
  6
CONTINUOUS
 62
    7
 10
1712.3171725629704
 20
1209.6202804091863
 40
3.5408766355464021
 50
157.14257853284843
 51
245.59866600583499
  0
ARC
  8
_0-1_レイヤ___3
  6
CONTINUOUS
 62
    7
 10
1712.418536329867
 20
1209.3111478005026
 40
3.3085573626201397
 50
241.78566734184201
 51
336.57234870976953
  0
ARC
  8
_0-1_レイヤ___3
  6
CONTINUOUS
 62
    7
 10
1456.5449735633588
 20
1332.7979421583748
 40
43.893537596211736
 50
290.46869657830052
 51
304.89342655867006
  0
ARC
  8
_0-1_レイヤ___3
  6
CONTINUOUS
 62
    7
 10
1461.5573403125704
 20
1321.8151682843084
 40
31.862857283233893
 50
279.56950949697762
 51
288.93055589862627
  0
ARC
  8
_0-1_レイヤ___3
  6
CONTINUOUS
 62
    7
 10
1466.1043496622888
 20
1292.6385195682562
 40
2.3649030984670278
 50
251.51008506385665
 51
288.48991493614329
  0
ARC
  8
_0-1_レイヤ___3
  6
CONTINUOUS
 62
    7
 10
1465.6764557106249
 20
1291.1012867620834
 40
0.7756374764749456
 50
196.9087455314002
 51
245.46310480007202
  0
ARC
  8
_0-1_レイヤ___3
  6
CONTINUOUS
 62
    7
 10
1466.9226098149602
 20
1291.4064747892314
 40
2.0578888971440623
 50
167.39130914693953
 51
194.94696950886888
  0
ARC
  8
_0-1_レイヤ___3
  6
CONTINUOUS
 62
    7
 10
1451.9256307768619
 20
1295.1281174027663
 40
13.394609864021263
 50
345.8589998953895
 51
356.43699190582458
  0
ARC
  8
_0-1_レイヤ___3
  6
CONTINUOUS
 62
    7
 10
1464.4911399313328
 20
1294.1483909610781
 40
0.8166051973125366
 50
10.392162950143904
 51
105.39532513960512
  0
ARC
  8
_0-1_レイヤ___3
  6
CONTINUOUS
 62
    7
 10
1464.646679083733
 20
1290.283478787057
 40
4.6670906681271642
 50
94.575783883961364
 51
104.80178923682259
  0
ARC
  8
_0-1_レイヤ___3
  6
CONTINUOUS
 62
    7
 10
1772.5428601713872
 20
1165.3564889617232
 40
335.09732186613036
 50
155.45177350550554
 51
157.27717843947033
  0
ARC
  8
_0-1_レイヤ___3
  6
CONTINUOUS
 62
    7
 10
1475.861664888911
 20
1299.6391507705382
 40
9.5090857368601789
 50
123.20352549658767
 51
148.7254431078637
  0
ARC
  8
_0-1_レイヤ___3
  6
CONTINUOUS
 62
    7
 10
1477.859972773148
 20
1294.1705166121678
 40
15.236679149320466
 50
84.447086432818779
 51
118.22355013751715
  0
ARC
  8
_0-1_レイヤ___3
  6
CONTINUOUS
 62
    7
 10
1478.0736734011873
 20
1300.8174959607609
 40
8.6109814746238271
 50
13.281157340979373
 51
81.581449309172513
  0
ARC
  8
_0-1_レイヤ___3
  6
CONTINUOUS
 62
    7
 10
1483.6154345201367
 20
1301.9168597462517
 40
2.9718325620399009
 50
323.17669085059981
 51
17.200795413404688
  0
ARC
  8
_0-1_レイヤ___3
  6
CONTINUOUS
 62
    7
 10
1480.5736027291878
 20
1304.0323776073774
 40
6.6759748864246591
 50
308.3341032608476
 51
324.2896723041668
  0
ARC
  8
_0-1_レイヤ___3
  6
CONTINUOUS
 62
    7
 10
1471.8813963497187
 20
1315.0892125380212
 40
20.740381820398987
 50
298.1124868312163
 51
308.22435481130265
  0
ARC
  8
_0-1_レイヤ___3
  6
CONTINUOUS
 62
    7
 10
1488.0363061879484
 20
1360.6563476525264
 40
3.9017602810706902
 50
338.01538475631253
 51
58.854469917693081
  0
ARC
  8
_0-1_レイヤ___3
  6
CONTINUOUS
 62
    7
 10
1488.597616205486
 20
1360.3658943401961
 40
3.9112041259896468
 50
68.133118801780228
 51
148.73677884404952
  0
ARC
  8
_0-1_レイヤ___3
  6
CONTINUOUS
 62
    7
 10
1488.4389355347798
 20
1360.7905559272863
 40
3.5662382582715955
 50
153.25036411291956
 51
243.61953353292546
  0
ARC
  8
_0-1_レイヤ___3
  6
CONTINUOUS
 62
    7
 10
1488.3457075294782
 20
1361.1216162324195
 40
3.8283516152699368
 50
247.07311621417378
 51
329.79679575561966
  0
ARC
  8
_0-1_レイヤ___3
  6
CONTINUOUS
 62
    7
 10
1527.0844967926014
 20
1353.0057436798934
 40
3.5553079479933443
 50
333.07280020109971
 51
63.797097444743216
  0
ARC
  8
_0-1_レイヤ___3
  6
CONTINUOUS
 62
    7
 10
1527.1936951537355
 20
1352.5776514954484
 40
3.9017607687908287
 50
68.015406242231194
 51
148.85449140361175
  0
ARC
  8
_0-1_レイヤ___3
  6
CONTINUOUS
 62
    7
 10
1527.4841472918815
 20
1353.1389605129866
 40
3.9112041259897854
 50
158.13311880178634
 51
238.73677884405564
  0
ARC
  8
_0-1_レイヤ___3
  6
CONTINUOUS
 62
    7
 10
1527.0594857047918
 20
1352.9802798422797
 40
3.5662382582715009
 50
243.25036411292515
 51
333.61953353293109
  0
ARC
  8
_0-1_レイヤ___3
  6
CONTINUOUS
 62
    7
 10
1700.6697597897978
 20
1289.4008320122921
 40
3.5662382582715644
 50
333.25036411291802
 51
63.619533532923995
  0
ARC
  8
_0-1_レイヤ___3
  6
CONTINUOUS
 62
    7
 10
1700.6901549947111
 20
1289.6802421390757
 40
3.3085573626200566
 50
61.785667341853156
 51
156.57234870978067
  0
ARC
  8
_0-1_レイヤ___3
  6
CONTINUOUS
 62
    7
 10
1700.8241965319762
 20
1289.3856442596848
 40
3.5553079479933762
 50
153.0728002011013
 51
243.79709744474474
  0
ARC
  8
_0-1_レイヤ___3
  6
CONTINUOUS
 62
    7
 10
1700.6726150267671
 20
1289.5306695469139
 40
3.6240240189929551
 50
246.96134358180018
 51
331.39667246982094
  0
ARC
  8
_0-1_レイヤ___3
  6
CONTINUOUS
 62
    7
 10
1544.1156562068636
 20
1217.4827988179809
 40
3.8384648100248664
 50
337.20586287035928
 51
59.664034775479635
  0
ARC
  8
_0-1_レイヤ___3
  6
CONTINUOUS
 62
    7
 10
1544.5629887950997
 20
1217.2697725713576
 40
3.8283530509024883
 50
67.073109052201104
 51
149.79678859364699
  0
ARC
  8
_0-1_レイヤ___3
  6
CONTINUOUS
 62
    7
 10
1544.8841472918816
 20
1217.7389625129867
 40
3.91120412598982
 50
158.13311880178787
 51
238.73677884405717
  0
ARC
  8
_0-1_レイヤ___3
  6
CONTINUOUS
 62
    7
 10
1544.3414505104804
 20
1217.9343874252143
 40
3.8384648100247656
 50
247.20586287036485
 51
329.66403477548522
  0
ARC
  8
_0-1_レイヤ___3
  6
CONTINUOUS
 62
    7
 10
1512.6844967926013
 20
1277.8057436798929
 40
3.5553079479934069
 50
333.07280020110284
 51
63.797097444746321
  0
ARC
  8
_0-1_レイヤ___3
  6
CONTINUOUS
 62
    7
 10
1512.8085555588914
 20
1277.7398462670558
 40
3.5624232019282682
 50
66.055901891045536
 51
152.30211416056295
  0
ARC
  8
_0-1_レイヤ___3
  6
CONTINUOUS
 62
    7
 10
1512.8389335347799
 20
1277.7905559272861
 40
3.5662382582715644
 50
153.25036411291802
 51
243.61953353292395
  0
ARC
  8
_0-1_レイヤ___3
  6
CONTINUOUS
 62
    7
 10
1512.7001397656861
 20
1277.8515416725222
 40
3.5624232019285031
 50
246.05590189105135
 51
332.30211416056875
  0
ARC
  8
_0-1_レイヤ___3
  6
CONTINUOUS
 62
    7
 10
1617.1505793869146
 20
1507.1808492616572
 40
13.861922601173875
 50
297.23491633153151
 51
332.5725122209621
  0
ARC
  8
_0-1_レイヤ___3
  6
CONTINUOUS
 62
    7
 10
1620.798940595605
 20
1500.8521283054138
 40
6.5743796652100253
 50
246.66083726919987
 51
294.20398826587353
  0
ARC
  8
_0-1_レイヤ___3
  6
CONTINUOUS
 62
    7
 10
1621.0182037869959
 20
1500.1926751495205
 40
6.073393740583465
 50
211.7619694247457
 51
242.2926759762596
  0
ARC
  8
_0-1_レイヤ___3
  6
CONTINUOUS
 62
    7
 10
1629.2864357547119
 20
1505.9457016250221
 40
16.140745439767468
 50
150.81801403814208
 51
213.67613921504602
  0
ARC
  8
_0-1_レイヤ___3
  6
CONTINUOUS
 62
    7
 10
1622.153985144027
 20
1509.2291825258621
 40
8.3350227600415892
 50
117.89558075236125
 51
146.61450745996706
  0
ARC
  8
_0-1_レイヤ___3
  6
CONTINUOUS
 62
    7
 10
1621.738008192624
 20
1507.5130117081833
 40
9.7278432910108901
 50
353.04869355390377
 51
110.98431231043602
  0
ARC
  8
_0-1_レイヤ___3
  6
CONTINUOUS
 62
    7
 10
1614.5019454848539
 20
1509.141406111346
 40
17.123820122821449
 50
330.83183599489035
 51
350.56964552427507
  0
ARC
  8
_0-1_レイヤ___3
  6
CONTINUOUS
 62
    7
 10
1693.4996271033017
 20
1464.9006628897175
 40
14.04897207615263
 50
297.99596164949054
 51
333.33422887105576
  0
ARC
  8
_0-1_レイヤ___3
  6
CONTINUOUS
 62
    7
 10
1697.3545455551921
 20
1458.404949064944
 40
6.5135108845758038
 50
246.85497061401588
 51
294.87458195056809
  0
ARC
  8
_0-1_レイヤ___3
  6
CONTINUOUS
 62
    7
 10
1697.6060957538493
 20
1457.7796806001788
 40
6.0562622635039789
 50
211.71773171313203
 51
242.33691368785151
  0
ARC
  8
_0-1_レイヤ___3
  6
CONTINUOUS
 62
    7
 10
1706.9931022771671
 20
1463.7284581558379
 40
17.16924174550784
 50
160.44326525286445
 51
212.13567988331232
  0
ARC
  8
_0-1_レイヤ___3
  6
CONTINUOUS
 62
    7
 10
1699.5695487274327
 20
1466.070814769962
 40
9.3939751680430632
 50
120.12837030807856
 51
158.74906242732894
  0
ARC
  8
_0-1_レイヤ___3
  6
CONTINUOUS
 62
    7
 10
1699.2222563790137
 20
1465.5748167189945
 40
9.6642710081535625
 50
49.064720866078247
 51
116.86981620591824
  0
ARC
  8
_0-1_レイヤ___3
  6
CONTINUOUS
 62
    7
 10
1699.117257762905
 20
1466.5306064457766
 40
9.0385956282725779
 50
1.0465375534470427
 51
44.58760872574382
  0
ARC
  8
_0-1_レイヤ___3
  6
CONTINUOUS
 62
    7
 10
1694.6667573512314
 20
1466.1578333342916
 40
13.498308425886218
 50
339.069182856483
 51
2.2836335872343918
  0
ARC
  8
_0-1_レイヤ___3
  6
CONTINUOUS
 62
    7
 10
1688.0281991953086
 20
1468.2635382069097
 40
20.455053344189281
 50
331.79429435186415
 51
340.20314371691995
  0
ARC
  8
_0-1_レイヤ___3
  6
CONTINUOUS
 62
    7
 10
1635.4933859435646
 20
1458.1532656568597
 40
2.2544308535620394
 50
338.73685063831164
 51
16.556555629482315
  0
ARC
  8
_0-1_レイヤ___3
  6
CONTINUOUS
 62
    7
 10
1636.7205886329805
 20
1457.7749186277615
 40
0.9779424335509474
 50
289.95517918472939
 51
333.31189948841097
  0
ARC
  8
_0-1_レイヤ___3
  6
CONTINUOUS
 62
    7
 10
1635.9928980425502
 20
1460.1969110227528
 40
3.505768932678917
 50
267.08060456252548
 51
287.62415415730004
  0
ARC
  8
_0-1_レイヤ___3
  6
CONTINUOUS
 62
    7
 10
1635.586153980629
 20
1455.762695327968
 40
0.9604968387389942
 50
76.256439993506589
 51
165.96117766356448
  0
ARC
  8
_0-1_レイヤ___3
  6
CONTINUOUS
 62
    7
 10
1635.3737443404661
 20
1461.0446042112119
 40
5.0999067912807794
 50
237.24359726921853
 51
261.89074537197223
  0
ARC
  8
_0-1_レイヤ___3
  6
CONTINUOUS
 62
    7
 10
1633.7810630060444
 20
1458.3953390217687
 40
2.0123796399498257
 50
170.84005153390754
 51
234.56563271252949
  0
ARC
  8
_0-1_レイヤ___3
  6
CONTINUOUS
 62
    7
 10
1733.6199924187324
 20
1450.1896963889296
 40
102.18196973053955
 50
173.7038769525534
 51
175.21371349135532
  0
ARC
  8
_0-1_レイヤ___3
  6
CONTINUOUS
 62
    7
 10
1633.987955273351
 20
1461.4885340501319
 40
1.9358372296953352
 50
115.50689310642024
 51
182.74894016741098
  0
ARC
  8
_0-1_レイヤ___3
  6
CONTINUOUS
 62
    7
 10
1634.7670856609341
 20
1459.4024544757237
 40
4.1586824823655943
 50
92.932281233636942
 51
112.81772188564044
  0
ARC
  8
_0-1_レイヤ___3
  6
CONTINUOUS
 62
    7
 10
1635.8442713627744
 20
1442.7781067039614
 40
20.817587703466526
 50
89.972272730420485
 51
93.552509316892866
  0
ARC
  8
_0-1_レイヤ___3
  6
CONTINUOUS
 62
    7
 10
1635.6318283839282
 20
1459.565972072864
 40
4.0358588165152671
 50
37.01563449650282
 51
86.839391631783428
  0
ARC
  8
_0-1_レイヤ___3
  6
CONTINUOUS
 62
    7
 10
1637.9514850706312
 20
1461.6734141639326
 40
0.9586554292942384
 50
334.16776364981098
 51
19.644120232345951
  0
ARC
  8
_0-1_レイヤ___3
  6
CONTINUOUS
 62
    7
 10
1668.5772658215201
 20
1445.7176483174712
 40
33.574725865539328
 50
152.43271902496784
 51
157.07533385190047
  0
ARC
  8
_0-1_レイヤ___3
  6
CONTINUOUS
 62
    7
 10
1664.3705694844343
 20
1376.2481243444931
 40
3.464075377503069
 50
250.85244721111641
 51
274.69892140079344
  0
ARC
  8
_0-1_レイヤ___3
  6
CONTINUOUS
 62
    7
 10
1664.8814455166876
 20
1378.5156741676692
 40
5.77964883735938
 50
235.09640249303035
 51
253.44218630392751
  0
ARC
  8
_0-1_レイヤ___3
  6
CONTINUOUS
 62
    7
 10
1662.3769979759024
 20
1375.106387720575
 40
1.5540276438047735
 50
191.532828174515
 51
238.90235776185094
  0
ARC
  8
_0-1_レイヤ___3
  6
CONTINUOUS
 62
    7
 10
1664.6931266842039
 20
1374.9329591230367
 40
3.8412344377266532
 50
48.18175951387741
 51
182.04791025840919
  0
ARC
  8
_0-1_レイヤ___3
  6
CONTINUOUS
 62
    7
 10
1665.6227346222543
 20
1376.0436986265538
 40
2.3940833863304234
 50
318.44760570077904
 51
47.037617014195696
  0
ARC
  8
_0-1_レイヤ___3
  6
CONTINUOUS
 62
    7
 10
1663.2652003933115
 20
1378.2298130194147
 40
5.6088676361905847
 50
284.33964611009776
 51
317.70990264702039
  0
ARC
  8
_0-1_レイヤ___3
  6
CONTINUOUS
 62
    7
 10
1630.1769451648379
 20
1286.525180520754
 40
4.4633593436072836
 50
225.24405641298966
 51
325.47800351634334
  0
ARC
  8
_0-1_レイヤ___3
  6
CONTINUOUS
 62
    7
 10
1628.782465916574
 20
1284.8964925963048
 40
2.3302327847047493
 50
177.56009859371224
 51
221.39305240416246
  0
ARC
  8
_0-1_レイヤ___3
  6
CONTINUOUS
 62
    7
 10
1631.6111057023882
 20
1284.5981779818453
 40
5.1720588813193409
 50
96.625631296920901
 51
175.59199295860256
  0
ARC
  8
_0-1_レイヤ___3
  6
CONTINUOUS
 62
    7
 10
1633.1791459494818
 20
1277.3341342658921
 40
12.589084294449243
 50
88.018912626132433
 51
99.90171103478491
  0
ARC
  8
_0-1_レイヤ___3
  6
CONTINUOUS
 62
    7
 10
1632.9527961475374
 20
1269.0309735796363
 40
20.895195465353183
 50
79.796296566349227
 51
88.18569151866842
  0
ARC
  8
_0-1_レイヤ___3
  6
CONTINUOUS
 62
    7
 10
-454.29695514379546
 20
2331.5713443728314
 40
2336.1914729695213
 50
333.3581724898628
 51
333.51172515598125
  0
ARC
  8
_0-1_レイヤ___3
  6
CONTINUOUS
 62
    7
 10
1582.8697617897978
 20
1443.0008300122918
 40
3.5662382582714387
 50
333.25036411292211
 51
63.619533532928017
  0
ARC
  8
_0-1_レイヤ___3
  6
CONTINUOUS
 62
    7
 10
1582.9629887950989
 20
1442.6697685713575
 40
3.8283530509020798
 50
67.073109052192976
 51
149.79678859363884
  0
ARC
  8
_0-1_レイヤ___3
  6
CONTINUOUS
 62
    7
 10
1583.2723901366296
 20
1443.1350394612364
 40
3.9017607687909326
 50
158.01540624223071
 51
238.85449140361129
  0
ARC
  8
_0-1_レイヤ___3
  6
CONTINUOUS
 62
    7
 10
1582.7110811190914
 20
1443.425491599382
 40
3.9112041259897161
 50
248.13311880178327
 51
328.73677884405254
  0
ARC
  8
_0-1_レイヤ___3
  6
CONTINUOUS
 62
    7
 10
1555.284496792601
 20
1374.6057416798931
 40
3.555307947993755
 50
333.07280020109926
 51
63.797097444742761
  0
ARC
  8
_0-1_レイヤ___3
  6
CONTINUOUS
 62
    7
 10
1555.4789321016858
 20
1374.5328650691076
 40
3.5408766355466659
 50
67.142578532850294
 51
155.59866600583683
  0
ARC
  8
_0-1_レイヤ___3
  6
CONTINUOUS
 62
    7
 10
1555.1697985732401
 20
1374.4315023022114
 40
3.308556079368203
 50
151.78567507146872
 51
246.5723564393962
  0
ARC
  8
_0-1_レイヤ___3
  6
CONTINUOUS
 62
    7
 10
1555.4185392496288
 20
1374.3111448005025
 40
3.3085569162716992
 50
241.7856451191924
 51
336.57232648711994
  0
ARC
  8
_0-1_レイヤ___3
  6
CONTINUOUS
 62
    7
 10
1550.284496792601
 20
1436.4057416798935
 40
3.555307947993755
 50
333.07280020109926
 51
63.797097444742761
  0
ARC
  8
_0-1_レイヤ___3
  6
CONTINUOUS
 62
    7
 10
1550.3936951537362
 20
1435.9776494954488
 40
3.9017607687908633
 50
68.015406242237802
 51
148.85449140361837
  0
ARC
  8
_0-1_レイヤ___3
  6
CONTINUOUS
 62
    7
 10
1550.5912848858175
 20
1436.5845434286118
 40
3.808052668812012
 50
158.24924993846457
 51
242.86284050069941
  0
ARC
  8
_0-1_レイヤ___3
  6
CONTINUOUS
 62
    7
 10
1550.3001397656858
 20
1436.4515396725221
 40
3.5624232019285413
 50
246.05590189105823
 51
332.30211416057563
  0
ARC
  8
_0-1_レイヤ___3
  6
CONTINUOUS
 62
    7
 10
1458.1324175867921
 20
1459.6776598943709
 40
41.410890188167457
 50
282.15864637694608
 51
304.61179573748586
  0
ARC
  8
_0-1_レイヤ___3
  6
CONTINUOUS
 62
    7
 10
1466.2200780971082
 20
1421.405600122649
 40
2.2991290660760026
 50
247.88008700721682
 51
286.01414796319045
  0
ARC
  8
_0-1_レイヤ___3
  6
CONTINUOUS
 62
    7
 10
1465.7564375332561
 20
1420.0300706348007
 40
0.8548460833414196
 50
195.91294202162459
 51
241.94214516392793
  0
ARC
  8
_0-1_レイヤ___3
  6
CONTINUOUS
 62
    7
 10
1467.053199037895
 20
1420.3382689573014
 40
2.1872156875545179
 50
167.92834325569723
 51
194.36318242064777
  0
ARC
  8
_0-1_レイヤ___3
  6
CONTINUOUS
 62
    7
 10
1451.1580154759417
 20
1424.1655347661144
 40
14.163070666998983
 50
346.23550314158371
 51
356.47889169840244
  0
ARC
  8
_0-1_レイヤ___3
  6
CONTINUOUS
 62
    7
 10
1464.4911843130494
 20
1423.1484596944388
 40
0.8165487867384522
 50
10.387842883162058
 51
105.3996452066099
  0
ARC
  8
_0-1_レイヤ___3
  6
CONTINUOUS
 62
    7
 10
1464.6457478232633
 20
1419.2889313126552
 40
4.6615792601502761
 50
94.569722628975697
 51
104.80785049176967
  0
ARC
  8
_0-1_レイヤ___3
  6
CONTINUOUS
 62
    7
 10
1747.4999076969279
 20
1304.3474418588885
 40
308.13919499759498
 50
155.23714610472103
 51
157.19203068957339
  0
ARC
  8
_0-1_レイヤ___3
  6
CONTINUOUS
 62
    7
 10
1475.3074843961861
 20
1428.8137192139716
 40
8.8959526595950926
 50
121.53786901531187
 51
148.84795969175332
  0
ARC
  8
_0-1_レイヤ___3
  6
CONTINUOUS
 62
    7
 10
1478.0616500960919
 20
1422.6770283624214
 40
15.59069693402863
 50
85.317621439977373
 51
118.36653079067997
  0
ARC
  8
_0-1_レイヤ___3
  6
CONTINUOUS
 62
    7
 10
1478.1484229930338
 20
1429.8013116246084
 40
8.4975419185910379
 50
12.190611609537912
 51
81.977547668280877
  0
ARC
  8
_0-1_レイヤ___3
  6
CONTINUOUS
 62
    7
 10
1483.7041192454039
 20
1430.735660093264
 40
2.8815659240415088
 50
321.343548720022
 51
17.365124590060031
  0
ARC
  8
_0-1_レイヤ___3
  6
CONTINUOUS
 62
    7
 10
1480.3181631901043
 20
1433.231878441974
 40
7.0868763325614337
 50
307.31648310044966
 51
322.68351689954432
  0
ARC
  8
_0-1_レイヤ___3
  6
CONTINUOUS
 62
    7
 10
1463.7002758324311
 20
1455.3581212379797
 40
34.758466062702041
 50
301.10032273970114
 51
306.99155197350052
  0
ARC
  8
_0-1_レイヤ___3
  6
CONTINUOUS
 62
    7
 10
1488.3193730851635
 20
1489.6139624364305
 40
3.6240235300864025
 50
336.96132135914888
 51
61.396650247169681
  0
ARC
  8
_0-1_レイヤ___3
  6
CONTINUOUS
 62
    7
 10
1488.449211619786
 20
1489.611106097298
 40
3.5662382582716279
 50
63.250364112921091
 51
153.61953353292699
  0
ARC
  8
_0-1_レイヤ___3
  6
CONTINUOUS
 62
    7
 10
1488.4242005319766
 20
1489.5856422596851
 40
3.5553079479935974
 50
153.07280020110181
 51
243.79709744474525
  0
ARC
  8
_0-1_レイヤ___3
  6
CONTINUOUS
 62
    7
 10
1488.2694883738407
 20
1489.9219849780286
 40
3.7996526095016265
 50
248.13388614989663
 51
332.97821998674522
  0
ARC
  8
_0-1_レイヤ___3
  6
CONTINUOUS
 62
    7
 10
1527.0697617897981
 20
1481.800830012292
 40
3.5662382582715324
 50
333.25036411291649
 51
63.619533532922418
  0
ARC
  8
_0-1_レイヤ___3
  6
CONTINUOUS
 62
    7
 10
1527.0442979521845
 20
1481.8258411001013
 40
3.5553079479936596
 50
63.072800201099781
 51
153.79709744474323
  0
ARC
  8
_0-1_レイヤ___3
  6
CONTINUOUS
 62
    7
 10
1527.4723901366292
 20
1481.9350394612361
 40
3.9017607687907256
 50
158.01540624223173
 51
238.85449140361231
  0
ARC
  8
_0-1_レイヤ___3
  6
CONTINUOUS
 62
    7
 10
1526.9110811190917
 20
1482.2254915993815
 40
3.9112041259895074
 50
248.13311880178429
 51
328.73677884405356
  0
ARC
  8
_0-1_レイヤ___3
  6
CONTINUOUS
 62
    7
 10
1700.6844947926011
 20
1418.4057416798933
 40
3.555307947993755
 50
333.07280020109926
 51
63.797097444742761
  0
ARC
  8
_0-1_レイヤ___3
  6
CONTINUOUS
 62
    7
 10
1700.8085535588918
 20
1418.3398442670564
 40
3.5624232019284729
 50
66.055901891055001
 51
152.30211416057242
  0
ARC
  8
_0-1_レイヤ___3
  6
CONTINUOUS
 62
    7
 10
1700.8389315347795
 20
1418.390553927286
 40
3.5662382582715644
 50
153.25036411291802
 51
243.61953353292395
  0
ARC
  8
_0-1_レイヤ___3
  6
CONTINUOUS
 62
    7
 10
1700.7001377656857
 20
1418.4515396725219
 40
3.5624232019284729
 50
246.05590189105504
 51
332.30211416057244
  0
ARC
  8
_0-1_レイヤ___3
  6
CONTINUOUS
 62
    7
 10
1687.1284222638569
 20
1501.6870508369786
 40
3.82835305090242
 50
337.07310905219805
 51
59.796788593643946
  0
ARC
  8
_0-1_レイヤ___3
  6
CONTINUOUS
 62
    7
 10
1687.5976122054863
 20
1501.3658923401963
 40
3.9112041259897854
 50
68.133118801786338
 51
148.73677884405561
  0
ARC
  8
_0-1_レイヤ___3
  6
CONTINUOUS
 62
    7
 10
1687.7930371177138
 20
1501.9085891215977
 40
3.8384648100246976
 50
157.20586287036181
 51
239.66403477548221
  0
ARC
  8
_0-1_レイヤ___3
  6
CONTINUOUS
 62
    7
 10
1687.3457045294781
 20
1502.121615368221
 40
3.8283530509023516
 50
247.07310905219498
 51
329.79678859364088
  0
ARC
  8
_0-1_レイヤ___3
  6
CONTINUOUS
 62
    7
 10
1512.9388958315756
 20
1406.7598826373671
 40
3.3085573626202351
 50
331.78566734184676
 51
66.572348709774232
  0
ARC
  8
_0-1_レイヤ___3
  6
CONTINUOUS
 62
    7
 10
1512.6901569947108
 20
1406.8802401390758
 40
3.3085573626200566
 50
61.785667341853156
 51
156.57234870978067
  0
ARC
  8
_0-1_レイヤ___3
  6
CONTINUOUS
 62
    7
 10
1512.8241985319764
 20
1406.5856422596848
 40
3.5553079479933762
 50
153.0728002011013
 51
243.79709744474474
  0
ARC
  8
_0-1_レイヤ___3
  6
CONTINUOUS
 62
    7
 10
1512.6297632228918
 20
1406.6585188704707
 40
3.5408766355465913
 50
247.14257853284724
 51
335.59866600583376
  0
LINE
  8
_0-1_レイヤ___3
  6
CONTINUOUS
 62
    7
 10
1138.4543536622887
 20
990.79569796978922
 11
1503.6543476622887
 21
1201.795695969789
  0
LINE
  8
_0-1_レイヤ___3
  6
CONTINUOUS
 62
    7
 10
1148.4543536622887
 20
984.79569796978944
 11
1315.8543516622888
 21
1082.9956979697895
  0
LINE
  8
_0-1_レイヤ___3
  6
CONTINUOUS
 62
    7
 10
1307.6543516622887
 20
1087.9956979697895
 11
1315.8543516622888
 21
1082.9956979697895
  0
ARC
  8
_0-1_レイヤ___3
  6
CONTINUOUS
 62
    7
 10
1307.5208147423614
 20
1085.8390824879016
 40
17.195881015154725
 50
320.73511564784638
 51
42.226038982028221
  0
ARC
  8
_0-1_レイヤ___3
  6
CONTINUOUS
 62
    7
 10
1294.7226957043354
 20
1095.173342673397
 40
33.023805568526676
 50
309.78373725395409
 51
322.25021880748125
  0
LINE
  8
_0-1_レイヤ___3
  6
CONTINUOUS
 62
    7
 10
1315.8543516622888
 20
1069.7956979697894
 11
1315.8543516622888
 21
1082.9956979697895
  0
LINE
  8
_0-1_レイヤ___3
  6
CONTINUOUS
 62
    7
 10
1317.2543516622889
 20
1069.9956979697893
 11
1527.4543476622887
 21
1190.995695969789
  0
LINE
  8
_0-1_レイヤ___3
  6
CONTINUOUS
 62
    7
 10
1471.4543496622889
 20
1220.7956959697892
 11
1333.4543516622887
 21
1140.1956959697893
  0
ARC
  8
_0-1_レイヤ___3
  6
CONTINUOUS
 62
    7
 10
1335.2606026785502
 20
1134.7525064880815
 40
5.7350548792072615
 50
108.35774781038776
 51
125.94161558520059
  0
ARC
  8
_0-1_レイヤ___3
  6
CONTINUOUS
 62
    7
 10
1339.6118047905479
 20
1128.6022651174048
 40
13.268656011521083
 50
125.56529512767501
 51
148.69944174543409
  0
ARC
  8
_0-1_レイヤ___3
  6
CONTINUOUS
 62
    7
 10
1353.2315660221757
 20
1119.3581885068013
 40
29.720055446168196
 50
147.11301173214795
 51
163.10438801812055
  0
ARC
  8
_0-1_レイヤ___3
  6
CONTINUOUS
 62
    7
 10
1384.2338401313848
 20
1108.7424763099884
 40
62.479910825290979
 50
162.05218991296988
 51
172.89019466872406
  0
ARC
  8
_0-1_レイヤ___3
  6
CONTINUOUS
 62
    7
 10
1450.449450531949
 20
1098.7564809149708
 40
129.43369793185872
 50
172.13161331246835
 51
181.39930736702877
  0
LINE
  8
_0-1_レイヤ___3
  6
CONTINUOUS
 62
    7
 10
1321.0543516622888
 20
1095.5956979697894
 11
1289.4543516622889
 21
1117.7956959697892
  0
LINE
  8
_0-1_レイヤ___3
  6
CONTINUOUS
 62
    7
 10
1289.4543516622889
 20
1117.7956959697892
 11
1289.2543516622891
 21
1166.3956959697894
  0
LINE
  8
_0-1_レイヤ___3
  6
CONTINUOUS
 62
    7
 10
1138.4543536622887
 20
470.59570596978892
 11
1138.4543536622887
 21
990.79569796978922
  0
LINE
  8
_0-1_レイヤ___3
  6
CONTINUOUS
 62
    7
 10
1138.4543536622887
 20
990.79569796978922
 11
1148.4543536622887
 21
984.79569796978944
  0
LINE
  8
_0-1_レイヤ___3
  6
CONTINUOUS
 62
    7
 10
1148.4543536622887
 20
984.79569796978944
 11
1148.4543536622887
 21
470.39570596978911
  0
LINE
  8
_0-1_レイヤ___3
  6
CONTINUOUS
 62
    7
 10
1022.2543556622888
 20
840.79569996978898
 11
1022.2543556622888
 21
964.19569996978885
  0
LINE
  8
_0-1_レイヤ___3
  6
CONTINUOUS
 62
    7
 10
1022.2543556622888
 20
964.19569996978885
 11
1056.2543556622888
 21
947.79569996978898
  0
LINE
  8
_0-1_レイヤ___3
  6
CONTINUOUS
 62
    7
 10
1056.2543556622888
 20
947.79569996978898
 11
1056.2543556622888
 21
943.19569996978862
  0
LINE
  8
_0-1_レイヤ___3
  6
CONTINUOUS
 62
    7
 10
1056.2543556622888
 20
943.19569996978862
 11
1026.4543556622887
 21
957.79569996978898
  0
LINE
  8
_0-1_レイヤ___3
  6
CONTINUOUS
 62
    7
 10
1026.4543556622887
 20
957.79569996978898
 11
1026.6543556622887
 21
740.19570196978884
  0
ARC
  8
_0-1_レイヤ___3
  6
CONTINUOUS
 62
    7
 10
1022.2377506437989
 20
740.02012428411922
 40
4.4200935977708076
 50
318.2297895222552
 51
2.2765372668889379
  0
ARC
  8
_0-1_レイヤ___3
  6
CONTINUOUS
 62
    7
 10
1023.1721240882756
 20
739.62712895834579
 40
3.4770558935974218
 50
266.73936368155535
 51
312.79497367204425
  0
ARC
  8
_0-1_レイヤ___3
  6
CONTINUOUS
 62
    7
 10
1023.157703834231
 20
743.25318809020905
 40
7.0998539267868832
 50
238.55975355381861
 51
268.52021682210625
  0
ARC
  8
_0-1_レイヤ___3
  6
CONTINUOUS
 62
    7
 10
1026.8715506252743
 20
749.38269521963457
 40
14.266659931137244
 50
184.77255457685973
 51
238.67465133850783
  0
LINE
  8
_0-1_レイヤ___3
  6
CONTINUOUS
 62
    7
 10
1012.6543556622887
 20
748.19570196978907
 11
1012.4543556622887
 21
769.79570196978875
  0
LINE
  8
_0-1_レイヤ___3
  6
CONTINUOUS
 62
    7
 10
1012.4543556622887
 20
769.79570196978875
 11
1016.8543556622889
 21
767.39570196978912
  0
LINE
  8
_0-1_レイヤ___3
  6
CONTINUOUS
 62
    7
 10
1016.8543556622889
 20
767.39570196978912
 11
1016.8543556622889
 21
745.79570196978898
  0
ARC
  8
_0-1_レイヤ___3
  6
CONTINUOUS
 62
    7
 10
1021.7935784926026
 20
745.94855419807891
 40
4.9415873938630099
 50
181.77254473407706
 51
241.74641543555174
  0
ARC
  8
_0-1_レイヤ___3
  6
CONTINUOUS
 62
    7
 10
1020.9935411278274
 20
743.80870897200703
 40
2.695643130903858
 50
235.1807046178597
 51
267.46589191775786
  0
ARC
  8
_0-1_レイヤ___3
  6
CONTINUOUS
 62
    7
 10
1020.8323664953981
 20
742.5569787854497
 40
1.4418883276785019
 50
271.66874380201892
 51
9.5299348710032064
  0
LINE
  8
_0-1_レイヤ___3
  6
CONTINUOUS
 62
    7
 10
1022.2543556622888
 20
742.79570196978875
 11
1022.2543556622888
 21
840.79569996978898
  0
LINE
  8
_0-1_レイヤ___3
  6
CONTINUOUS
 62
    7
 10
1022.054355662289
 20
963.59569996978939
 11
1289.2543516622891
 21
1117.7956959697892
  0
LINE
  8
_0-1_レイヤ___3
  6
CONTINUOUS
 62
    7
 10
1012.6543556622887
 20
769.79570196978875
 11
1021.8543556622889
 21
775.19570196978884
  0
LINE
  8
_0-1_レイヤ___3
  6
CONTINUOUS
 62
    7
 10
1016.2543556622888
 20
767.19570196978884
 11
1022.2543556622888
 21
770.59570196978916
  0
LINE
  8
_0-1_レイヤ___3
  6
CONTINUOUS
 62
    7
 10
1024.4543556622889
 20
735.9957019697888
 11
1136.6543536622889
 21
801.59570196978939
  0
ARC
  8
_0-1_レイヤ___3
  6
CONTINUOUS
 62
    7
 10
1100.841336720669
 20
844.23003303362771
 40
13.26586238543165
 50
214.08421472960706
 51
239.02741265952579
  0
ARC
  8
_0-1_レイヤ___3
  6
CONTINUOUS
 62
    7
 10
1097.9686555318201
 20
840.05591659452102
 40
8.2145963940768425
 50
241.2247517842371
 51
301.28415146112991
  0
ARC
  8
_0-1_レイヤ___3
  6
CONTINUOUS
 62
    7
 10
1095.499990954374
 20
844.36214767036722
 40
13.177253632297425
 50
300.73443870137697
 51
324.10176900628693
  0
ARC
  8
_0-1_レイヤ___3
  6
CONTINUOUS
 62
    7
 10
1088.2984945199901
 20
850.11169292000523
 40
22.386351334453337
 50
322.98862108312107
 51
335.40848696460682
  0
ARC
  8
_0-1_レイヤ___3
  6
CONTINUOUS
 62
    7
 10
1073.7967065782491
 20
856.25861958803034
 40
38.13341636092477
 50
336.07783353855979
 51
23.322216136831678
  0
ARC
  8
_0-1_レイヤ___3
  6
CONTINUOUS
 62
    7
 10
1090.6823115148532
 20
862.4222205190315
 40
20.213312631370016
 50
26.229015873226309
 51
34.929437871751738
  0
ARC
  8
_0-1_レイヤ___3
  6
CONTINUOUS
 62
    7
 10
1096.3681422303973
 20
866.63367870448292
 40
13.141877965141235
 50
34.069320882820264
 51
59.316635992437611
  0
ARC
  8
_0-1_レイヤ___3
  6
CONTINUOUS
 62
    7
 10
1099.0619824645846
 20
870.54223213007867
 40
8.4120443011791544
 50
61.511698014242562
 51
120.96111719146593
  0
ARC
  8
_0-1_レイヤ___3
  6
CONTINUOUS
 62
    7
 10
1101.4284383536194
 20
866.35496189437526
 40
13.220726096508473
 50
120.41985370502378
 51
143.84025602195055
  0
ARC
  8
_0-1_レイヤ___3
  6
CONTINUOUS
 62
    7
 10
1108.2403988631293
 20
860.8160670298812
 40
21.993353171749099
 50
142.66096537681236
 51
155.33057861311383
  0
ARC
  8
_0-1_レイヤ___3
  6
CONTINUOUS
 62
    7
 10
1122.704877475174
 20
854.78436415075271
 40
37.65930417014593
 50
156.17655069161088
 51
204.41911156654808
  0
ARC
  8
_0-1_レイヤ___3
  6
CONTINUOUS
 62
    7
 10
1106.5595939774519
 20
848.37442301249916
 40
20.325645900859474
 50
206.78214479563363
 51
214.72657342359332
  0
LINE
  8
_0-1_レイヤ___3
  6
CONTINUOUS
 62
    7
 10
1097.854353662289
 20
869.79569996978944
 11
1097.854353662289
 21
839.79569996978944
  0
LINE
  8
_0-1_レイヤ___3
  6
CONTINUOUS
 62
    7
 10
1090.6543536622887
 20
850.9956999697888
 11
1108.0543536622888
 21
860.9956999697888
  0
LINE
  8
_0-1_レイヤ___3
  6
CONTINUOUS
 62
    7
 10
1056.2543556622888
 20
947.79569996978898
 11
1317.2543516622889
 21
1097.5956979697892
  0
LINE
  8
_0-1_レイヤ___3
  6
CONTINUOUS
 62
    7
 10
1428.0543496622888
 20
1246.5956939697892
 11
933.25435766228895
 21
962.9956999697888
  0
LINE
  8
_0-1_レイヤ___3
  6
CONTINUOUS
 62
    7
 10
933.25435766228895
 20
962.9956999697888
 11
933.25435766228895
 21
1507.1956899697889
  0
LINE
  8
_0-1_レイヤ___3
  6
CONTINUOUS
 62
    7
 10
1749.6543456622887
 20
1060.995697969789
 11
2255.8543376622883
 21
1353.795693969789
  0
LINE
  8
_0-1_レイヤ___3
  6
CONTINUOUS
 62
    7
 10
1611.2543476622889
 20
1140.1956959697893
 11
1672.8543456622883
 21
1175.5956959697889
  0
LINE
  8
_0-1_レイヤ___3
  6
CONTINUOUS
 62
    7
 10
1749.6543456622887
 20
1060.995697969789
 11
1687.4543456622887
 21
1096.7956979697894
  0
LINE
  8
_0-1_レイヤ___3
  6
CONTINUOUS
 62
    7
 10
1687.4543456622887
 20
1096.7956979697894
 11
1687.4543456622887
 21
1167.5956959697887
  0
LINE
  8
_0-1_レイヤ___3
  6
CONTINUOUS
 62
    7
 10
1687.4543456622887
 20
1167.5956959697887
 11
1625.8543456622886
 21
1203.1956959697893
  0
LINE
  8
_0-1_レイヤ___3
  6
CONTINUOUS
 62
    7
 10
1625.8543456622886
 20
1203.1956959697893
 11
1610.4543476622889
 21
1141.1956959697895
  0
LINE
  8
_0-1_レイヤ___3
  6
CONTINUOUS
 62
    7
 10
1610.4543476622889
 20
1141.1956959697895
 11
1428.6543496622885
 21
1245.7956939697888
  0
LINE
  8
_0-1_レイヤ___3
  6
CONTINUOUS
 62
    7
 10
1428.6543496622885
 20
1245.7956939697888
 11
1428.6543496622885
 21
1500.7956919697892
  0
LINE
  8
_0-1_レイヤ___3
  6
CONTINUOUS
 62
    7
 10
1749.6543456622887
 20
1517.795689969789
 11
1749.6543456622887
 21
1060.995697969789
  0
LINE
  8
_0-1_レイヤ___3
  6
CONTINUOUS
 62
    7
 10
1056.2543556622888
 20
943.59569996978939
 11
1317.2543516622889
 21
1093.3956979697891
  0
LINE
  8
_0-1_レイヤ___3
  6
CONTINUOUS
 62
    7
 10
979.85435566228875
 20
888.99569996978903
 11
976.0543556622888
 21
891.19569996978862
  0
LINE
  8
_0-1_レイヤ___3
  6
CONTINUOUS
 62
    7
 10
976.0543556622888
 20
891.19569996978862
 11
976.25435566228884
 21
770.39570196978934
  0
LINE
  8
_0-1_レイヤ___3
  6
CONTINUOUS
 62
    7
 10
976.25435566228884
 20
770.39570196978934
 11
979.85435566228875
 21
768.39570196978934
  0
LINE
  8
_0-1_レイヤ___3
  6
CONTINUOUS
 62
    7
 10
979.85435566228875
 20
768.39570196978934
 11
979.85435566228875
 21
888.99569996978903
  0
LINE
  8
_0-1_レイヤ___3
  6
CONTINUOUS
 62
    7
 10
1022.2543556622888
 20
793.39570196978934
 11
1021.8543556622889
 21
913.39569996978889
  0
LINE
  8
_0-1_レイヤ___3
  6
CONTINUOUS
 62
    7
 10
1021.8543556622889
 20
913.39569996978889
 11
979.65435566228894
 21
888.99569996978903
  0
LINE
  8
_0-1_レイヤ___3
  6
CONTINUOUS
 62
    7
 10
979.65435566228894
 20
888.99569996978903
 11
980.45435566228878
 21
768.39570196978934
  0
LINE
  8
_0-1_レイヤ___3
  6
CONTINUOUS
 62
    7
 10
980.45435566228878
 20
768.39570196978934
 11
1022.2543556622888
 21
793.39570196978934
  0
LINE
  8
_0-1_レイヤ___3
  6
CONTINUOUS
 62
    7
 10
976.0543556622888
 20
891.19569996978862
 11
979.65435566228894
 21
888.99569996978903
  0
LINE
  8
_0-1_レイヤ___3
  6
CONTINUOUS
 62
    7
 10
979.65435566228894
 20
888.99569996978903
 11
1021.8543556622889
 21
913.39569996978889
  0
LINE
  8
_0-1_レイヤ___3
  6
CONTINUOUS
 62
    7
 10
1021.8543556622889
 20
913.39569996978889
 11
1021.8543556622889
 21
917.39569996978935
  0
LINE
  8
_0-1_レイヤ___3
  6
CONTINUOUS
 62
    7
 10
1021.8543556622889
 20
917.39569996978935
 11
976.0543556622888
 21
891.19569996978862
  0
LINE
  8
_0-1_レイヤ___3
  6
CONTINUOUS
 62
    7
 10
1332.6543516622887
 20
1138.7956959697894
 11
1289.2543516622891
 21
1166.3956959697894
  0
LINE
  8
_0-0_文字
  6
CONTINUOUS
 62
    7
 10
1116.2543536622891
 20
916.79569996978921
 11
1200.2543536622891
 21
712.99570196978925
  0
LINE
  8
_0-0_文字
  6
CONTINUOUS
 62
    7
 10
1200.2543536622891
 20
712.99570196978925
 11
1247.054351662289
 21
712.99570196978925
  0
LINE
  8
_0-0_文字
  6
CONTINUOUS
 62
    7
 10
1775.2543436622891
 20
760.9957019697888
 11
1826.6543436622892
 21
640.59570396978893
  0
LINE
  8
_0-0_文字
  6
CONTINUOUS
 62
    7
 10
1826.6543436622892
 20
640.59570396978893
 11
1866.854343662289
 21
640.59570396978893
  0
LINE
  8
_0-0_文字
  6
CONTINUOUS
 62
    7
 10
1344.854351662289
 20
1087.5956979697892
 11
1423.6543496622892
 21
902.19569996978885
  0
LINE
  8
_0-0_文字
  6
CONTINUOUS
 62
    7
 10
1423.6543496622892
 20
902.19569996978885
 11
1461.4543496622889
 21
902.19569996978885
  0
LINE
  8
_0-0_文字
  6
CONTINUOUS
 62
    7
 10
1388.2543496622889
 20
1142.7956959697892
 11
1457.2543496622889
 21
979.99569796978881
  0
LINE
  8
_0-0_文字
  6
CONTINUOUS
 62
    7
 10
1457.2543496622889
 20
979.99569796978881
 11
1494.8543476622888
 21
979.99569796978881
  0
LINE
  8
_0-0_文字
  6
CONTINUOUS
 62
    7
 10
997.45435566228889
 20
782.19570196978884
 11
1048.854355662289
 21
661.79570396978897
  0
LINE
  8
_0-0_文字
  6
CONTINUOUS
 62
    7
 10
1048.854355662289
 20
661.79570396978897
 11
1089.054353662289
 21
661.79570396978897
  0
TEXT
  8
_0-0_文字
 62
    7
 10
675.85436166228885
 20
356.79570796978936
 40
46.000000000000227
 41
0.999999999999995
 50
0
  1
● 改修工事の場合、既存下地とリベットルーフとの間に絶縁シートが必要です。
  0
TEXT
  8
_0-1_レイヤ___3
 62
    7
 10
1104.4543536622887
 20
642.89570396978911
 40
46.000000000000227
 41
0.999999999999995
 50
0
  1
AYブチルテープ
  0
TEXT
  8
_0-0_文字
 62
    7
 10
1264.9743516622889
 20
698.39570396978934
 40
46.000000000000227
 41
0.999999999999995
 50
0
  1
FL鋼板※
  0
TEXT
  8
_0-0_文字
 62
    7
 10
1863.3543436622892
 20
622.67570396978931
 40
46.000000000000227
 41
0.9999999999999945
 50
0
  1
リベットルーフ
  0
TEXT
  8
_0-0_文字
 62
    7
 10
1468.634349662289
 20
886.75569996978902
 40
46.000000000000227
 41
0.999999999999995
 50
0
  1
FLシール
  0
TEXT
  8
_0-0_文字
 62
    7
 10
1497.0343476622888
 20
966.01569996978901
 40
46.000000000000227
 41
0.999999999999995
 50
0
  1
AYシールMS-1
  0
TEXT
  8
_0-0_文字
 62
    7
 10
1104.4543536622889
 20
642.89570396978911
 40
46.000000000000227
 41
0.999999999999995
 50
0
  1
AYブチルテープ
  0
TEXT
  8
_0-0_文字
 62
    7
 10
675.85436166228885
 20
411.83570796978893
 40
46.000000000000227
 41
0.999999999999995
 50
0
  1
※ 現場の条件に合わせAYシールMS-1を裏打ちする場合があります。
  0
ENDSEC
  0
EOF
