  0
SECTION
  2
HEADER
  9
$ACADVER
  1
AC1009
  9
$INSBASE
 10
0
 20
0
 30
0
  9
$EXTMIN
 10
0
 20
0
  9
$EXTMAX
 10
2970
 20
2100
  9
$LIMMIN
 10
0
 20
0
  9
$LIMMAX
 10
2970
 20
2100
  9
$LTSCALE
 40
10
  0
ENDSEC
  0
SECTION
  2
TABLES
  0
TABLE
  2
LTYPE
 70
     9
  0
LTYPE
  2
CONTINUOUS
 70
    64
  3
実線
 72
    65
 73
     0
 40
0.0
  0
LTYPE
  2
DASHED1
 70
    64
  3
--  --  --  --  --  --  --  --  
 72
    65
 73
     2
 40
2.5
 49
1.25
 49
-1.25
  0
LTYPE
  2
DASHED2
 70
    64
  3
----    ----    ----    ----    
 72
    65
 73
     2
 40
5.0
 49
2.5
 49
-2.5
  0
LTYPE
  2
DASHED3
 70
    64
  3
------  ------  ------  ------  
 72
    65
 73
     2
 40
5.0
 49
3.75
 49
-1.25
  0
LTYPE
  2
CENTER1
 70
    64
  3
----- - ----- - ----- - ----- - 
 72
    65
 73
     4
 40
10.0
 49
6.25
 49
-1.25
 49
1.25
 49
-1.25
  0
LTYPE
  2
CENTER2
 70
    64
  3
----------  --  ----------  --  
 72
    65
 73
     4
 40
20.0
 49
12.5
 49
-2.5
 49
2.5
 49
-2.5
  0
LTYPE
  2
PHANTOM1
 70
    64
  3
--- - - --- - - --- - - --- - - 
 72
    65
 73
     6
 40
10.0
 49
3.25
 49
-1.25
 49
1.25
 49
-1.25
 49
1.25
 49
-1.25
  0
LTYPE
  2
PHANTOM2
 70
    64
  3
--------  -  -  --------  -  -  
 72
    65
 73
     6
 40
20.0
 49
10.0
 49
-2.5
 49
1.25
 49
-2.5
 49
1.25
 49
-2.5
  0
LTYPE
  2
DOT
 70
    64
  3
-   -   -   -   -   -   -   -   
 72
    65
 73
     2
 40
2.5
 49
0.625
 49
-1.875
  0
LTYPE
  2
DUMMY
 70
    64
  3
ダミー
 72
    65
 73
     0
 40
0.0
  0
LTYPE
  2
RAND1
 70
    64
  3
ランダム線1
 72
    65
 73
     4
 40
10.0
 49
1.0
 49
-2.0
 49
3.0
 49
-4.0
  0
LTYPE
  2
RAND2
 70
    64
  3
ランダム線2
 72
    65
 73
     4
 40
14.0
 49
2.0
 49
-3.0
 49
4.0
 49
-5.0
  0
LTYPE
  2
RAND3
 70
    64
  3
ランダム線3
 72
    65
 73
     4
 40
18.0
 49
3.0
 49
-4.0
 49
5.0
 49
-6.0
  0
LTYPE
  2
RAND4
 70
    64
  3
ランダム線4
 72
    65
 73
     4
 40
22.0
 49
4.0
 49
-5.0
 49
6.0
 49
-7.0
  0
LTYPE
  2
RAND5
 70
    64
  3
ランダム線5
 72
    65
 73
     4
 40
26.0
 49
5.0
 49
-6.0
 49
7.0
 49
-8.0
  0
LTYPE
  2
LONG1
 70
    64
  3
----------  --  ----------  --  
 72
    65
 73
     4
 40
40.0
 49
32.5
 49
-2.5
 49
2.5
 49
-2.5
  0
LTYPE
  2
LONG2
 70
    64
  3
--------  -  -  --------  -  -  
 72
    65
 73
     6
 40
40.0
 49
30.0
 49
-2.5
 49
1.25
 49
-2.5
 49
1.25
 49
-2.5
  0
LTYPE
  2
LONG3
 70
    64
  3
+++++++++++++++..+++++++++++++++
 72
    65
 73
     2
 40
40.0
 49
37.5
 49
-2.5
  0
LTYPE
  2
LONG4
 70
    64
  3
+++++++++++++++..+++++++++++++++
 72
    65
 73
     2
 40
80.0
 49
75.0
 49
-5.0
  0
LTYPE
  2
LONG5
 70
    64
  3
----------  --  ----------  --  
 72
    65
 73
     4
 40
60.0
 49
37.5
 49
-7.5
 49
7.5
 49
-7.5
  0
LTYPE
  2
dashed
 70
   64
  3
-------   -------------   ------
 72
   65
 73
    2
 40
7.5
 49
6
 49
-1.5
  0
LTYPE
  2
dashed_spaced
 70
   64
  3
----        --------        ----
 72
   65
 73
    2
 40
12
 49
6
 49
-6
  0
LTYPE
  2
long_dashed_dotted
 70
   64
  3
------------- --- --------------
 72
   65
 73
    4
 40
15.25
 49
12
 49
-1.5
 49
0.25
 49
-1.5
  0
LTYPE
  2
long_dashed_double-dotted
 70
   64
  3
----------- --- --- ------------
 72
   65
 73
    6
 40
17
 49
12
 49
-1.5
 49
0.25
 49
-1.5
 49
0.25
 49
-1.5
  0
LTYPE
  2
long_dashed_triplicate-dotted
 70
   64
  3
--------- --- --- --- ----------
 72
   65
 73
    8
 40
18.75
 49
12
 49
-1.5
 49
0.25
 49
-1.5
 49
0.25
 49
-1.5
 49
0.25
 49
-1.5
  0
LTYPE
  2
dotted
 70
   64
  3
   -       -       -       -    
 72
   65
 73
    2
 40
1.75
 49
0.25
 49
-1.5
  0
LTYPE
  2
chain
 70
   64
  3
-------------- -- --------------
 72
   65
 73
    4
 40
18.5
 49
12
 49
-1.5
 49
3.5
 49
-1.5
  0
LTYPE
  2
chain_double_dash
 70
   64
  3
------------ -- -- -------------
 72
   65
 73
    6
 40
23.5
 49
12
 49
-1.5
 49
3.5
 49
-1.5
 49
3.5
 49
-1.5
  0
LTYPE
  2
dashed_dotted
 70
   64
  3
-----------     -     ----------
 72
   65
 73
    4
 40
9.25
 49
6
 49
-1.5
 49
0.25
 49
-1.5
  0
LTYPE
  2
double-dashed_dotted
 70
   64
  3
------   -----------   -   -----
 72
   65
 73
    6
 40
16.75
 49
6
 49
-1.5
 49
6
 49
-1.5
 49
0.25
 49
-1.5
  0
LTYPE
  2
dashed_double-dotted
 70
   64
  3
---------    -    -    ---------
 72
   65
 73
    6
 40
11
 49
6
 49
-1.5
 49
0.25
 49
-1.5
 49
0.25
 49
-1.5
  0
LTYPE
  2
double-dashed_double-dotted
 70
   64
  3
-----   ---------   -   -   ----
 72
   65
 73
    8
 40
18.5
 49
6
 49
-1.5
 49
6
 49
-1.5
 49
0.25
 49
-1.5
 49
0.25
 49
-1.5
  0
LTYPE
  2
dashed_triplicate-dotted
 70
   64
  3
-------    -    -    -    ------
 72
   65
 73
    8
 40
12.75
 49
6
 49
-1.5
 49
0.25
 49
-1.5
 49
0.25
 49
-1.5
 49
0.25
 49
-1.5
  0
LTYPE
  2
double-dashed_triplicate-dotted
 70
   64
  3
-----  ---------  -  -  -  -----
 72
   65
 73
   10
 40
20.25
 49
6
 49
-1.5
 49
6
 49
-1.5
 49
0.25
 49
-1.5
 49
0.25
 49
-1.5
 49
0.25
 49
-1.5
  0
LTYPE
  2
undefined
 70
   64
  3
--------------------------------
 72
   65
 73
    0
 40
0
  0
LTYPE
  2
AIGENLINE001
 70
   64
  3
----        --------        ----
 72
   65
 73
    2
 40
4.5800000000000001
 49
2.29
 49
-2.29
  0
LTYPE
  2
AIGENLINE002
 70
   64
  3
------     -----------     -----
 72
   65
 73
    2
 40
6.8700000000000001
 49
4.5800000000000001
 49
-2.29
  0
ENDTAB
  0
TABLE
  2
STYLE
  5
3
100
AcDbSymbolTable
 70
     1
  0
STYLE
  5
10
100
AcDbSymbolTableRecord
100
AcDbTextStyleTableRecord
  2
STANDARD
 70
     0
 40
0.0
 41
1.0
 50
0.0
 71
     0
 42
0.2
  3
txt
  4
bigfont.shx
  0
STYLE
  5
26
100
AcDbSymbolTableRecord
100
AcDbTextStyleTableRecord
  2
TATEGAKI
 70
    68
 40
0.0
 41
1.0
 50
0.0
 71
     0
 42
1.0
  3
txt
  4
bigfont.shx
  0
ENDTAB
  0
TABLE
  2
LAYER
 70
    4
  0
LAYER
  2
_0-0_文字
 70
   64
 62
    7
  6
CONTINUOUS
  0
LAYER
  2
_0-1_レイヤ___3
 70
   64
 62
    7
  6
CONTINUOUS
  0
LAYER
  2
_0-2_決定
 70
   64
 62
    7
  6
CONTINUOUS
  0
LAYER
  2
ADD_LINE
 70
   64
 62
    7
  6
CONTINUOUS
  0
ENDTAB
  0
ENDSEC
  0
SECTION
  2
BLOCKS
  0
ENDSEC
  0
SECTION
  2
ENTITIES
  0
ARC
  8
_0-1_レイヤ___3
  6
CONTINUOUS
 62
    7
 10
-7457.1225270732621
 20
10245.265671888299
 40
100.75331131322194
 50
212.54457606520913
 51
215.40440375223901
  0
ARC
  8
_0-1_レイヤ___3
  6
CONTINUOUS
 62
    7
 10
-7368.9514147695209
 20
10307.718363524889
 40
208.80176608438552
 50
215.35576722286694
 51
221.36723647424384
  0
ARC
  8
_0-1_レイヤ___3
  6
CONTINUOUS
 62
    7
 10
-7295.4624294196119
 20
10370.285434729602
 40
305.30820552446175
 50
221.06477429997616
 51
231.22765018658944
  0
ARC
  8
_0-1_レイヤ___3
  6
CONTINUOUS
 62
    7
 10
-7258.362933726452
 20
10413.75814627555
 40
362.43800051855288
 50
230.95883511048854
 51
251.35346403312775
  0
ARC
  8
_0-1_レイヤ___3
  6
CONTINUOUS
 62
    7
 10
-7236.372632740311
 20
10469.15351598549
 40
421.96811857702386
 50
250.92920805381576
 51
264.01576111916944
  0
ARC
  8
_0-1_レイヤ___3
  6
CONTINUOUS
 62
    7
 10
-7225.624236278828
 20
10543.900922169672
 40
497.43720610569824
 50
263.68207230856342
 51
270.12317171358148
  0
ARC
  8
_0-1_レイヤ___3
  6
CONTINUOUS
 62
    7
 10
-6992.0793464044109
 20
10245.524901377814
 40
100.97057184263099
 50
324.50269853745323
 51
327.35954730735853
  0
ARC
  8
_0-1_レイヤ___3
  6
CONTINUOUS
 62
    7
 10
-7080.3419905560786
 20
10307.947173220191
 40
209.07582118488784
 50
318.61534655888227
 51
324.62063211809948
  0
ARC
  8
_0-1_レイヤ___3
  6
CONTINUOUS
 62
    7
 10
-7153.8774882642865
 20
10370.555279866292
 40
305.64394410371006
 50
308.76992808749981
 51
318.92296844706647
  0
ARC
  8
_0-1_レイヤ___3
  6
CONTINUOUS
 62
    7
 10
-7190.9073149430596
 20
10414.013847156648
 40
362.71881065871321
 50
288.65165821912348
 51
309.03173518611686
  0
ARC
  8
_0-1_レイヤ___3
  6
CONTINUOUS
 62
    7
 10
-7212.7783179116759
 20
10469.116770693032
 40
421.93378546990601
 50
275.98762352174964
 51
289.07257752973072
  0
ARC
  8
_0-1_レイヤ___3
  6
CONTINUOUS
 62
    7
 10
-7223.4878580387031
 20
10543.581941679005
 40
497.11822129585721
 50
269.87702048518202
 51
276.31995190691799
  0
ARC
  8
_0-1_レイヤ___3
  6
CONTINUOUS
 62
    7
 10
-5185.0304285955899
 20
10245.524901377814
 40
100.97057184263099
 50
212.64045269264147
 51
215.49730146254677
  0
ARC
  8
_0-1_レイヤ___3
  6
CONTINUOUS
 62
    7
 10
-5096.767783943922
 20
10307.947182752343
 40
209.07582711155425
 50
215.37936993240487
 51
221.38465549162211
  0
ARC
  8
_0-1_レイヤ___3
  6
CONTINUOUS
 62
    7
 10
-5023.232286235715
 20
10370.555274237853
 40
305.6439400285019
 50
221.07703081915608
 51
231.23007117872271
  0
ARC
  8
_0-1_レイヤ___3
  6
CONTINUOUS
 62
    7
 10
-4986.2024600569393
 20
10414.01384715665
 40
362.71881065871611
 50
230.96826481388334
 51
251.34834178087678
  0
ARC
  8
_0-1_レイヤ___3
  6
CONTINUOUS
 62
    7
 10
-4964.331457088324
 20
10469.116770693026
 40
421.93378546990107
 50
250.92742247026916
 51
264.01237647825019
  0
ARC
  8
_0-1_レイヤ___3
  6
CONTINUOUS
 62
    7
 10
-4953.6219169612968
 20
10543.581941679005
 40
497.11822129585721
 50
263.68004809308201
 51
270.12297951481798
  0
ARC
  8
_0-1_レイヤ___3
  6
CONTINUOUS
 62
    7
 10
-4719.9458454184714
 20
10245.502223718258
 40
100.93010227782503
 50
324.50212566871829
 51
327.36012017609352
  0
ARC
  8
_0-1_レイヤ___3
  6
CONTINUOUS
 62
    7
 10
-4808.1795151263923
 20
10307.897670728831
 40
208.99619450303933
 50
318.61419937969004
 51
324.6217751962829
  0
ARC
  8
_0-1_レイヤ___3
  6
CONTINUOUS
 62
    7
 10
-4881.720450069015
 20
10370.546924357084
 40
305.59543296261558
 50
308.76110452106741
 51
318.91711841601511
  0
ARC
  8
_0-1_レイヤ___3
  6
CONTINUOUS
 62
    7
 10
-4918.8186128357247
 20
10414.07234736759
 40
362.76505117262622
 50
288.64440299195792
 51
309.02607158712721
  0
ARC
  8
_0-1_レイヤ___3
  6
CONTINUOUS
 62
    7
 10
-4940.7607794280339
 20
10469.392114969156
 40
422.20788163462777
 50
275.98405340598731
 51
289.06580929539717
  0
ARC
  8
_0-1_レイヤ___3
  6
CONTINUOUS
 62
    7
 10
-4951.4884073483645
 20
10543.953934779165
 40
497.49021243480115
 50
269.87717178965931
 51
276.31758418819595
  0
ARC
  8
_0-1_レイヤ___3
  6
CONTINUOUS
 62
    7
 10
-5820.122552073216
 20
10136.864055111702
 40
100.75331131325974
 50
144.59559624777546
 51
147.45542393480537
  0
ARC
  8
_0-1_レイヤ___3
  6
CONTINUOUS
 62
    7
 10
-5731.9514397695193
 20
10074.411363475112
 40
208.80176608438552
 50
138.63276352575616
 51
144.64423277713306
  0
ARC
  8
_0-1_レイヤ___3
  6
CONTINUOUS
 62
    7
 10
-5658.4624539196111
 20
10011.84428664744
 40
305.30820959523527
 50
128.77234907943739
 51
138.93522496605067
  0
ARC
  8
_0-1_レイヤ___3
  6
CONTINUOUS
 62
    7
 10
-5621.3629577264519
 20
9968.3715807244553
 40
362.43800051855004
 50
108.64653596687252
 51
129.04116488951172
  0
ARC
  8
_0-1_レイヤ___3
  6
CONTINUOUS
 62
    7
 10
-5599.37265674031
 20
9912.9762110145002
 40
421.96811857703369
 50
95.984238880830276
 51
109.07079194618395
  0
ARC
  8
_0-1_レイヤ___3
  6
CONTINUOUS
 62
    7
 10
-5588.6242602788279
 20
9838.228804830349
 40
497.437206105678
 50
89.876828286418629
 51
96.317927691436736
  0
ARC
  8
_0-1_レイヤ___3
  6
CONTINUOUS
 62
    7
 10
-5354.9872379267836
 20
10136.864055111679
 40
100.75331131327245
 50
32.544576065205391
 51
35.404403752235282
  0
ARC
  8
_0-1_レイヤ___3
  6
CONTINUOUS
 62
    7
 10
-5443.1583502304802
 20
10074.411363475123
 40
208.80176608437881
 50
35.3557672228646
 51
41.367236474241516
  0
ARC
  8
_0-1_レイヤ___3
  6
CONTINUOUS
 62
    7
 10
-5516.6473355803882
 20
10011.8442922704
 40
305.30820552446175
 50
41.064774299976172
 51
51.227650186589457
  0
ARC
  8
_0-1_レイヤ___3
  6
CONTINUOUS
 62
    7
 10
-5553.7468312735482
 20
9968.3715807244516
 40
362.43800051855288
 50
50.958835110488543
 51
71.35346403312775
  0
ARC
  8
_0-1_レイヤ___3
  6
CONTINUOUS
 62
    7
 10
-5575.737132259691
 20
9912.9762110145057
 40
421.96811857702875
 50
70.929208053815913
 51
84.015761119169582
  0
ARC
  8
_0-1_レイヤ___3
  6
CONTINUOUS
 62
    7
 10
-5586.4855287211731
 20
9838.2288048303399
 40
497.43720610568812
 50
83.682072308563349
 51
90.123171713581442
  0
ARC
  8
_0-1_レイヤ___3
  6
CONTINUOUS
 62
    7
 10
-2913.022595073262
 20
10245.265671888321
 40
100.75331131323469
 50
212.54457606521987
 51
215.40440375224975
  0
ARC
  8
_0-1_レイヤ___3
  6
CONTINUOUS
 62
    7
 10
-2824.851482769519
 20
10307.718363524882
 40
208.80176608438217
 50
215.35576722286575
 51
221.36723647424267
  0
ARC
  8
_0-1_レイヤ___3
  6
CONTINUOUS
 62
    7
 10
-2751.3624974196114
 20
10370.285434729598
 40
305.30820552445948
 50
221.06477429997577
 51
231.22765018658905
  0
ARC
  8
_0-1_レイヤ___3
  6
CONTINUOUS
 62
    7
 10
-2714.2630012264522
 20
10413.758149055178
 40
362.43800299241127
 50
230.95883532587561
 51
251.3534642485148
  0
ARC
  8
_0-1_レイヤ___3
  6
CONTINUOUS
 62
    7
 10
-2692.2727002403099
 20
10469.153511626333
 40
421.96811429374725
 50
250.92920792458665
 51
264.0157609899403
  0
ARC
  8
_0-1_レイヤ___3
  6
CONTINUOUS
 62
    7
 10
-2681.5243042788275
 20
10543.900922169658
 40
497.43720610568312
 50
263.68207230856331
 51
270.12317171358143
  0
ARC
  8
_0-1_レイヤ___3
  6
CONTINUOUS
 62
    7
 10
-2447.8872809267382
 20
10245.26567188831
 40
100.75331131322829
 50
324.59559624775562
 51
327.45542393478553
  0
ARC
  8
_0-1_レイヤ___3
  6
CONTINUOUS
 62
    7
 10
-2536.0583932304803
 20
10307.718363524889
 40
208.80176608438552
 50
318.63276352575616
 51
324.64423277713308
  0
ARC
  8
_0-1_レイヤ___3
  6
CONTINUOUS
 62
    7
 10
-2609.5473785803892
 20
10370.285434729598
 40
305.30820552445948
 50
308.77234981341098
 51
318.93522570002426
  0
ARC
  8
_0-1_レイヤ___3
  6
CONTINUOUS
 62
    7
 10
-2646.646874773548
 20
10413.758149055178
 40
362.43800299241127
 50
288.6465357514852
 51
309.04116467412439
  0
ARC
  8
_0-1_レイヤ___3
  6
CONTINUOUS
 62
    7
 10
-2668.6371757596903
 20
10469.153511626329
 40
421.96811429374492
 50
275.98423901005975
 51
289.07079207541341
  0
ARC
  8
_0-1_レイヤ___3
  6
CONTINUOUS
 62
    7
 10
-2679.3855722211724
 20
10543.900931055636
 40
497.43721499271589
 50
269.87682823102801
 51
276.31792763604608
  0
ARC
  8
_0-1_レイヤ___3
  6
CONTINUOUS
 62
    7
 10
-3548.0304525955444
 20
10136.604825622173
 40
100.97057184267514
 50
144.50269853746238
 51
147.35954730736768
  0
ARC
  8
_0-1_レイヤ___3
  6
CONTINUOUS
 62
    7
 10
-3459.7678084439217
 20
10074.182553779816
 40
209.07582118488446
 50
138.6153465588834
 51
144.62063211810062
  0
ARC
  8
_0-1_レイヤ___3
  6
CONTINUOUS
 62
    7
 10
-3386.2323107357138
 20
10011.574447133704
 40
305.6439441037146
 50
128.76992808749898
 51
138.92296844706561
  0
ARC
  8
_0-1_レイヤ___3
  6
CONTINUOUS
 62
    7
 10
-3349.2024840569402
 20
9968.1158798433553
 40
362.71881065871321
 50
108.65165821912348
 51
129.03173518611692
  0
ARC
  8
_0-1_レイヤ___3
  6
CONTINUOUS
 62
    7
 10
-3327.3314810883239
 20
9913.0129563069768
 40
421.93378546990107
 50
95.987623521749811
 51
109.07257752973085
  0
ARC
  8
_0-1_レイヤ___3
  6
CONTINUOUS
 62
    7
 10
-3316.6219409612968
 20
9838.547785320985
 40
497.11822129586727
 50
89.877020485181959
 51
96.319951906917922
  0
ARC
  8
_0-1_レイヤ___3
  6
CONTINUOUS
 62
    7
 10
-3082.9458704185172
 20
10136.627503281728
 40
100.93010227786918
 50
32.639879823897374
 51
35.497874331272577
  0
ARC
  8
_0-1_レイヤ___3
  6
CONTINUOUS
 62
    7
 10
-3171.1795401263917
 20
10074.232056271177
 40
208.99619450303595
 50
35.378224803715909
 51
41.385800620308785
  0
ARC
  8
_0-1_レイヤ___3
  6
CONTINUOUS
 62
    7
 10
-3244.7204745690146
 20
10011.582808269704
 40
305.59542888809187
 50
41.082880850402226
 51
51.23889474534996
  0
ARC
  8
_0-1_レイヤ___3
  6
CONTINUOUS
 62
    7
 10
-3281.8186368357237
 20
9968.0573796324115
 40
362.76505117262764
 50
50.973928412872894
 51
71.355597008042196
  0
ARC
  8
_0-1_レイヤ___3
  6
CONTINUOUS
 62
    7
 10
-3303.7608034280352
 20
9912.73761203084
 40
422.20788163463277
 50
70.934190704602969
 51
84.015946594012817
  0
ARC
  8
_0-1_レイヤ___3
  6
CONTINUOUS
 62
    7
 10
-3314.4884313483644
 20
9838.1757922208526
 40
497.49021243478586
 50
83.682415811803978
 51
90.1228282103406
  0
ARC
  8
_0-1_レイヤ___3
  6
CONTINUOUS
 62
    7
 10
-6834.9576104027974
 20
10144.758611797955
 40
85.687131946339932
 50
144.22233369227075
 51
147.28839169837414
  0
ARC
  8
_0-1_レイヤ___3
  6
CONTINUOUS
 62
    7
 10
-6772.3665018165402
 20
10100.105046321711
 40
162.57352260626021
 50
139.79746805851795
 51
144.35142471935831
  0
ARC
  8
_0-1_レイヤ___3
  6
CONTINUOUS
 62
    7
 10
-6716.1446876625705
 20
10053.353651080004
 40
235.69226502681684
 50
128.64561282955955
 51
139.93931535075046
  0
ARC
  8
_0-1_レイヤ___3
  6
CONTINUOUS
 62
    7
 10
-6684.3717736842755
 20
10016.65063554152
 40
284.20673230090733
 50
110.99190648966825
 51
129.02750531113131
  0
ARC
  8
_0-1_レイヤ___3
  6
CONTINUOUS
 62
    7
 10
-6666.7549979676569
 20
9975.7474653034878
 40
328.71106488204566
 50
95.239897903240603
 51
111.30471079897622
  0
ARC
  8
_0-1_レイヤ___3
  6
CONTINUOUS
 62
    7
 10
-6657.2413299848804
 20
9909.5217699453515
 40
395.54368721071808
 50
89.900565237320635
 51
95.736139417888069
  0
ARC
  8
_0-1_レイヤ___3
  6
CONTINUOUS
 62
    7
 10
-6478.1521475972031
 20
10144.758611797977
 40
85.68713194632798
 50
32.711608301614113
 51
35.777666307717489
  0
ARC
  8
_0-1_レイヤ___3
  6
CONTINUOUS
 62
    7
 10
-6540.7432561834594
 20
10100.105046321711
 40
162.57352260626021
 50
35.648575280641708
 51
40.202531941482064
  0
ARC
  8
_0-1_レイヤ___3
  6
CONTINUOUS
 62
    7
 10
-6596.9650698374298
 20
10053.353656136811
 40
235.69226138958246
 50
40.060683786625717
 51
51.354386307816618
  0
ARC
  8
_0-1_レイヤ___3
  6
CONTINUOUS
 62
    7
 10
-6628.7379833157238
 20
10016.650635541526
 40
284.20673230090097
 50
50.972494688867947
 51
69.008093510331008
  0
ARC
  8
_0-1_レイヤ___3
  6
CONTINUOUS
 62
    7
 10
-6646.3547595323425
 20
9975.7474617603402
 40
328.71106836472558
 50
68.695289344213663
 51
84.760102239949276
  0
ARC
  8
_0-1_レイヤ___3
  6
CONTINUOUS
 62
    7
 10
-6655.8684275151199
 20
9909.5217797552341
 40
395.54367739998446
 50
84.263860512151453
 51
90.099434692718887
  0
ARC
  8
_0-1_レイヤ___3
  6
CONTINUOUS
 62
    7
 10
-6333.9576174028389
 20
10237.371115202044
 40
85.687131946304817
 50
212.71160830164183
 51
215.77766630774522
  0
ARC
  8
_0-1_レイヤ___3
  6
CONTINUOUS
 62
    7
 10
-6271.3665088165408
 20
10282.024680678278
 40
162.57352260625143
 50
215.64857528063774
 51
220.20253194147807
  0
ARC
  8
_0-1_レイヤ___3
  6
CONTINUOUS
 62
    7
 10
-6215.1446951625703
 20
10328.77607086319
 40
235.69226138958246
 50
220.0606837866257
 51
231.35438630781661
  0
ARC
  8
_0-1_レイヤ___3
  6
CONTINUOUS
 62
    7
 10
-6183.3717816842764
 20
10365.479091458477
 40
284.20673230090415
 50
230.9724946888683
 51
249.00809351033138
  0
ARC
  8
_0-1_レイヤ___3
  6
CONTINUOUS
 62
    7
 10
-6165.7550054676576
 20
10406.382265239659
 40
328.71106836472171
 50
248.69528934421351
 51
264.76010223994911
  0
ARC
  8
_0-1_レイヤ___3
  6
CONTINUOUS
 62
    7
 10
-6156.2413374848802
 20
10472.607947244769
 40
395.54367739998446
 50
264.26386051215144
 51
270.09943469271889
  0
ARC
  8
_0-1_レイヤ___3
  6
CONTINUOUS
 62
    7
 10
-5977.1521550971602
 20
10237.371096519395
 40
85.687121429300191
 50
324.22234402269203
 51
327.28840202879542
  0
ARC
  8
_0-1_レイヤ___3
  6
CONTINUOUS
 62
    7
 10
-6039.743263183459
 20
10282.024680678278
 40
162.57352260625143
 50
319.79746805852193
 51
324.35142471936229
  0
ARC
  8
_0-1_レイヤ___3
  6
CONTINUOUS
 62
    7
 10
-6095.9650773374287
 20
10328.776075920003
 40
235.69226502682088
 50
308.64561282955856
 51
319.9393153507495
  0
ARC
  8
_0-1_レイヤ___3
  6
CONTINUOUS
 62
    7
 10
-6127.7379913157238
 20
10365.479091458477
 40
284.20673230090415
 50
290.99190648966862
 51
309.02750531113168
  0
ARC
  8
_0-1_レイヤ___3
  6
CONTINUOUS
 62
    7
 10
-6145.3547670323424
 20
10406.382261696517
 40
328.71106488204964
 50
275.23989790324043
 51
291.30471079897609
  0
ARC
  8
_0-1_レイヤ___3
  6
CONTINUOUS
 62
    7
 10
-6154.8684350151198
 20
10472.60795705465
 40
395.54368721071808
 50
269.90056523732062
 51
275.73613941788807
  0
ARC
  8
_0-1_レイヤ___3
  6
CONTINUOUS
 62
    7
 10
-4562.8576439027975
 20
10144.758630480626
 40
85.687121429323383
 50
144.22234402271977
 51
147.28840202882316
  0
ARC
  8
_0-1_レイヤ___3
  6
CONTINUOUS
 62
    7
 10
-4500.2665358165405
 20
10100.105046321711
 40
162.57352260626021
 50
139.79746805851795
 51
144.35142471935831
  0
ARC
  8
_0-1_レイヤ___3
  6
CONTINUOUS
 62
    7
 10
-4444.0447216625707
 20
10053.353651079999
 40
235.69226502682088
 50
128.64561282955856
 51
139.93931535074947
  0
ARC
  8
_0-1_レイヤ___3
  6
CONTINUOUS
 62
    7
 10
-4412.2718076842757
 20
10016.650635541522
 40
284.20673230090415
 50
110.99190648966862
 51
129.0275053111317
  0
ARC
  8
_0-1_レイヤ___3
  6
CONTINUOUS
 62
    7
 10
-4394.6550319676571
 20
9975.747465303486
 40
328.71106488204964
 50
95.239897903240447
 51
111.30471079897607
  0
ARC
  8
_0-1_レイヤ___3
  6
CONTINUOUS
 62
    7
 10
-4385.1413639848806
 20
9909.5217699453642
 40
395.54368721070705
 50
89.90056523732072
 51
95.73613941788814
  0
ARC
  8
_0-1_レイヤ___3
  6
CONTINUOUS
 62
    7
 10
-4206.1892611875182
 20
10144.733370282671
 40
85.731971558135825
 50
32.712410299046745
 51
35.776864310284864
  0
ARC
  8
_0-1_レイヤ___3
  6
CONTINUOUS
 62
    7
 10
-4268.8078522340775
 20
10100.054739876003
 40
162.65530541513274
 50
35.649720744070684
 51
40.201386478045109
  0
ARC
  8
_0-1_レイヤ___3
  6
CONTINUOUS
 62
    7
 10
-4325.0235368896301
 20
10053.33922448892
 40
235.74627358302268
 50
40.05422816298821
 51
51.343586766425858
  0
ARC
  8
_0-1_レイヤ___3
  6
CONTINUOUS
 62
    7
 10
-4357.5478157618109
 20
10015.621078401622
 40
285.52275923749096
 50
50.974792361685537
 51
70.765150450440316
  0
ARC
  8
_0-1_レイヤ___3
  6
CONTINUOUS
 62
    7
 10
-4375.8269770371544
 20
9970.1725065434257
 40
334.4639357459223
 50
70.373519651520297
 51
85.910519893971738
  0
ARC
  8
_0-1_レイヤ___3
  6
CONTINUOUS
 62
    7
 10
-4383.9992004674614
 20
9903.8985793447791
 40
401.16654099226736
 50
85.421325868018101
 51
90.065086140256781
  0
ARC
  8
_0-1_レイヤ___3
  6
CONTINUOUS
 62
    7
 10
-4061.8622254001116
 20
10237.436075383321
 40
85.802528749285102
 50
212.71367058105758
 51
215.7756040283295
  0
ARC
  8
_0-1_レイヤ___3
  6
CONTINUOUS
 62
    7
 10
-3999.1870760191214
 20
10282.286544738772
 40
162.87201205520844
 50
215.68663731110288
 51
220.23440846731762
  0
ARC
  8
_0-1_レイヤ___3
  6
CONTINUOUS
 62
    7
 10
-3942.9175568337532
 20
10329.089688295313
 40
236.06034213028335
 50
220.0850184249372
 51
231.36454602664637
  0
ARC
  8
_0-1_レイヤ___3
  6
CONTINUOUS
 62
    7
 10
-3910.3895361090076
 20
10366.825234270487
 40
285.8521394627619
 50
230.99411895665307
 51
250.76855345956992
  0
ARC
  8
_0-1_レイヤ___3
  6
CONTINUOUS
 62
    7
 10
-3892.1624755039556
 20
10412.175246068236
 40
334.68285969358692
 50
250.37954526170159
 51
265.90970154733179
  0
ARC
  8
_0-1_レイヤ___3
  6
CONTINUOUS
 62
    7
 10
-3884.0090733106636
 20
10478.2707129091
 40
401.2061044525978
 50
265.42155495706544
 51
270.06485705120957
  0
ARC
  8
_0-1_レイヤ___3
  6
CONTINUOUS
 62
    7
 10
-3705.1521885971601
 20
10237.371115202024
 40
85.687131946292851
 50
324.22233369226649
 51
327.28839169836988
  0
ARC
  8
_0-1_レイヤ___3
  6
CONTINUOUS
 62
    7
 10
-3767.7432971834596
 20
10282.024680678292
 40
162.57352260626021
 50
319.79746805851795
 51
324.35142471935831
  0
ARC
  8
_0-1_レイヤ___3
  6
CONTINUOUS
 62
    7
 10
-3823.9651113374293
 20
10328.776075920003
 40
235.69226502682088
 50
308.64561282955856
 51
319.9393153507495
  0
ARC
  8
_0-1_レイヤ___3
  6
CONTINUOUS
 62
    7
 10
-3855.7380253157235
 20
10365.479091458477
 40
284.20673230090415
 50
290.99190648966862
 51
309.02750531113168
  0
ARC
  8
_0-1_レイヤ___3
  6
CONTINUOUS
 62
    7
 10
-3873.354801032342
 20
10406.382261696512
 40
328.71106488204566
 50
275.2398979032406
 51
291.3047107989762
  0
ARC
  8
_0-1_レイヤ___3
  6
CONTINUOUS
 62
    7
 10
-3882.8684690151194
 20
10472.60795705465
 40
395.54368721071808
 50
269.90056523732062
 51
275.73613941788807
  0
ARC
  8
_0-1_レイヤ___3
  6
CONTINUOUS
 62
    7
 10
-2290.8576774027965
 20
10144.758611797966
 40
85.687131946333949
 50
144.22233369227664
 51
147.28839169838002
  0
ARC
  8
_0-1_レイヤ___3
  6
CONTINUOUS
 62
    7
 10
-2228.2665688165407
 20
10100.105046321725
 40
162.57352260625143
 50
139.79746805852193
 51
144.35142471936226
  0
ARC
  8
_0-1_レイヤ___3
  6
CONTINUOUS
 62
    7
 10
-2172.0447551625703
 20
10053.353656136807
 40
235.69226138958453
 50
128.64561369218288
 51
139.93931621337379
  0
ARC
  8
_0-1_レイヤ___3
  6
CONTINUOUS
 62
    7
 10
-2140.2718416842758
 20
10016.650635541526
 40
284.20673230090256
 50
110.99190648966881
 51
129.02750531113188
  0
ARC
  8
_0-1_レイヤ___3
  6
CONTINUOUS
 62
    7
 10
-2122.6550654676571
 20
9975.747461760342
 40
328.71106836472364
 50
95.239897760050809
 51
111.30471065578642
  0
ARC
  8
_0-1_レイヤ___3
  6
CONTINUOUS
 62
    7
 10
-2113.1413974848801
 20
9909.5217797552341
 40
395.54367739998446
 50
89.900565307281127
 51
95.736139487848547
  0
ARC
  8
_0-1_レイヤ___3
  6
CONTINUOUS
 62
    7
 10
-1934.0522155972035
 20
10144.758611797955
 40
85.687131946339932
 50
32.711608301625859
 51
35.777666307729241
  0
ARC
  8
_0-1_レイヤ___3
  6
CONTINUOUS
 62
    7
 10
-1996.6433241834598
 20
10100.105046321725
 40
162.57352260625143
 50
35.648575280637729
 51
40.202531941478085
  0
ARC
  8
_0-1_レイヤ___3
  6
CONTINUOUS
 62
    7
 10
-2052.8651378374298
 20
10053.353656136811
 40
235.69226138958246
 50
40.060683786625717
 51
51.354386307816618
  0
ARC
  8
_0-1_レイヤ___3
  6
CONTINUOUS
 62
    7
 10
-2084.6380513157237
 20
10016.650635541526
 40
284.20673230090256
 50
50.972494688868125
 51
69.008093510331193
  0
ARC
  8
_0-1_レイヤ___3
  6
CONTINUOUS
 62
    7
 10
-2102.2548275323425
 20
9975.747461760342
 40
328.71106836472364
 50
68.695289344213577
 51
84.760102239949205
  0
ARC
  8
_0-1_レイヤ___3
  6
CONTINUOUS
 62
    7
 10
-2111.7684955151199
 20
9909.5217797552286
 40
395.54367739998997
 50
84.263860512151496
 51
90.09943469271893
  0
ARC
  8
_0-1_レイヤ___3
  6
CONTINUOUS
 62
    7
 10
-1789.8576854028386
 20
10237.371115202044
 40
85.687131946304817
 50
212.71160830164183
 51
215.77766630774522
  0
ARC
  8
_0-1_レイヤ___3
  6
CONTINUOUS
 62
    7
 10
-1727.2665768165405
 20
10282.024680678269
 40
162.57352260624702
 50
215.64857528063575
 51
220.20253194147608
  0
ARC
  8
_0-1_レイヤ___3
  6
CONTINUOUS
 62
    7
 10
-1671.0447626625705
 20
10328.776075920005
 40
235.69226502682301
 50
220.06068464925102
 51
231.35438717044192
  0
ARC
  8
_0-1_レイヤ___3
  6
CONTINUOUS
 62
    7
 10
-1639.2718491842761
 20
10365.479088307937
 40
284.20672953857877
 50
230.9724943672266
 51
249.00809318868966
  0
ARC
  8
_0-1_レイヤ___3
  6
CONTINUOUS
 62
    7
 10
-1621.6550734676571
 20
10406.382265239659
 40
328.71106836472364
 50
248.69528934421356
 51
264.76010223994922
  0
ARC
  8
_0-1_レイヤ___3
  6
CONTINUOUS
 62
    7
 10
-1612.1414054848799
 20
10472.607947244769
 40
395.54367739998446
 50
264.26386051215144
 51
270.09943469271889
  0
ARC
  8
_0-1_レイヤ___3
  6
CONTINUOUS
 62
    7
 10
-1433.0522225971606
 20
10237.371115202033
 40
85.68713194629882
 50
324.22233369226063
 51
327.28839169836402
  0
ARC
  8
_0-1_レイヤ___3
  6
CONTINUOUS
 62
    7
 10
-1495.6433311834594
 20
10282.024680678278
 40
162.57352260625143
 50
319.79746805852193
 51
324.35142471936229
  0
ARC
  8
_0-1_レイヤ___3
  6
CONTINUOUS
 62
    7
 10
-1551.8651453374298
 20
10328.77607592001
 40
235.69226502682505
 50
308.64561282955759
 51
319.93931535074847
  0
ARC
  8
_0-1_レイヤ___3
  6
CONTINUOUS
 62
    7
 10
-1583.6380588157244
 20
10365.479088307933
 40
284.20672953857724
 50
290.99190681131051
 51
309.02750563277357
  0
ARC
  8
_0-1_レイヤ___3
  6
CONTINUOUS
 62
    7
 10
-1601.2548345323426
 20
10406.382265239659
 40
328.71106836472171
 50
275.23989776005089
 51
291.30471065578649
  0
ARC
  8
_0-1_レイヤ___3
  6
CONTINUOUS
 62
    7
 10
-1610.7685030151197
 20
10472.60795705465
 40
395.54368721071808
 50
269.90056523732062
 51
275.73613941788807
  0
ARC
  8
_0-1_レイヤ___3
  6
CONTINUOUS
 62
    7
 10
-640.93049659558972
 20
10245.524901377827
 40
100.9705718426374
 50
212.64045269264682
 51
215.49730146255212
  0
ARC
  8
_0-1_レイヤ___3
  6
CONTINUOUS
 62
    7
 10
-552.66785194392128
 20
10307.947182752345
 40
209.0758271115559
 50
215.37936993240547
 51
221.38465549162268
  0
ARC
  8
_0-1_レイヤ___3
  6
CONTINUOUS
 62
    7
 10
-479.13235423571393
 20
10370.555274237853
 40
305.6439400285019
 50
221.07703081915608
 51
231.23007117872271
  0
ARC
  8
_0-1_レイヤ___3
  6
CONTINUOUS
 62
    7
 10
-442.10252755693944
 20
10414.013849938307
 40
362.7188131343749
 50
230.96826502924114
 51
251.34834199623455
  0
ARC
  8
_0-1_レイヤ___3
  6
CONTINUOUS
 62
    7
 10
-420.23152458832328
 20
10469.11676633332
 40
421.93378118613771
 50
250.92742234098728
 51
264.01237634896836
  0
ARC
  8
_0-1_レイヤ___3
  6
CONTINUOUS
 62
    7
 10
-409.52198446129643
 20
10543.581950562448
 40
497.11823018035136
 50
263.68004814851218
 51
270.12297957024816
  0
ARC
  8
_0-1_レイヤ___3
  6
CONTINUOUS
 62
    7
 10
-175.84591341847215
 20
10245.502223718271
 40
100.93010227783145
 50
324.50212566871295
 51
327.36012017608812
  0
ARC
  8
_0-1_レイヤ___3
  6
CONTINUOUS
 62
    7
 10
-264.07958312639153
 20
10307.897670728826
 40
208.9961945030376
 50
318.6141993796906
 51
324.62177519628352
  0
ARC
  8
_0-1_レイヤ___3
  6
CONTINUOUS
 62
    7
 10
-337.62051756901485
 20
10370.546918730302
 40
305.59542888809415
 50
308.76110525464964
 51
318.91711914959734
  0
ARC
  8
_0-1_レイヤ___3
  6
CONTINUOUS
 62
    7
 10
-374.71868033572463
 20
10414.072350149027
 40
362.76505364824902
 50
288.6444027766882
 51
309.02607137185748
  0
ARC
  8
_0-1_レイヤ___3
  6
CONTINUOUS
 62
    7
 10
-396.6608469280348
 20
10469.392110608376
 40
422.20787734973584
 50
275.98405353516426
 51
289.06580942457413
  0
ARC
  8
_0-1_レイヤ___3
  6
CONTINUOUS
 62
    7
 10
-407.38847434836458
 20
10543.953934779156
 40
497.49021243479353
 50
269.87717178965937
 51
276.31758418819595
  0
ARC
  8
_0-1_レイヤ___3
  6
CONTINUOUS
 62
    7
 10
-1276.0226190732164
 20
10136.86405511169
 40
100.7533113132661
 50
144.59559624777009
 51
147.4554239348
  0
ARC
  8
_0-1_レイヤ___3
  6
CONTINUOUS
 62
    7
 10
-1187.8515067695196
 20
10074.411363475117
 40
208.80176608438217
 50
138.63276352575733
 51
144.64423277713425
  0
ARC
  8
_0-1_レイヤ___3
  6
CONTINUOUS
 62
    7
 10
-1114.3625214196113
 20
10011.8442922704
 40
305.30820552446175
 50
128.77234981341056
 51
138.93522570002384
  0
ARC
  8
_0-1_レイヤ___3
  6
CONTINUOUS
 62
    7
 10
-1077.2630257264518
 20
9968.3715807244535
 40
362.43800051855146
 50
108.64653596687239
 51
129.04116488951158
  0
ARC
  8
_0-1_レイヤ___3
  6
CONTINUOUS
 62
    7
 10
-1055.2727247403093
 20
9912.976211014502
 40
421.96811857703125
 50
95.984238880830361
 51
109.07079194618402
  0
ARC
  8
_0-1_レイヤ___3
  6
CONTINUOUS
 62
    7
 10
-1044.5243282788269
 20
9838.2288048303435
 40
497.43720610568312
 50
89.876828286418601
 51
96.317927691436694
  0
ARC
  8
_0-1_レイヤ___3
  6
CONTINUOUS
 62
    7
 10
-810.8873059267836
 20
10136.864055111695
 40
100.75331131326293
 50
32.544576065197333
 51
35.404403752227225
  0
ARC
  8
_0-1_レイヤ___3
  6
CONTINUOUS
 62
    7
 10
-899.05841773048019
 20
10074.411372997445
 40
208.80176016648454
 50
35.355765171199238
 51
41.367234422576153
  0
ARC
  8
_0-1_レイヤ___3
  6
CONTINUOUS
 62
    7
 10
-972.5474030803889
 20
10011.84428664744
 40
305.30820959523527
 50
41.064775033949324
 51
51.22765092056261
  0
ARC
  8
_0-1_レイヤ___3
  6
CONTINUOUS
 62
    7
 10
-1009.6468992735483
 20
9968.3715807244535
 40
362.43800051855209
 50
50.958835110488486
 51
71.353464033127693
  0
ARC
  8
_0-1_レイヤ___3
  6
CONTINUOUS
 62
    7
 10
-1031.6372002596906
 20
9912.9762110145039
 40
421.96811857702994
 50
70.929208053815955
 51
84.015761119169611
  0
ARC
  8
_0-1_レイヤ___3
  6
CONTINUOUS
 62
    7
 10
-1042.385596721173
 20
9838.2288048303435
 40
497.43720610568312
 50
83.682072308563306
 51
90.123171713581399
  0
ARC
  8
_0-1_レイヤ___3
  6
CONTINUOUS
 62
    7
 10
-18.757711402796531
 20
10144.758611797961
 40
85.687131946336947
 50
144.22233369227371
 51
147.2883916983771
  0
ARC
  8
_0-1_レイヤ___3
  6
CONTINUOUS
 62
    7
 10
43.83339718345951
 20
10100.105046321722
 40
162.57352260625362
 50
139.79746805852093
 51
144.35142471936129
  0
ARC
  8
_0-1_レイヤ___3
  6
CONTINUOUS
 62
    7
 10
100.05521083742991
 20
10053.353656136809
 40
235.69226138958345
 50
128.64561369218313
 51
139.93931621337404
  0
ARC
  8
_0-1_レイヤ___3
  6
CONTINUOUS
 62
    7
 10
131.82812431572415
 20
10016.650635541526
 40
284.20673230090256
 50
110.99190648966881
 51
129.02750531113188
  0
ARC
  8
_0-1_レイヤ___3
  6
CONTINUOUS
 62
    7
 10
149.4449005323429
 20
9975.7474617603439
 40
328.71106836472256
 50
95.239897760050852
 51
111.30471065578647
  0
ARC
  8
_0-1_レイヤ___3
  6
CONTINUOUS
 62
    7
 10
158.95856851511979
 20
9909.5217797552305
 40
395.54367739998719
 50
89.900565307281099
 51
95.736139487848533
  0
ARC
  8
_0-1_レイヤ___3
  6
CONTINUOUS
 62
    7
 10
337.95232440006856
 20
10144.693651616688
 40
85.802528749315769
 50
32.713670581037185
 51
35.77560402830909
  0
ARC
  8
_0-1_レイヤ___3
  6
CONTINUOUS
 62
    7
 10
275.27717551912218
 20
10099.843194853276
 40
162.87200430350629
 50
35.686633815836018
 51
40.234404972050754
  0
ARC
  8
_0-1_レイヤ___3
  6
CONTINUOUS
 62
    7
 10
219.00765633375315
 20
10053.040033641475
 40
236.0603457731514
 50
40.085019287030654
 51
51.364546888739845
  0
ARC
  8
_0-1_レイヤ___3
  6
CONTINUOUS
 62
    7
 10
186.47963510900809
 20
10015.304492729518
 40
285.85213946276093
 50
50.994118956652962
 51
70.768553459569802
  0
ARC
  8
_0-1_レイヤ___3
  6
CONTINUOUS
 62
    7
 10
168.25257500395566
 20
9969.954484598471
 40
334.68285607188528
 50
70.379545131548312
 51
85.909701417178496
  0
ARC
  8
_0-1_レイヤ___3
  6
CONTINUOUS
 62
    7
 10
160.0991728106635
 20
9903.859001758221
 40
401.20611678583725
 50
85.421555026476128
 51
90.064857120620218
  0
ARC
  8
_0-1_レイヤ___3
  6
CONTINUOUS
 62
    7
 10
482.27936018747573
 20
10237.396356717345
 40
85.731971558109663
 50
212.71241029907154
 51
215.77686431030966
  0
ARC
  8
_0-1_レイヤ___3
  6
CONTINUOUS
 62
    7
 10
544.89795123407805
 20
10282.074987124
 40
162.65530541513496
 50
215.64972074407166
 51
220.20138647804609
  0
ARC
  8
_0-1_レイヤ___3
  6
CONTINUOUS
 62
    7
 10
601.11363638963041
 20
10328.790507569851
 40
235.74627722112217
 50
220.05422902587941
 51
231.34358762931706
  0
ARC
  8
_0-1_レイヤ___3
  6
CONTINUOUS
 62
    7
 10
633.63791526181126
 20
10366.508645732083
 40
285.52275669592325
 50
230.9747920774642
 51
250.76515016621897
  0
ARC
  8
_0-1_レイヤ___3
  6
CONTINUOUS
 62
    7
 10
651.91707603715417
 20
10411.957220456574
 40
334.46393574591974
 50
250.37351965152021
 51
265.91051989397164
  0
ARC
  8
_0-1_レイヤ___3
  6
CONTINUOUS
 62
    7
 10
660.08929996746156
 20
10478.231159986703
 40
401.16655332430651
 50
265.42132593742883
 51
270.06508620966753
  0
ARC
  8
_0-1_レイヤ___3
  6
CONTINUOUS
 62
    7
 10
838.94774340283914
 20
10237.371115202037
 40
85.687131946301065
 50
324.22233369225842
 51
327.28839169836181
  0
ARC
  8
_0-1_レイヤ___3
  6
CONTINUOUS
 62
    7
 10
776.3566348165408
 20
10282.024680678278
 40
162.57352260625197
 50
319.79746805852164
 51
324.351424719362
  0
ARC
  8
_0-1_レイヤ___3
  6
CONTINUOUS
 62
    7
 10
720.13482116257035
 20
10328.77607086319
 40
235.69226138958373
 50
308.64561369218308
 51
319.93931621337396
  0
ARC
  8
_0-1_レイヤ___3
  6
CONTINUOUS
 62
    7
 10
688.36190768427605
 20
10365.479091458476
 40
284.20673230090233
 50
290.99190648966885
 51
309.0275053111319
  0
ARC
  8
_0-1_レイヤ___3
  6
CONTINUOUS
 62
    7
 10
670.7451314676573
 20
10406.382265239659
 40
328.71106836472325
 50
275.23989776005084
 51
291.30471065578644
  0
ARC
  8
_0-1_レイヤ___3
  6
CONTINUOUS
 62
    7
 10
661.23146348488046
 20
10472.607947244771
 40
395.54367739998719
 50
269.90056530728111
 51
275.7361394878485
  0
ARC
  8
_0-1_レイヤ___3
  6
CONTINUOUS
 62
    7
 10
1631.0773369267383
 20
10245.265671888308
 40
100.75331131322702
 50
212.54457606521339
 51
215.4044037522433
  0
ARC
  8
_0-1_レイヤ___3
  6
CONTINUOUS
 62
    7
 10
1719.2484492304802
 20
10307.718363524884
 40
208.80176608438285
 50
215.35576722286598
 51
221.3672364742429
  0
ARC
  8
_0-1_レイヤ___3
  6
CONTINUOUS
 62
    7
 10
1792.7374350803889
 20
10370.285440352563
 40
305.30820959523629
 50
221.06477503394947
 51
231.22765092056275
  0
ARC
  8
_0-1_レイヤ___3
  6
CONTINUOUS
 62
    7
 10
1829.8369312735485
 20
10413.75814627555
 40
362.43800051855175
 50
230.95883511048842
 51
251.35346403312764
  0
ARC
  8
_0-1_レイヤ___3
  6
CONTINUOUS
 62
    7
 10
1851.8272322596908
 20
10469.153515985499
 40
421.96811857703062
 50
250.92920805381596
 51
264.01576111916961
  0
ARC
  8
_0-1_レイヤ___3
  6
CONTINUOUS
 62
    7
 10
1862.5756287211732
 20
10543.90092216966
 40
497.43720610568437
 50
263.68207230856331
 51
270.12317171358143
  0
ARC
  8
_0-1_レイヤ___3
  6
CONTINUOUS
 62
    7
 10
2096.2126510732619
 20
10245.26567188831
 40
100.75331131322829
 50
324.59559624775562
 51
327.45542393478553
  0
ARC
  8
_0-1_レイヤ___3
  6
CONTINUOUS
 62
    7
 10
2008.0415387695198
 20
10307.718363524888
 40
208.8017660843839
 50
318.63276352575673
 51
324.64423277713365
  0
ARC
  8
_0-1_レイヤ___3
  6
CONTINUOUS
 62
    7
 10
1934.5525534196111
 20
10370.285434729602
 40
305.30820552446175
 50
308.77234981341053
 51
318.93522570002381
  0
ARC
  8
_0-1_レイヤ___3
  6
CONTINUOUS
 62
    7
 10
1897.4530572264518
 20
10413.758149055178
 40
362.43800299241167
 50
288.64653575148515
 51
309.04116467412439
  0
ARC
  8
_0-1_レイヤ___3
  6
CONTINUOUS
 62
    7
 10
1875.4627562403095
 20
10469.153511626333
 40
421.96811429374577
 50
275.9842390100597
 51
289.07079207541335
  0
ARC
  8
_0-1_レイヤ___3
  6
CONTINUOUS
 62
    7
 10
1864.7143602788269
 20
10543.900922169654
 40
497.43720610568181
 50
269.87682828641857
 51
276.31792769143669
  0
ARC
  8
_0-1_レイヤ___3
  6
CONTINUOUS
 62
    7
 10
996.0359454185176
 20
10136.627503281727
 40
100.93010227787077
 50
144.50212566872608
 51
147.3601201761013
  0
ARC
  8
_0-1_レイヤ___3
  6
CONTINUOUS
 62
    7
 10
1084.269615126392
 20
10074.232056271174
 40
208.99619450303848
 50
138.61419937969035
 51
144.62177519628324
  0
ARC
  8
_0-1_レイヤ___3
  6
CONTINUOUS
 62
    7
 10
1157.8105495690149
 20
10011.582808269703
 40
305.59542888809329
 50
128.76110525464975
 51
138.91711914959751
  0
ARC
  8
_0-1_レイヤ___3
  6
CONTINUOUS
 62
    7
 10
1194.9087118357247
 20
9968.0573796324115
 40
362.76505117262718
 50
108.64440299195788
 51
129.02607158712718
  0
ARC
  8
_0-1_レイヤ___3
  6
CONTINUOUS
 62
    7
 10
1216.8508784280348
 20
9912.7376120308472
 40
422.20788163462692
 50
95.984053405987382
 51
109.06580929539723
  0
ARC
  8
_0-1_レイヤ___3
  6
CONTINUOUS
 62
    7
 10
1227.5785063483647
 20
9838.1757922208417
 40
497.49021243479706
 50
89.877171789659343
 51
96.317584188195951
  0
ARC
  8
_0-1_レイヤ___3
  6
CONTINUOUS
 62
    7
 10
1461.1205275955444
 20
10136.604825622167
 40
100.97057184267894
 50
32.640452692635513
 51
35.497301462540811
  0
ARC
  8
_0-1_レイヤ___3
  6
CONTINUOUS
 62
    7
 10
1372.8578834439213
 20
10074.182553779814
 40
209.07582118488511
 50
35.379367881899604
 51
41.384653441116832
  0
ARC
  8
_0-1_レイヤ___3
  6
CONTINUOUS
 62
    7
 10
1299.3223857357139
 20
10011.574447133708
 40
305.64394410371193
 50
41.077031552933882
 51
51.230071912500513
  0
ARC
  8
_0-1_レイヤ___3
  6
CONTINUOUS
 62
    7
 10
1262.2925590569398
 20
9968.1158798433516
 40
362.71881065871497
 50
50.968264813883259
 51
71.34834178087668
  0
ARC
  8
_0-1_レイヤ___3
  6
CONTINUOUS
 62
    7
 10
1240.4215560883235
 20
9913.0129563069768
 40
421.93378546990107
 50
70.92742247026915
 51
84.012376478250204
  0
ARC
  8
_0-1_レイヤ___3
  6
CONTINUOUS
 62
    7
 10
1229.7120159612969
 20
9838.5477853209923
 40
497.11822129585903
 50
83.680048093082036
 51
90.122979514817999
  0
ARC
  8
_0-1_レイヤ___3
  6
CONTINUOUS
 62
    7
 10
2253.2422545972036
 20
10144.758611797966
 40
85.687131946333949
 50
144.22233369227664
 51
147.28839169838002
  0
ARC
  8
_0-1_レイヤ___3
  6
CONTINUOUS
 62
    7
 10
2315.8333631834594
 20
10100.105046321722
 40
162.57352260625362
 50
139.79746805852093
 51
144.35142471936129
  0
ARC
  8
_0-1_レイヤ___3
  6
CONTINUOUS
 62
    7
 10
2372.0551768374298
 20
10053.353656136809
 40
235.69226138958345
 50
128.64561369218313
 51
139.93931621337404
  0
ARC
  8
_0-1_レイヤ___3
  6
CONTINUOUS
 62
    7
 10
2403.8280903157242
 20
10016.650635541526
 40
284.20673230090256
 50
110.99190648966881
 51
129.02750531113188
  0
ARC
  8
_0-1_レイヤ___3
  6
CONTINUOUS
 62
    7
 10
2421.444866532343
 20
9975.747461760342
 40
328.71106836472364
 50
95.239897760050809
 51
111.30471065578642
  0
ARC
  8
_0-1_レイヤ___3
  6
CONTINUOUS
 62
    7
 10
2430.9585345151199
 20
9909.5217797552323
 40
395.54367739998577
 50
89.900565307281113
 51
95.736139487848533
  0
ARC
  8
_0-1_レイヤ___3
  6
CONTINUOUS
 62
    7
 10
2610.0477174027969
 20
10144.758611797966
 40
85.687131946333949
 50
32.711608301619982
 51
35.777666307723365
  0
ARC
  8
_0-1_レイヤ___3
  6
CONTINUOUS
 62
    7
 10
2547.4566088165411
 20
10100.105046321722
 40
162.57352260625362
 50
35.648575280638724
 51
40.202531941479087
  0
ARC
  8
_0-1_レイヤ___3
  6
CONTINUOUS
 62
    7
 10
2491.2347946625705
 20
10053.353651079997
 40
235.69226502682244
 50
40.060684649250895
 51
51.354387170441797
  0
ARC
  8
_0-1_レイヤ___3
  6
CONTINUOUS
 62
    7
 10
2459.4618806842759
 20
10016.650635541524
 40
284.20673230090301
 50
50.972494688868174
 51
69.00809351033125
  0
ARC
  8
_0-1_レイヤ___3
  6
CONTINUOUS
 62
    7
 10
2441.8451049676569
 20
9975.7474653034842
 40
328.71106488205066
 50
68.695289201023982
 51
84.760102096759596
  0
ARC
  8
_0-1_レイヤ___3
  6
CONTINUOUS
 62
    7
 10
2432.3314369848804
 20
9909.5217699453588
 40
395.5436872107112
 50
84.263860582111889
 51
90.099434762679323
  0
ARC
  8
_0-1_レイヤ___3
  6
CONTINUOUS
 62
    7
 10
2754.242247097161
 20
10237.371096519384
 40
85.687121429294223
 50
212.7115979711987
 51
215.77765597730209
  0
ARC
  8
_0-1_レイヤ___3
  6
CONTINUOUS
 62
    7
 10
2816.8333551834594
 20
10282.024680678278
 40
162.57352260625251
 50
215.64857528063823
 51
220.20253194147855
  0
ARC
  8
_0-1_レイヤ___3
  6
CONTINUOUS
 62
    7
 10
2873.05516933743
 20
10328.776075920005
 40
235.69226502682244
 50
220.06068464925087
 51
231.35438717044178
  0
ARC
  8
_0-1_レイヤ___3
  6
CONTINUOUS
 62
    7
 10
2904.8280833157241
 20
10365.479091458477
 40
284.20673230090335
 50
230.97249468886821
 51
249.00809351033129
  0
ARC
  8
_0-1_レイヤ___3
  6
CONTINUOUS
 62
    7
 10
2922.4448590323432
 20
10406.382261696517
 40
328.71106488204964
 50
248.69528920102391
 51
264.76010209675957
  0
ARC
  8
_0-1_レイヤ___3
  6
CONTINUOUS
 62
    7
 10
2931.9585270151197
 20
10472.607957054643
 40
395.54368721071256
 50
264.26386058211187
 51
270.09943476267932
  0
ARC
  8
_0-1_レイヤ___3
  6
CONTINUOUS
 62
    7
 10
3111.0477094028392
 20
10237.371115202039
 40
85.687131946301804
 50
324.22233369225773
 51
327.28839169836107
  0
ARC
  8
_0-1_レイヤ___3
  6
CONTINUOUS
 62
    7
 10
3048.4566008165402
 20
10282.024680678278
 40
162.57352260625143
 50
319.79746805852193
 51
324.35142471936229
  0
ARC
  8
_0-1_レイヤ___3
  6
CONTINUOUS
 62
    7
 10
2992.2347871625702
 20
10328.77607086319
 40
235.69226138958345
 50
308.64561369218313
 51
319.93931621337401
  0
ARC
  8
_0-1_レイヤ___3
  6
CONTINUOUS
 62
    7
 10
2960.4618736842758
 20
10365.479091458477
 40
284.20673230090335
 50
290.99190648966874
 51
309.02750531113179
  0
ARC
  8
_0-1_レイヤ___3
  6
CONTINUOUS
 62
    7
 10
2942.8450974676571
 20
10406.382265239659
 40
328.71106836472256
 50
275.23989776005084
 51
291.30471065578644
  0
ARC
  8
_0-1_レイヤ___3
  6
CONTINUOUS
 62
    7
 10
2933.3314294848797
 20
10472.607947244771
 40
395.54367739998719
 50
269.90056530728111
 51
275.7361394878485
  0
ARC
  8
_0-1_レイヤ___3
  6
CONTINUOUS
 62
    7
 10
3903.1359024184721
 20
10245.502223718282
 40
100.9301022778378
 50
212.6398798239172
 51
215.49787433129242
  0
ARC
  8
_0-1_レイヤ___3
  6
CONTINUOUS
 62
    7
 10
3991.3695716263919
 20
10307.897661200306
 40
208.99618857862353
 50
215.37822275321037
 51
221.38579856980323
  0
ARC
  8
_0-1_レイヤ___3
  6
CONTINUOUS
 62
    7
 10
4064.9105060690144
 20
10370.546924357084
 40
305.59543296261558
 50
221.08288158398486
 51
231.23889547893262
  0
ARC
  8
_0-1_レイヤ___3
  6
CONTINUOUS
 62
    7
 10
4102.0086688357251
 20
10414.07234736759
 40
362.76505117262622
 50
230.97392841287277
 51
251.35559700804205
  0
ARC
  8
_0-1_レイヤ___3
  6
CONTINUOUS
 62
    7
 10
4123.9508354280351
 20
10469.392114969156
 40
422.20788163462777
 50
250.93419070460283
 51
264.01594659401269
  0
ARC
  8
_0-1_レイヤ___3
  6
CONTINUOUS
 62
    7
 10
4134.6784633483649
 20
10543.953934779158
 40
497.49021243479604
 50
263.68241581180405
 51
270.12282821034069
  0
ARC
  8
_0-1_レイヤ___3
  6
CONTINUOUS
 62
    7
 10
4368.2204845955894
 20
10245.524901377848
 40
100.97057184265014
 50
324.50269853743714
 51
327.35954730734244
  0
ARC
  8
_0-1_レイヤ___3
  6
CONTINUOUS
 62
    7
 10
4279.9578399439215
 20
10307.947182752338
 40
209.07582711155086
 50
318.61534450837905
 51
324.62063006759627
  0
ARC
  8
_0-1_レイヤ___3
  6
CONTINUOUS
 62
    7
 10
4206.4223422357136
 20
10370.555274237853
 40
305.6439400285019
 50
308.76992882127729
 51
318.92296918084389
  0
ARC
  8
_0-1_レイヤ___3
  6
CONTINUOUS
 62
    7
 10
4169.3925160569397
 20
10414.01384715665
 40
362.71881065871611
 50
288.65165821912319
 51
309.03173518611663
  0
ARC
  8
_0-1_レイヤ___3
  6
CONTINUOUS
 62
    7
 10
4147.5215130883234
 20
10469.116770693026
 40
421.93378546990107
 50
275.98762352174981
 51
289.07257752973084
  0
ARC
  8
_0-1_レイヤ___3
  6
CONTINUOUS
 62
    7
 10
4136.8119729612963
 20
10543.581941679005
 40
497.11822129585721
 50
269.87702048518202
 51
276.31995190691799
  0
ARC
  8
_0-1_レイヤ___3
  6
CONTINUOUS
 62
    7
 10
3268.0773129267836
 20
10136.864055111695
 40
100.75331131326293
 50
144.59559624777279
 51
147.4554239348027
  0
ARC
  8
_0-1_レイヤ___3
  6
CONTINUOUS
 62
    7
 10
3356.2484252304803
 20
10074.411363475112
 40
208.80176608438552
 50
138.63276352575616
 51
144.64423277713306
  0
ARC
  8
_0-1_レイヤ___3
  6
CONTINUOUS
 62
    7
 10
3429.7374105803892
 20
10011.8442922704
 40
305.30820552446175
 50
128.77234981341056
 51
138.93522570002384
  0
ARC
  8
_0-1_レイヤ___3
  6
CONTINUOUS
 62
    7
 10
3466.8369067735489
 20
9968.371577944823
 40
362.43800299241201
 50
108.64653575148515
 51
129.04116467412436
  0
ARC
  8
_0-1_レイヤ___3
  6
CONTINUOUS
 62
    7
 10
3488.8272077596912
 20
9912.9762153736719
 40
421.96811429374492
 50
95.984239010059753
 51
109.07079207541342
  0
ARC
  8
_0-1_レイヤ___3
  6
CONTINUOUS
 62
    7
 10
3499.5756037211731
 20
9838.2288048303435
 40
497.43720610568312
 50
89.876828286418601
 51
96.317927691436694
  0
ARC
  8
_0-1_レイヤ___3
  6
CONTINUOUS
 62
    7
 10
3733.2126270732165
 20
10136.864055111695
 40
100.75331131326293
 50
32.544576065197333
 51
35.404403752227225
  0
ARC
  8
_0-1_レイヤ___3
  6
CONTINUOUS
 62
    7
 10
3645.0415147695194
 20
10074.411363475116
 40
208.8017660843839
 50
35.355767222866348
 51
41.367236474243263
  0
ARC
  8
_0-1_レイヤ___3
  6
CONTINUOUS
 62
    7
 10
3571.5525289196112
 20
10011.844286647438
 40
305.30820959523646
 50
41.064775033949537
 51
51.227650920562823
  0
ARC
  8
_0-1_レイヤ___3
  6
CONTINUOUS
 62
    7
 10
3534.4530327264515
 20
9968.3715807244535
 40
362.43800051855209
 50
50.958835110488486
 51
71.353464033127693
  0
ARC
  8
_0-1_レイヤ___3
  6
CONTINUOUS
 62
    7
 10
3512.4627317403092
 20
9912.9762110145057
 40
421.96811857702875
 50
70.929208053815913
 51
84.015761119169582
  0
ARC
  8
_0-1_レイヤ___3
  6
CONTINUOUS
 62
    7
 10
3501.7143352788275
 20
9838.2288048303417
 40
497.43720610568568
 50
83.682072308563335
 51
90.123171713581428
  0
ARC
  8
_0-1_レイヤ___3
  6
CONTINUOUS
 62
    7
 10
4525.3422205972038
 20
10144.758611797966
 40
85.687131946333949
 50
144.22233369227664
 51
147.28839169838002
  0
ARC
  8
_0-1_レイヤ___3
  6
CONTINUOUS
 62
    7
 10
4587.9333291834591
 20
10100.105046321731
 40
162.57352260624702
 50
139.79746805852392
 51
144.35142471936425
  0
ARC
  8
_0-1_レイヤ___3
  6
CONTINUOUS
 62
    7
 10
4644.1551428374296
 20
10053.353656136806
 40
235.69226138958658
 50
128.64561369218239
 51
139.9393162133733
  0
ARC
  8
_0-1_レイヤ___3
  6
CONTINUOUS
 62
    7
 10
4675.9280563157245
 20
10016.650635541526
 40
284.20673230090256
 50
110.99190648966881
 51
129.02750531113188
  0
ARC
  8
_0-1_レイヤ___3
  6
CONTINUOUS
 62
    7
 10
4693.5448325323432
 20
9975.7474617603439
 40
328.71106836472171
 50
95.23989776005088
 51
111.30471065578651
  0
ARC
  8
_0-1_レイヤ___3
  6
CONTINUOUS
 62
    7
 10
4703.0585005151197
 20
9909.5217797552341
 40
395.54367739998446
 50
89.900565307281127
 51
95.736139487848547
  0
ARC
  8
_0-1_レイヤ___3
  6
CONTINUOUS
 62
    7
 10
4882.0522574000679
 20
10144.69365161669
 40
85.802528749314291
 50
32.713670581035714
 51
35.775604028307619
  0
ARC
  8
_0-1_レイヤ___3
  6
CONTINUOUS
 62
    7
 10
4819.3771080191218
 20
10099.843182261238
 40
162.87201205520404
 50
35.686637311100895
 51
40.234408467315632
  0
ARC
  8
_0-1_レイヤ___3
  6
CONTINUOUS
 62
    7
 10
4763.1075883337526
 20
10053.040033641475
 40
236.0603457731514
 50
40.085019287030654
 51
51.364546888739845
  0
ARC
  8
_0-1_レイヤ___3
  6
CONTINUOUS
 62
    7
 10
4730.5795676090074
 20
10015.304495598168
 40
285.85213691888589
 50
50.994118672633938
 51
70.768553175550778
  0
ARC
  8
_0-1_レイヤ___3
  6
CONTINUOUS
 62
    7
 10
4712.3525075039561
 20
9969.9544809317631
 40
334.68285969358885
 50
70.379545261701679
 51
85.909701547331878
  0
ARC
  8
_0-1_レイヤ___3
  6
CONTINUOUS
 62
    7
 10
4704.1991048106629
 20
9903.8590017582137
 40
401.2061167858443
 50
85.42155502647617
 51
90.06485712062026
  0
ARC
  8
_0-1_レイヤ___3
  6
CONTINUOUS
 62
    7
 10
5026.3422135971605
 20
10237.371115202033
 40
85.68713194629882
 50
212.71160830163598
 51
215.77766630773934
  0
ARC
  8
_0-1_レイヤ___3
  6
CONTINUOUS
 62
    7
 10
5088.9333216834584
 20
10282.024668103368
 40
162.57351487113877
 50
215.6485717820467
 51
220.20252844288706
  0
ARC
  8
_0-1_レイヤ___3
  6
CONTINUOUS
 62
    7
 10
5145.1551353374289
 20
10328.776075920005
 40
235.69226502682301
 50
220.06068464925102
 51
231.35438717044192
  0
ARC
  8
_0-1_レイヤ___3
  6
CONTINUOUS
 62
    7
 10
5176.9280493157239
 20
10365.479091458476
 40
284.20673230090256
 50
230.97249468886812
 51
249.00809351033121
  0
ARC
  8
_0-1_レイヤ___3
  6
CONTINUOUS
 62
    7
 10
5194.5448255323436
 20
10406.382265239663
 40
328.71106836472558
 50
248.69528934421368
 51
264.76010223994928
  0
ARC
  8
_0-1_レイヤ___3
  6
CONTINUOUS
 62
    7
 10
5204.0584935151201
 20
10472.607947244769
 40
395.54367739998446
 50
264.26386051215144
 51
270.09943469271889
  0
ARC
  8
_0-1_レイヤ___3
  6
CONTINUOUS
 62
    7
 10
5383.010595812525
 20
10237.39635671735
 40
85.731971558112647
 50
324.22313568968741
 51
327.28758970092554
  0
ARC
  8
_0-1_レイヤ___3
  6
CONTINUOUS
 62
    7
 10
5320.3920047659221
 20
10282.074987124006
 40
162.65530541513715
 50
319.79861352195292
 51
324.35027925592732
  0
ARC
  8
_0-1_レイヤ___3
  6
CONTINUOUS
 62
    7
 10
5264.1763201103695
 20
10328.790502511083
 40
235.74627358302268
 50
308.65641323357414
 51
319.94577183701176
  0
ARC
  8
_0-1_レイヤ___3
  6
CONTINUOUS
 62
    7
 10
5231.6520412381888
 20
10366.508648598377
 40
285.52275923748948
 50
289.23484954955984
 51
309.02520763831461
  0
ARC
  8
_0-1_レイヤ___3
  6
CONTINUOUS
 62
    7
 10
5213.3728799628461
 20
10411.957220456572
 40
334.46393574591821
 50
274.08948010602842
 51
289.62648034847984
  0
ARC
  8
_0-1_レイヤ___3
  6
CONTINUOUS
 62
    7
 10
5205.2006565325382
 20
10478.231147655228
 40
401.16654099227435
 50
269.93491385974318
 51
274.57867413198187
  0
ARC
  8
_0-1_レイヤ___3
  6
CONTINUOUS
 62
    7
 10
6175.1772699267367
 20
10245.265671888299
 40
100.75331131322194
 50
212.54457606520913
 51
215.40440375223901
  0
ARC
  8
_0-1_レイヤ___3
  6
CONTINUOUS
 62
    7
 10
6263.3483817304796
 20
10307.718354002554
 40
208.80176016648289
 50
215.35576517119864
 51
221.36723442257554
  0
ARC
  8
_0-1_レイヤ___3
  6
CONTINUOUS
 62
    7
 10
6336.8373670803885
 20
10370.285440352563
 40
305.30820959523527
 50
221.06477503394933
 51
231.22765092056261
  0
ARC
  8
_0-1_レイヤ___3
  6
CONTINUOUS
 62
    7
 10
6373.9368632735477
 20
10413.758146275548
 40
362.43800051855146
 50
230.95883511048842
 51
251.35346403312761
  0
ARC
  8
_0-1_レイヤ___3
  6
CONTINUOUS
 62
    7
 10
6395.9271642596905
 20
10469.153515985501
 40
421.96811857703369
 50
250.92920805381607
 51
264.01576111916972
  0
ARC
  8
_0-1_レイヤ___3
  6
CONTINUOUS
 62
    7
 10
6406.6755607211735
 20
10543.900922169661
 40
497.43720610568812
 50
263.68207230856331
 51
270.12317171358143
  0
ARC
  8
_0-1_レイヤ___3
  6
CONTINUOUS
 62
    7
 10
6640.3125830732624
 20
10245.265671888299
 40
100.75331131322194
 50
324.59559624776097
 51
327.45542393479087
  0
ARC
  8
_0-1_レイヤ___3
  6
CONTINUOUS
 62
    7
 10
6552.1414712695196
 20
10307.718354002558
 40
208.80176016648622
 50
318.63276557742324
 51
324.64423482880017
  0
ARC
  8
_0-1_レイヤ___3
  6
CONTINUOUS
 62
    7
 10
6478.6524859196106
 20
10370.285440352563
 40
305.30820959523527
 50
308.77234907943739
 51
318.93522496605067
  0
ARC
  8
_0-1_レイヤ___3
  6
CONTINUOUS
 62
    7
 10
6441.5529897264514
 20
10413.758146275548
 40
362.43800051855146
 50
288.64653596687236
 51
309.04116488951161
  0
ARC
  8
_0-1_レイヤ___3
  6
CONTINUOUS
 62
    7
 10
6419.5626887403087
 20
10469.153515985501
 40
421.96811857703369
 50
275.98423888083028
 51
289.07079194618393
  0
ARC
  8
_0-1_レイヤ___3
  6
CONTINUOUS
 62
    7
 10
6408.8142922788284
 20
10543.900922169647
 40
497.43720610567294
 50
269.87682828641869
 51
276.31792769143675
  0
ARC
  8
_0-1_レイヤ___3
  6
CONTINUOUS
 62
    7
 10
5540.1358774185173
 20
10136.627503281741
 40
100.93010227786282
 50
144.50212566873279
 51
147.36012017610801
  0
ARC
  8
_0-1_レイヤ___3
  6
CONTINUOUS
 62
    7
 10
5628.3695471263927
 20
10074.232056271167
 40
208.99619450304266
 50
138.6141993796889
 51
144.62177519628176
  0
ARC
  8
_0-1_レイヤ___3
  6
CONTINUOUS
 62
    7
 10
5701.9104815690162
 20
10011.582808269701
 40
305.59542888809415
 50
128.76110525464961
 51
138.91711914959737
  0
ARC
  8
_0-1_レイヤ___3
  6
CONTINUOUS
 62
    7
 10
5739.008644335725
 20
9968.0573768509767
 40
362.76505364824754
 50
108.64440277668834
 51
129.02607137185763
  0
ARC
  8
_0-1_レイヤ___3
  6
CONTINUOUS
 62
    7
 10
5760.9508109280341
 20
9912.7376163916269
 40
422.2078773497347
 50
95.984053535164293
 51
109.06580942457414
  0
ARC
  8
_0-1_レイヤ___3
  6
CONTINUOUS
 62
    7
 10
5771.6784383483646
 20
9838.1757922208435
 40
497.49021243479604
 50
89.877171789659343
 51
96.317584188195951
  0
ARC
  8
_0-1_レイヤ___3
  6
CONTINUOUS
 62
    7
 10
6005.2204605955449
 20
10136.604825622162
 40
100.97057184268152
 50
32.640452692637687
 51
35.497301462542985
  0
ARC
  8
_0-1_レイヤ___3
  6
CONTINUOUS
 62
    7
 10
5916.9578159439207
 20
10074.182544247664
 40
209.07582711155086
 50
35.379369932403733
 51
41.384655491620954
  0
ARC
  8
_0-1_レイヤ___3
  6
CONTINUOUS
 62
    7
 10
5843.4223182357146
 20
10011.574452762146
 40
305.6439400285019
 50
41.077030819156093
 51
51.230071178722717
  0
ARC
  8
_0-1_レイヤ___3
  6
CONTINUOUS
 62
    7
 10
5806.3924915569396
 20
9968.115877061693
 40
362.71881313437632
 50
50.968265029241259
 51
71.34834199623468
  0
ARC
  8
_0-1_レイヤ___3
  6
CONTINUOUS
 62
    7
 10
5784.5214885883233
 20
9913.0129606666815
 40
421.93378118613651
 50
70.927422340987263
 51
84.012376348968317
  0
ARC
  8
_0-1_レイヤ___3
  6
CONTINUOUS
 62
    7
 10
5773.8119484612971
 20
9838.5477764375537
 40
497.11823018035136
 50
83.680048148512199
 51
90.122979570248162
  0
ARC
  8
_0-1_レイヤ___3
  6
CONTINUOUS
 62
    7
 10
6797.3421865972032
 20
10144.758611797955
 40
85.687131946339932
 50
144.22233369227075
 51
147.28839169837414
  0
ARC
  8
_0-1_レイヤ___3
  6
CONTINUOUS
 62
    7
 10
6859.9332951834594
 20
10100.105046321725
 40
162.57352260625143
 50
139.79746805852193
 51
144.35142471936226
  0
ARC
  8
_0-1_レイヤ___3
  6
CONTINUOUS
 62
    7
 10
6916.1551093374292
 20
10053.353651079999
 40
235.69226502682088
 50
128.64561282955856
 51
139.93931535074947
  0
ARC
  8
_0-1_レイヤ___3
  6
CONTINUOUS
 62
    7
 10
6947.9280228157231
 20
10016.650638692066
 40
284.20672953857724
 50
110.99190681131051
 51
129.0275056327736
  0
ARC
  8
_0-1_レイヤ___3
  6
CONTINUOUS
 62
    7
 10
6965.5447985323426
 20
9975.7474617603402
 40
328.71106836472558
 50
95.239897760050724
 51
111.30471065578634
  0
ARC
  8
_0-1_レイヤ___3
  6
CONTINUOUS
 62
    7
 10
6975.0584670151202
 20
9909.5217699453515
 40
395.54368721071808
 50
89.900565237320635
 51
95.736139417888069
  0
ARC
  8
_0-1_レイヤ___3
  6
CONTINUOUS
 62
    7
 10
7154.1476494027975
 20
10144.758611797955
 40
85.687131946339932
 50
32.711608301625859
 51
35.777666307729241
  0
ARC
  8
_0-1_レイヤ___3
  6
CONTINUOUS
 62
    7
 10
7091.5565408165412
 20
10100.105046321725
 40
162.57352260625143
 50
35.648575280637729
 51
40.202531941478085
  0
ARC
  8
_0-1_レイヤ___3
  6
CONTINUOUS
 62
    7
 10
7035.3347266625697
 20
10053.353651079993
 40
235.69226502682505
 50
40.060684649251506
 51
51.354387170442408
  0
ARC
  8
_0-1_レイヤ___3
  6
CONTINUOUS
 62
    7
 10
7003.5618131842766
 20
10016.650638692066
 40
284.20672953857724
 50
50.972494367226417
 51
69.008093188689486
  0
ARC
  8
_0-1_レイヤ___3
  6
CONTINUOUS
 62
    7
 10
6985.945037467658
 20
9975.7474617603439
 40
328.71106836472171
 50
68.695289344213506
 51
84.760102239949134
  0
ARC
  8
_0-1_レイヤ___3
  6
CONTINUOUS
 62
    7
 10
6976.4313694848806
 20
9909.5217797552341
 40
395.54367739998446
 50
84.263860512151453
 51
90.099434692718887
  0
LINE
  8
_0-1_レイヤ___3
  6
CONTINUOUS
 62
    7
 10
874.50710660307232
 20
1541.6222651908822
 11
874.50710660307232
 21
759.4222771908818
  0
LINE
  8
_0-1_レイヤ___3
  6
CONTINUOUS
 62
    7
 10
874.50710660307232
 20
759.4222771908818
 11
979.90710460307218
 21
820.42227519088215
  0
ARC
  8
_0-1_レイヤ___3
  6
CONTINUOUS
 62
    7
 10
1197.7847126020683
 20
901.73049947197512
 40
232.55468045840036
 50
191.99430442039991
 51
200.46472047960737
  0
ARC
  8
_0-1_レイヤ___3
  6
CONTINUOUS
 62
    7
 10
1094.9968514773732
 20
878.44454169762798
 40
127.17958990094414
 50
180.71284654904122
 51
191.35601584365071
  0
ARC
  8
_0-1_レイヤ___3
  6
CONTINUOUS
 62
    7
 10
1053.2554131097843
 20
876.84581293031306
 40
85.428310092872906
 50
157.19151625009701
 51
179.98895895217083
  0
ARC
  8
_0-1_レイヤ___3
  6
CONTINUOUS
 62
    7
 10
900.66237050034624
 20
944.15537072884604
 40
81.376977930927012
 50
335.15395709666518
 51
345.44331908447396
  0
ARC
  8
_0-1_レイヤ___3
  6
CONTINUOUS
 62
    7
 10
950.65788827756114
 20
931.20889824559868
 40
29.73242720828798
 50
345.3761200186666
 51
20.50176823500156
  0
ARC
  8
_0-1_レイヤ___3
  6
CONTINUOUS
 62
    7
 10
1246.0387750573816
 20
1039.233484021408
 40
284.78262442760564
 50
181.86561638027999
 51
200.04492888354707
  0
ARC
  8
_0-1_レイヤ___3
  6
CONTINUOUS
 62
    7
 10
1192.8633625818034
 20
1034.8212260464627
 40
231.50725427158835
 50
165.30659095274481
 51
181.20263158018449
  0
ARC
  8
_0-1_レイヤ___3
  6
CONTINUOUS
 62
    7
 10
1135.7584645450547
 20
1048.125803150604
 40
172.90274211054333
 50
158.2121515634158
 51
164.77141435012246
  0
ARC
  8
_0-1_レイヤ___3
  6
CONTINUOUS
 62
    7
 10
1059.6783598703653
 20
1078.624820045791
 40
90.937141378329315
 50
153.20286832217883
 51
158.26355481275519
  0
ARC
  8
_0-1_レイヤ___3
  6
CONTINUOUS
 62
    7
 10
821.09697036215402
 20
1186.4447229604923
 40
171.00640462346885
 50
336.99820688151078
 51
357.39829274501534
  0
ARC
  8
_0-1_レイヤ___3
  6
CONTINUOUS
 62
    7
 10
761.71231643621832
 20
1191.6858913102612
 40
230.58174868562031
 50
356.76709866889797
 51
19.913495435532322
  0
ARC
  8
_0-1_レイヤ___3
  6
CONTINUOUS
 62
    7
 10
1171.7088539278498
 20
1347.813223422005
 40
208.20007713891616
 50
166.61156672194915
 51
201.88068352449383
  0
ARC
  8
_0-1_レイヤ___3
  6
CONTINUOUS
 62
    7
 10
1123.6377297828049
 20
1357.2156314006338
 40
159.27061569785727
 50
155.67454249183859
 51
165.8978031175175
  0
ARC
  8
_0-1_レイヤ___3
  6
CONTINUOUS
 62
    7
 10
876.59466357176234
 20
1457.2184946452819
 40
107.56042999195827
 50
341.35006827204222
 51
2.0372927775682386
  0
ARC
  8
_0-1_レイヤ___3
  6
CONTINUOUS
 62
    7
 10
900.55967829129804
 20
1456.8524148380875
 40
83.632444614800008
 50
2.8716280629193038
 51
16.884044516789622
  0
ARC
  8
_0-1_レイヤ___3
  6
CONTINUOUS
 62
    7
 10
936.57661037465709
 20
1467.5722965786351
 40
46.055050215657054
 50
17.136353234891565
 51
24.433368793050207
  0
ARC
  8
_0-1_レイヤ___3
  6
CONTINUOUS
 62
    7
 10
1127.4424119362848
 20
1540.2645694657162
 40
158.30105046509482
 50
192.45539988630284
 51
199.80759217879583
  0
ARC
  8
_0-1_レイヤ___3
  6
CONTINUOUS
 62
    7
 10
1229.1043109695979
 20
1564.4394670894171
 40
262.78965345651665
 50
184.98108501695503
 51
192.82158785764025
  0
LINE
  8
_0-1_レイヤ___3
  6
CONTINUOUS
 62
    7
 10
1198.9071006030722
 20
996.02227319088172
 11
1045.3071026030718
 21
907.22227519088187
  0
LINE
  8
_0-1_レイヤ___3
  6
CONTINUOUS
 62
    7
 10
1202.3071006030718
 20
1011.2222731908821
 11
1198.3071006030721
 21
1008.822273190882
  0
LINE
  8
_0-1_レイヤ___3
  6
CONTINUOUS
 62
    7
 10
2060.3070886030714
 20
496.82228119088194
 11
1198.9071006030722
 21
996.02227319088172
  0
LINE
  8
_0-1_レイヤ___3
  6
CONTINUOUS
 62
    7
 10
1551.5070966030717
 20
886.02227519088217
 11
1380.3070986030721
 21
985.22227319088211
  0
LINE
  8
_0-1_レイヤ___3
  6
CONTINUOUS
 62
    7
 10
2227.1070866030723
 20
494.62228119088223
 11
1798.1070926030716
 21
743.2222771908821
  0
LINE
  8
_0-1_レイヤ___3
  6
CONTINUOUS
 62
    7
 10
1609.5070946030719
 20
949.42227319088204
 11
1464.7070966030717
 21
1033.4222731908819
  0
LINE
  8
_0-1_レイヤ___3
  6
CONTINUOUS
 62
    7
 10
2255.1070846030721
 20
575.42227919088214
 11
1878.9070906030715
 21
793.42227519088226
  0
LINE
  8
_0-1_レイヤ___3
  6
CONTINUOUS
 62
    7
 10
2084.107088603072
 20
495.62228119088218
 11
1198.9071006030722
 21
1008.4222731908818
  0
LINE
  8
_0-1_レイヤ___3
  6
CONTINUOUS
 62
    7
 10
1198.9071006030722
 20
996.02227319088172
 11
1198.9071006030722
 21
1008.822273190882
  0
ARC
  8
_0-1_レイヤ___3
  6
CONTINUOUS
 62
    7
 10
2079.2359358725216
 20
2335.9615964630889
 40
1332.889278207814
 50
257.48508215280674
 51
263.50685753832386
  0
ARC
  8
_0-1_レイヤ___3
  6
CONTINUOUS
 62
    7
 10
2029.895761589215
 20
2092.5192272092504
 40
1084.549172248604
 50
255.51968463955626
 51
257.24288003085678
  0
ARC
  8
_0-1_レイヤ___3
  6
CONTINUOUS
 62
    7
 10
2084.2056244862997
 20
2211.2871204439743
 40
1173.2814301619226
 50
254.43346532802568
 51
261.86143838340098
  0
ARC
  8
_0-1_レイヤ___3
  6
CONTINUOUS
 62
    7
 10
2014.1360755142398
 20
1943.500215765202
 40
896.52403889357299
 50
246.97436950819599
 51
254.15461824045502
  0
ARC
  8
_0-1_レイヤ___3
  6
CONTINUOUS
 62
    7
 10
1955.675679537376
 20
1796.5168057416156
 40
738.3936477775701
 50
244.183045432911
 51
246.68814632405616
  0
ARC
  8
_0-1_レイヤ___3
  6
CONTINUOUS
 62
    7
 10
2086.1408392758826
 20
2100.8362817891375
 40
1028.9360157330007
 50
252.1770237439876
 51
260.29610440580416
  0
ARC
  8
_0-1_レイヤ___3
  6
CONTINUOUS
 62
    7
 10
2019.4136479960039
 20
1879.3712848853793
 40
797.68756215972235
 50
244.76286652788639
 51
251.87099270679559
  0
ARC
  8
_0-1_レイヤ___3
  6
CONTINUOUS
 62
    7
 10
2104.0934017533227
 20
2064.8301542069466
 40
962.70850850637407
 50
251.50537098276959
 51
258.44818239991167
  0
ARC
  8
_0-1_レイヤ___3
  6
CONTINUOUS
 62
    7
 10
2037.7509521347847
 20
1855.3879199310645
 40
743.04673247452024
 50
244.879233151596
 51
251.23376883222818
  0
ARC
  8
_0-1_レイヤ___3
  6
CONTINUOUS
 62
    7
 10
2103.5591803385287
 20
1977.0329672701396
 40
843.35045714136572
 50
249.60263171917916
 51
256.96237926591937
  0
ARC
  8
_0-1_レイヤ___3
  6
CONTINUOUS
 62
    7
 10
2043.6783225253143
 20
1805.6433052739271
 40
661.84688938563966
 50
244.95580041079435
 51
249.29028221177325
  0
ARC
  8
_0-1_レイヤ___3
  6
CONTINUOUS
 62
    7
 10
2107.3656882407927
 20
1905.6695961588571
 40
742.7637825065575
 50
245.71687265294378
 51
255.23807513779644
  0
ARC
  8
_0-1_レイヤ___3
  6
CONTINUOUS
 62
    7
 10
2249.4617291824043
 20
1119.3670883933264
 40
338.22587071105596
 50
171.90363757794051
 51
212.34270322512381
  0
ARC
  8
_0-1_レイヤ___3
  6
CONTINUOUS
 62
    7
 10
2307.8270283719226
 20
1113.559600454013
 40
396.83502682402923
 50
168.53734975330141
 51
172.26033117361146
  0
ARC
  8
_0-1_レイヤ___3
  6
CONTINUOUS
 62
    7
 10
2545.8727780284557
 20
1465.3220295004487
 40
747.37982137831318
 50
240.34677551305305
 51
247.1048013585434
  0
ARC
  8
_0-1_レイヤ___3
  6
CONTINUOUS
 62
    7
 10
2455.0064467229095
 20
1299.8312660463607
 40
558.61395999759384
 50
230.11916423144751
 51
240.04826474620671
  0
ARC
  8
_0-1_レイヤ___3
  6
CONTINUOUS
 62
    7
 10
2367.7186900292422
 20
1190.4911352567412
 40
418.7519320483143
 50
216.48734941638082
 51
229.6915439077938
  0
ARC
  8
_0-1_レイヤ___3
  6
CONTINUOUS
 62
    7
 10
2294.631152893845
 20
1131.2154260131977
 40
324.76950015039665
 50
174.59232066397016
 51
215.7471047596465
  0
ARC
  8
_0-1_レイヤ___3
  6
CONTINUOUS
 62
    7
 10
2582.7757964063358
 20
1475.7132742173453
 40
729.7105089099399
 50
240.30657023161723
 51
243.79148929191581
  0
ARC
  8
_0-1_レイヤ___3
  6
CONTINUOUS
 62
    7
 10
2487.4880039383243
 20
1304.1197728738998
 40
533.45220696648744
 50
230.84108350860643
 51
240.06759172410955
  0
ARC
  8
_0-1_レイヤ___3
  6
CONTINUOUS
 62
    7
 10
2408.6152362182356
 20
1203.4772596857381
 40
405.61526803214781
 50
217.97729024537003
 51
230.50272543441315
  0
ARC
  8
_0-1_レイヤ___3
  6
CONTINUOUS
 62
    7
 10
2340.5446855519849
 20
1146.9283733824057
 40
317.17241825426294
 50
195.74111827005078
 51
217.49174993265038
  0
ARC
  8
_0-1_レイヤ___3
  6
CONTINUOUS
 62
    7
 10
2321.4410806203923
 20
1138.2053422132569
 40
296.4361837216581
 50
181.50450044919066
 51
195.12004211313553
  0
ARC
  8
_0-1_レイヤ___3
  6
CONTINUOUS
 62
    7
 10
2504.1101238027759
 20
1287.5728220101926
 40
484.44274222297651
 50
229.28148009698046
 51
239.06943612464065
  0
ARC
  8
_0-1_レイヤ___3
  6
CONTINUOUS
 62
    7
 10
2431.8790926722918
 20
1200.1098367584377
 40
371.04024339864077
 50
216.04879845967511
 51
228.92472190374912
  0
ARC
  8
_0-1_レイヤ___3
  6
CONTINUOUS
 62
    7
 10
2372.2378087890684
 20
1153.4446464250054
 40
295.36977999556916
 50
191.01248218254008
 51
215.53819647354297
  0
ARC
  8
_0-1_レイヤ___3
  6
CONTINUOUS
 62
    7
 10
2488.8377220806838
 20
1233.4679077954308
 40
388.59555187973001
 50
221.94535457414582
 51
233.02436645275864
  0
ARC
  8
_0-1_レイヤ___3
  6
CONTINUOUS
 62
    7
 10
2425.1065225044645
 20
1173.3883596932822
 40
301.04215969971642
 50
202.16302038028556
 51
221.54817780015057
  0
ARC
  8
_0-1_レイヤ___3
  6
CONTINUOUS
 62
    7
 10
2479.4331781593228
 20
1200.2626512494758
 40
314.6496030190516
 50
216.56336793120059
 51
224.52542241593554
  0
ARC
  8
_0-1_レイヤ___3
  6
CONTINUOUS
 62
    7
 10
2364.5500024943067
 20
976.85171594759845
 40
267.81243960554008
 50
232.85269187314418
 51
245.87962208065107
  0
ARC
  8
_0-1_レイヤ___3
  6
CONTINUOUS
 62
    7
 10
2293.1491274121322
 20
879.5358194072486
 40
147.13842606648629
 50
222.08322108751321
 51
232.13104184674768
  0
ARC
  8
_0-1_レイヤ___3
  6
CONTINUOUS
 62
    7
 10
2240.0167090601772
 20
829.93809157215401
 40
74.473838506831726
 50
211.71982812548939
 51
221.15980974970591
  0
ARC
  8
_0-1_レイヤ___3
  6
CONTINUOUS
 62
    7
 10
2210.2408103680591
 20
811.30500071677011
 40
39.349424270992877
 50
193.04637643831447
 51
211.43633679898639
  0
ARC
  8
_0-1_レイヤ___3
  6
CONTINUOUS
 62
    7
 10
2187.3416151097481
 20
796.93681350948168
 40
12.576892358259595
 50
193.39939064134217
 51
212.26791771448947
  0
ARC
  8
_0-1_レイヤ___3
  6
CONTINUOUS
 62
    7
 10
2132.1045406578091
 20
785.67170449287482
 40
43.805832816611172
 50
10.989372399301887
 51
48.820673218440689
  0
ARC
  8
_0-1_レイヤ___3
  6
CONTINUOUS
 62
    7
 10
2114.7609711442096
 20
768.21633840211973
 40
68.380789423664709
 50
47.512813813807327
 51
62.922968226715263
  0
ARC
  8
_0-1_レイヤ___3
  6
CONTINUOUS
 62
    7
 10
2091.10854308427
 20
725.75013323197936
 40
116.97159517393288
 50
62.075584386055219
 51
73.879297004203366
  0
ARC
  8
_0-1_レイヤ___3
  6
CONTINUOUS
 62
    7
 10
2065.6724149157631
 20
647.46978049055065
 40
199.25481909381432
 50
73.102747208733845
 51
79.241552754055803
  0
ARC
  8
_0-1_レイヤ___3
  6
CONTINUOUS
 62
    7
 10
2039.181720047156
 20
514.97601063297225
 40
334.36721783740126
 50
79.020057376652744
 51
83.728649473260077
  0
ARC
  8
_0-1_レイヤ___3
  6
CONTINUOUS
 62
    7
 10
2217.6165184688052
 20
1943.6929025713548
 40
1105.4967138994007
 50
262.04950694902521
 51
262.62475536729772
  0
ARC
  8
_0-1_レイヤ___3
  6
CONTINUOUS
 62
    7
 10
2084.9155421801447
 20
935.39465418677366
 40
88.899709791342971
 50
234.09990354201284
 51
256.86081108160602
  0
ARC
  8
_0-1_レイヤ___3
  6
CONTINUOUS
 62
    7
 10
2074.1089607024182
 20
918.5588961565727
 40
68.934437076008848
 50
206.29421282490253
 51
233.17039291900915
  0
ARC
  8
_0-1_レイヤ___3
  6
CONTINUOUS
 62
    7
 10
1965.3062973751948
 20
878.03224240101429
 40
48.050755781663867
 50
11.99965734049886
 51
36.988603054428602
  0
ARC
  8
_0-1_レイヤ___3
  6
CONTINUOUS
 62
    7
 10
1942.9884480535097
 20
862.92021067795872
 40
74.98177864351382
 50
35.951731904982459
 51
50.098400073252208
  0
ARC
  8
_0-1_レイヤ___3
  6
CONTINUOUS
 62
    7
 10
1908.1543166075007
 20
823.79515870888667
 40
127.35191319785432
 50
49.367147026810549
 51
60.983876880658002
  0
ARC
  8
_0-1_レイヤ___3
  6
CONTINUOUS
 62
    7
 10
1860.3189964441972
 20
743.34462123278536
 40
220.92520432910817
 50
60.255567402008097
 51
68.745437367201987
  0
ARC
  8
_0-1_レイヤ___3
  6
CONTINUOUS
 62
    7
 10
1808.9652919057451
 20
619.44806042304947
 40
355.02277281879117
 50
68.269898938091728
 51
78.242690956256851
  0
ARC
  8
_0-1_レイヤ___3
  6
CONTINUOUS
 62
    7
 10
1925.7312366385904
 20
1164.0680980774594
 40
201.99148956383485
 50
248.21496767627499
 51
257.29503254216633
  0
ARC
  8
_0-1_レイヤ___3
  6
CONTINUOUS
 62
    7
 10
1950.3006476860262
 20
1231.4098873457344
 40
273.65091035789538
 50
234.65322098609599
 51
248.67088896408907
  0
ARC
  8
_0-1_レイヤ___3
  6
CONTINUOUS
 62
    7
 10
1891.4639866968432
 20
1146.7160725395211
 40
170.53364790720448
 50
224.90898689523695
 51
234.31510672632834
  0
ARC
  8
_0-1_レイヤ___3
  6
CONTINUOUS
 62
    7
 10
1834.5398277826278
 20
1088.3764986806084
 40
89.038748256252404
 50
215.53886737280874
 51
224.1816178692101
  0
ARC
  8
_0-1_レイヤ___3
  6
CONTINUOUS
 62
    7
 10
1804.0882009012992
 20
1066.1963272929133
 40
51.368451157391078
 50
203.29452822427584
 51
215.15035549568989
  0
ARC
  8
_0-1_レイヤ___3
  6
CONTINUOUS
 62
    7
 10
1785.2304344340062
 20
1057.7078313214683
 40
30.692922923237809
 50
191.0552915334176
 51
202.66150600205975
  0
ARC
  8
_0-1_レイヤ___3
  6
CONTINUOUS
 62
    7
 10
1727.7977021490992
 20
1049.8923981571043
 40
27.377494856424555
 50
4.0422059884769812
 51
31.071859038468634
  0
ARC
  8
_0-1_レイヤ___3
  6
CONTINUOUS
 62
    7
 10
1713.2953448644198
 20
1042.2383609582864
 40
43.759272176763417
 50
29.855377690146316
 51
42.288268642541972
  0
ARC
  8
_0-1_レイヤ___3
  6
CONTINUOUS
 62
    7
 10
1693.5918252645181
 20
1025.0636336226908
 40
69.893710998173489
 50
41.83542892190237
 51
51.578089028688382
  0
ARC
  8
_0-1_レイヤ___3
  6
CONTINUOUS
 62
    7
 10
1664.3595112655069
 20
989.50039887755315
 40
115.92505335619633
 50
51.181922607604093
 51
59.148784127842625
  0
ARC
  8
_0-1_レイヤ___3
  6
CONTINUOUS
 62
    7
 10
1622.0120700378609
 20
921.39154962180157
 40
196.11803953951406
 50
58.731466747737421
 51
64.757364580092116
  0
ARC
  8
_0-1_レイヤ___3
  6
CONTINUOUS
 62
    7
 10
1572.2130169502575
 20
819.803261038399
 40
309.24737862222293
 50
64.438474772642437
 51
68.954401930003954
  0
ARC
  8
_0-1_レイヤ___3
  6
CONTINUOUS
 62
    7
 10
1511.9213863148345
 20
665.3893420299662
 40
475.0131872587317
 50
68.85571534673106
 51
76.165323180423755
  0
LINE
  8
_0-1_レイヤ___3
  6
CONTINUOUS
 62
    7
 10
1593.907094603072
 20
767.02227719088171
 11
1593.907094603072
 21
779.4222771908818
  0
LINE
  8
_0-1_レイヤ___3
  6
CONTINUOUS
 62
    7
 10
2255.1070846030721
 20
1489.6222651908824
 11
1862.107090603072
 21
1262.6222691908822
  0
LINE
  8
_0-1_レイヤ___3
  6
CONTINUOUS
 62
    7
 10
1627.5070946030714
 20
798.82227519088224
 11
1593.907094603072
 21
779.4222771908818
  0
LINE
  8
_0-1_レイヤ___3
  6
CONTINUOUS
 62
    7
 10
1561.5070966030717
 20
889.42227519088215
 11
1644.5070946030719
 21
937.22227319088211
  0
ARC
  8
_0-1_レイヤ___3
  6
CONTINUOUS
 62
    7
 10
1510.3494470510955
 20
866.04776058113634
 40
64.586797577206852
 50
39.721387752390221
 51
50.413267366626044
  0
ARC
  8
_0-1_レイヤ___3
  6
CONTINUOUS
 62
    7
 10
1535.2993339894797
 20
886.86383135118012
 40
32.093771486324258
 50
24.911448990196
 51
39.60255792711088
  0
ARC
  8
_0-1_レイヤ___3
  6
CONTINUOUS
 62
    7
 10
1552.9310979833665
 20
895.33095049569738
 40
12.538517675373754
 50
1.148525615805206
 51
23.757379971857045
  0
ARC
  8
_0-1_レイヤ___3
  6
CONTINUOUS
 62
    7
 10
1558.2465310325322
 20
895.76998123249837
 40
7.223004964453712
 50
312.94024516631163
 51
358.51087256480531
  0
ARC
  8
_0-1_レイヤ___3
  6
CONTINUOUS
 62
    7
 10
1554.6450696665001
 20
899.60976335663963
 40
12.487433015783918
 50
289.27448208841099
 51
313.03525623940828
  0
ARC
  8
_0-1_レイヤ___3
  6
CONTINUOUS
 62
    7
 10
1547.8231343657151
 20
916.42192288155229
 40
30.622053449811851
 50
276.90966026506567
 51
290.93988617575422
  0
ARC
  8
_0-1_レイヤ___3
  6
CONTINUOUS
 62
    7
 10
1592.8509866211264
 20
914.22156766007197
 40
64.772380852934731
 50
39.477540174287547
 51
49.975487564378071
  0
ARC
  8
_0-1_レイヤ___3
  6
CONTINUOUS
 62
    7
 10
1618.2660820632113
 20
935.06133976386081
 40
31.90579493081627
 50
24.203963589145655
 51
39.607957981193408
  0
ARC
  8
_0-1_レイヤ___3
  6
CONTINUOUS
 62
    7
 10
1636.1837019211337
 20
943.4567243906738
 40
12.125289251707283
 50
358.98659825150958
 51
22.732408219132662
  0
ARC
  8
_0-1_レイヤ___3
  6
CONTINUOUS
 62
    7
 10
1640.8250282382583
 20
943.7558366769772
 40
7.4996709622308808
 50
299.40394388492456
 51
356.0734189565145
  0
LINE
  8
_0-1_レイヤ___3
  6
CONTINUOUS
 62
    7
 10
1634.5070946030719
 20
963.82227319088202
 11
1551.5070966030717
 21
915.82227519088235
  0
LINE
  8
_0-1_レイヤ___3
  6
CONTINUOUS
 62
    7
 10
1812.7070926030719
 20
905.82227519088235
 11
1788.907092603072
 21
892.02227519088206
  0
LINE
  8
_0-1_レイヤ___3
  6
CONTINUOUS
 62
    7
 10
1716.5070926030719
 20
850.42227519088215
 11
1700.3070946030718
 21
840.82227519088235
  0
LINE
  8
_0-1_レイヤ___3
  6
CONTINUOUS
 62
    7
 10
1792.107092603072
 20
778.2222771908821
 11
1875.907090603072
 21
826.62227519088196
  0
LINE
  8
_0-1_レイヤ___3
  6
CONTINUOUS
 62
    7
 10
1781.7070926030717
 20
773.82227719088201
 11
1865.5070906030719
 21
822.22227519088187
  0
ARC
  8
_0-1_レイヤ___3
  6
CONTINUOUS
 62
    7
 10
1838.076210499685
 20
809.63648172268279
 40
77.685150645654161
 50
225.06523499393958
 51
239.03586705745658
  0
ARC
  8
_0-1_レイヤ___3
  6
CONTINUOUS
 62
    7
 10
1804.0415205608863
 20
774.70887629766457
 40
28.926489383291813
 50
208.19407668288369
 51
223.92452124658723
  0
ARC
  8
_0-1_レイヤ___3
  6
CONTINUOUS
 62
    7
 10
1789.3528024496184
 20
766.49723714979109
 40
12.104542677897598
 50
183.19652105920574
 51
206.78564838440238
  0
ARC
  8
_0-1_レイヤ___3
  6
CONTINUOUS
 62
    7
 10
1785.6542790003746
 20
765.97442646948934
 40
8.3885663295994028
 50
132.87123507499825
 51
181.03927050509554
  0
ARC
  8
_0-1_レイヤ___3
  6
CONTINUOUS
 62
    7
 10
1790.6925178063088
 20
761.32477537856857
 40
15.233194286993141
 50
123.3993023033095
 51
134.86149681065206
  0
ARC
  8
_0-1_レイヤ___3
  6
CONTINUOUS
 62
    7
 10
1795.5934517759861
 20
753.80987464212808
 40
24.204905555826826
 50
114.57480650304052
 51
123.29239242656583
  0
ARC
  8
_0-1_レイヤ___3
  6
CONTINUOUS
 62
    7
 10
1803.1567514501457
 20
737.70771251848885
 40
41.994343800448313
 50
105.25542423886125
 51
114.82261268652189
  0
ARC
  8
_0-1_レイヤ___3
  6
CONTINUOUS
 62
    7
 10
1922.2946167605644
 20
858.7910438967665
 40
78.444810252852847
 50
225.28986505272528
 51
239.18263410678611
  0
ARC
  8
_0-1_レイヤ___3
  6
CONTINUOUS
 62
    7
 10
1888.0449977009855
 20
823.26424475623242
 40
29.108830391185627
 50
208.34878208411294
 51
224.00349402980936
  0
ARC
  8
_0-1_レイヤ___3
  6
CONTINUOUS
 62
    7
 10
1873.2338930932563
 20
814.99883989528462
 40
12.151641509527099
 50
183.6640499407512
 51
207.21099841231501
  0
ARC
  8
_0-1_レイヤ___3
  6
CONTINUOUS
 62
    7
 10
1869.4546059796253
 20
814.40932425411484
 40
8.3496107881655046
 50
132.93524182416044
 51
181.28365486334147
  0
ARC
  8
_0-1_レイヤ___3
  6
CONTINUOUS
 62
    7
 10
1874.4545490981764
 20
809.88287264997462
 40
15.080406344394426
 50
123.60952975191586
 51
135.12910473282042
  0
ARC
  8
_0-1_レイヤ___3
  6
CONTINUOUS
 62
    7
 10
1879.3486954981595
 20
802.29083262785423
 40
24.11266757471321
 50
114.55810042309177
 51
123.30909850650602
  0
ARC
  8
_0-1_レイヤ___3
  6
CONTINUOUS
 62
    7
 10
1886.9213521948186
 20
786.20475799350993
 40
41.891403113422783
 50
105.24364191503686
 51
114.83439501034626
  0
LINE
  8
_0-1_レイヤ___3
  6
CONTINUOUS
 62
    7
 10
1855.7070906030722
 20
911.02227519088217
 11
1773.907092603072
 21
958.42227319088181
  0
LINE
  8
_0-1_レイヤ___3
  6
CONTINUOUS
 62
    7
 10
1849.107090603072
 20
885.02227519088194
 11
1767.3070926030723
 21
932.42227319088192
  0
ARC
  8
_0-1_レイヤ___3
  6
CONTINUOUS
 62
    7
 10
1855.1192371761672
 20
898.91031145593388
 40
15.218423032048118
 50
255.41537307978149
 51
277.50550858312386
  0
ARC
  8
_0-1_レイヤ___3
  6
CONTINUOUS
 62
    7
 10
1853.2813648812046
 20
890.81750782138079
 40
6.9284516276913211
 50
172.8299886201298
 51
253.27141296821759
  0
ARC
  8
_0-1_レイヤ___3
  6
CONTINUOUS
 62
    7
 10
1862.5354176145206
 20
890.33634424482386
 40
16.184387470228117
 50
164.93730619643873
 51
175.22964156174243
  0
ARC
  8
_0-1_レイヤ___3
  6
CONTINUOUS
 62
    7
 10
1873.3989352862263
 20
887.29245997813564
 40
27.465934343618631
 50
157.04980304481231
 51
164.6950357490002
  0
ARC
  8
_0-1_レイヤ___3
  6
CONTINUOUS
 62
    7
 10
1890.1536811817291
 20
880.22494608216653
 40
45.65029254592762
 50
151.36439046612489
 51
157.08132319008331
  0
ARC
  8
_0-1_レイヤ___3
  6
CONTINUOUS
 62
    7
 10
1922.5350370543711
 20
862.68724614869598
 40
82.475750735635501
 50
144.1226987458827
 51
151.45176728217302
  0
ARC
  8
_0-1_レイヤ___3
  6
CONTINUOUS
 62
    7
 10
1770.6942558677415
 20
937.59696273898521
 40
6.0543840976945376
 50
187.16064499780683
 51
242.59001169139924
  0
ARC
  8
_0-1_レイヤ___3
  6
CONTINUOUS
 62
    7
 10
1774.5941639434809
 20
938.17342959330381
 40
9.9961012355650283
 50
174.32284876332051
 51
187.65267203596832
  0
ARC
  8
_0-1_レイヤ___3
  6
CONTINUOUS
 62
    7
 10
1781.1811412418681
 20
937.55276407110637
 40
16.612202864061597
 50
164.32063657452466
 51
174.44005287315414
  0
ARC
  8
_0-1_レイヤ___3
  6
CONTINUOUS
 62
    7
 10
1792.2708092852033
 20
934.64995709359391
 40
28.07443760078181
 50
157.2154208168763
 51
164.73336710798057
  0
ARC
  8
_0-1_レイヤ___3
  6
CONTINUOUS
 62
    7
 10
1810.4684888089034
 20
926.738541413142
 40
47.916574073628865
 50
150.98179377965937
 51
156.92043232571046
  0
ARC
  8
_0-1_レイヤ___3
  6
CONTINUOUS
 62
    7
 10
1844.0023841752875
 20
908.16356975538099
 40
86.251302434290849
 50
144.35927198904184
 51
150.99753742046661
  0
LINE
  8
_0-1_レイヤ___3
  6
CONTINUOUS
 62
    7
 10
1957.3070906030719
 20
941.62227319088231
 11
1857.107090603072
 21
883.82227519088224
  0
LINE
  8
_0-1_レイヤ___3
  6
CONTINUOUS
 62
    7
 10
1851.1070906030718
 20
974.82227319088202
 11
1798.3070926030721
 21
944.22227319088222
  0
ARC
  8
_0-1_レイヤ___3
  6
CONTINUOUS
 62
    7
 10
1673.3060100577929
 20
812.12825170372355
 40
92.090149558980471
 50
119.82331106302838
 51
133.54139044875996
  0
ARC
  8
_0-1_レイヤ___3
  6
CONTINUOUS
 62
    7
 10
1650.7924773259085
 20
836.70599288804908
 40
58.768407668567342
 50
134.13761229570957
 51
155.47276098409489
  0
ARC
  8
_0-1_レイヤ___3
  6
CONTINUOUS
 62
    7
 10
1635.1113373217449
 20
845.40785239687864
 40
40.914103982129902
 50
157.44349095558212
 51
212.13948575198933
  0
ARC
  8
_0-1_レイヤ___3
  6
CONTINUOUS
 62
    7
 10
1650.5302465687341
 20
854.220004043053
 40
58.662736779781248
 50
211.41588156555605
 51
228.09177639753244
  0
ARC
  8
_0-1_レイヤ___3
  6
CONTINUOUS
 62
    7
 10
1670.0580442338039
 20
874.38530296197632
 40
86.71997740089806
 50
227.38897611295661
 51
240.61532753219166
  0
ARC
  8
_0-1_レイヤ___3
  6
CONTINUOUS
 62
    7
 10
1692.1873003316646
 20
911.66144094082313
 40
130.06231714157542
 50
240.17836099188247
 51
255.74775558650651
  0
ARC
  8
_0-1_レイヤ___3
  6
CONTINUOUS
 62
    7
 10
1707.9160985038332
 20
966.34190188309708
 40
186.9405769419723
 50
255.20132302292865
 51
289.71764947314978
  0
ARC
  8
_0-1_レイヤ___3
  6
CONTINUOUS
 62
    7
 10
1725.8113393128392
 20
909.26280698296068
 40
127.19349490354871
 50
290.80407552968131
 51
299.73974914183134
  0
ARC
  8
_0-1_レイヤ___3
  6
CONTINUOUS
 62
    7
 10
1703.595452835357
 20
843.9073048279937
 40
7.2143949046961398
 50
118.91604227921755
 51
153.71346630354444
  0
ARC
  8
_0-1_レイヤ___3
  6
CONTINUOUS
 62
    7
 10
1701.058255025355
 20
845.52429402069629
 40
4.2360414114105875
 50
158.12930592694562
 51
218.58683096045877
  0
ARC
  8
_0-1_レイヤ___3
  6
CONTINUOUS
 62
    7
 10
1703.834570566926
 20
847.47443212034625
 40
7.6253045103343444
 50
217.02949283819041
 51
240.73630428253762
  0
ARC
  8
_0-1_レイヤ___3
  6
CONTINUOUS
 62
    7
 10
1707.4897878519059
 20
854.34541015133595
 40
15.407119742671645
 50
241.36852275962525
 51
264.77645111207852
  0
ARC
  8
_0-1_レイヤ___3
  6
CONTINUOUS
 62
    7
 10
1708.1512220648372
 20
857.01601202001052
 40
18.131611531452737
 50
263.46319854722344
 51
296.7318140916625
  0
ARC
  8
_0-1_レイヤ___3
  6
CONTINUOUS
 62
    7
 10
1743.1081771483505
 20
878.71629867804302
 40
92.090149558982375
 50
299.82331106302752
 51
313.5413904487591
  0
ARC
  8
_0-1_レイヤ___3
  6
CONTINUOUS
 62
    7
 10
1765.6217098802367
 20
854.13855749371351
 40
58.768407668565217
 50
314.13761229570991
 51
335.47276098409526
  0
ARC
  8
_0-1_レイヤ___3
  6
CONTINUOUS
 62
    7
 10
1781.3026823034213
 20
845.43668393778808
 40
40.914253355124536
 50
337.44359914337082
 51
32.139377564198909
  0
ARC
  8
_0-1_レイヤ___3
  6
CONTINUOUS
 62
    7
 10
1765.8839406374093
 20
836.6245463387088
 40
58.662736779782499
 50
31.415881565557541
 51
48.091776397533927
  0
ARC
  8
_0-1_レイヤ___3
  6
CONTINUOUS
 62
    7
 10
1746.3561429723368
 20
816.45924741978774
 40
86.719977400899495
 50
47.388976112955298
 51
60.615327532190321
  0
ARC
  8
_0-1_レイヤ___3
  6
CONTINUOUS
 62
    7
 10
1724.2268795597729
 20
779.1831104409431
 40
130.06231991161172
 50
60.178357977199092
 51
75.747752571823128
  0
ARC
  8
_0-1_レイヤ___3
  6
CONTINUOUS
 62
    7
 10
1708.4980919212173
 20
724.50264949866641
 40
186.9405770866183
 50
75.201324055057583
 51
109.71765050527875
  0
ARC
  8
_0-1_レイヤ___3
  6
CONTINUOUS
 62
    7
 10
1690.6028478933044
 20
781.58174339880361
 40
127.19349490354871
 50
110.80407552968131
 51
119.73974914183135
  0
ARC
  8
_0-1_レイヤ___3
  6
CONTINUOUS
 62
    7
 10
1713.0231961906165
 20
847.63227550350143
 40
7.4719233364339068
 50
297.79212211469297
 51
331.45892411185775
  0
ARC
  8
_0-1_レイヤ___3
  6
CONTINUOUS
 62
    7
 10
1715.9622665604118
 20
845.69955110898718
 40
3.977440919932536
 50
335.69206745949111
 51
40.492097738398861
  0
ARC
  8
_0-1_レイヤ___3
  6
CONTINUOUS
 62
    7
 10
1713.3200198078591
 20
843.59292440112517
 40
7.3556593787118043
 50
39.606844749649404
 51
64.323992230461997
  0
ARC
  8
_0-1_レイヤ___3
  6
CONTINUOUS
 62
    7
 10
1709.3857593424596
 20
837.75502423328874
 40
14.357776075991344
 50
60.264855258768506
 51
84.318750202036824
  0
ARC
  8
_0-1_レイヤ___3
  6
CONTINUOUS
 62
    7
 10
1708.6514348946653
 20
834.18628343076534
 40
17.985641787709284
 50
83.11629582964072
 51
116.92504958563828
  0
ARC
  8
_0-1_レイヤ___3
  6
CONTINUOUS
 62
    7
 10
1704.7155653553657
 20
844.53270641499785
 40
4.8247013738447562
 50
117.2415292676221
 51
158.48328118460915
  0
ARC
  8
_0-1_レイヤ___3
  6
CONTINUOUS
 62
    7
 10
1702.9714243856645
 20
845.49937843393025
 40
2.8593686642244971
 50
163.69233453739844
 51
214.92754581258086
  0
ARC
  8
_0-1_レイヤ___3
  6
CONTINUOUS
 62
    7
 10
1704.8448063534263
 20
846.79965207543319
 40
5.1397738637969788
 50
214.8548389984459
 51
242.94614848629175
  0
ARC
  8
_0-1_レイヤ___3
  6
CONTINUOUS
 62
    7
 10
1707.8773373364638
 20
851.15686589918573
 40
10.424318593579919
 50
238.99152423567239
 51
267.52453499374337
  0
ARC
  8
_0-1_レイヤ___3
  6
CONTINUOUS
 62
    7
 10
1708.2573611994453
 20
852.80998291842229
 40
12.096235464738246
 50
266.06421318157834
 51
298.92074521883421
  0
ARC
  8
_0-1_レイヤ___3
  6
CONTINUOUS
 62
    7
 10
1712.1104361955859
 20
846.46094829517097
 40
4.7740600182206903
 50
297.39506624085698
 51
339.66952292694526
  0
ARC
  8
_0-1_レイヤ___3
  6
CONTINUOUS
 62
    7
 10
1713.6253372191416
 20
845.63735308317655
 40
3.0772309046344262
 50
344.25400544194019
 51
33.644910726487218
  0
ARC
  8
_0-1_レイヤ___3
  6
CONTINUOUS
 62
    7
 10
1711.9892927953654
 20
844.53664207273505
 40
5.049069262668457
 50
33.757104439320734
 51
62.673863544162366
  0
ARC
  8
_0-1_レイヤ___3
  6
CONTINUOUS
 62
    7
 10
1708.9586915191753
 20
839.02683837039092
 40
11.336408222477548
 50
61.849464742608475
 51
89.249928806189473
  0
ARC
  8
_0-1_レイヤ___3
  6
CONTINUOUS
 62
    7
 10
1708.5137682114216
 20
837.2424907927948
 40
13.133193779858862
 50
87.410631913677264
 51
116.24032301434181
  0
ARC
  8
_0-1_レイヤ___3
  6
CONTINUOUS
 62
    7
 10
1633.865071211068
 20
843.00900733540573
 40
39.966252003533086
 50
178.83401545632813
 51
207.90864848345566
  0
ARC
  8
_0-1_レイヤ___3
  6
CONTINUOUS
 62
    7
 10
1646.3377091379052
 20
848.91225181032326
 40
53.754941975845099
 50
207.24639233207864
 51
225.18040364714287
  0
ARC
  8
_0-1_レイヤ___3
  6
CONTINUOUS
 62
    7
 10
1666.4780536127271
 20
867.97750351428135
 40
81.479361476057448
 50
224.58444340980762
 51
241.4260650347403
  0
ARC
  8
_0-1_レイヤ___3
  6
CONTINUOUS
 62
    7
 10
1692.1873003316646
 20
909.26144094082304
 40
130.06231714157542
 50
240.17836099188247
 51
255.74775558650651
  0
ARC
  8
_0-1_レイヤ___3
  6
CONTINUOUS
 62
    7
 10
1707.9160985038332
 20
963.94190188309699
 40
186.9405769419723
 50
255.20132302292865
 51
289.71764947314978
  0
ARC
  8
_0-1_レイヤ___3
  6
CONTINUOUS
 62
    7
 10
1725.8113393128392
 20
906.86280698296059
 40
127.19349490354871
 50
290.80407552968131
 51
299.73974914183134
  0
ARC
  8
_0-1_レイヤ___3
  6
CONTINUOUS
 62
    7
 10
1744.4081596144279
 20
875.18201483650068
 40
90.461326688112749
 50
299.46627186252294
 51
313.35127727302211
  0
ARC
  8
_0-1_レイヤ___3
  6
CONTINUOUS
 62
    7
 10
1764.6388220018891
 20
852.75560664890179
 40
60.269921450444883
 50
314.00167203712806
 51
330.33055563717022
  0
ARC
  8
_0-1_レイヤ___3
  6
CONTINUOUS
 62
    7
 10
1779.5683852282255
 20
843.54739956114963
 40
42.74403543406244
 50
331.14946619939906
 51
0.904667320424308
  0
LINE
  8
_0-1_レイヤ___3
  6
CONTINUOUS
 62
    7
 10
1627.5070946030714
 20
892.22227519088187
 11
1596.907094603072
 21
909.82227519088212
  0
LINE
  8
_0-1_レイヤ___3
  6
CONTINUOUS
 62
    7
 10
1807.107092603072
 20
788.42227519088226
 11
1791.1070926030718
 21
797.62227519088185
  0
LINE
  8
_0-1_レイヤ___3
  6
CONTINUOUS
 62
    7
 10
1716.3070926030721
 20
840.82227519088235
 11
1700.3070946030718
 21
850.22227519088176
  0
ARC
  8
_0-1_レイヤ___3
  6
CONTINUOUS
 62
    7
 10
1204.7974074730323
 20
1521.6795650308377
 40
335.19988017350778
 50
227.02698043735754
 51
234.78530179018441
  0
ARC
  8
_0-1_レイヤ___3
  6
CONTINUOUS
 62
    7
 10
1225.1319055719225
 20
1557.7975137865883
 40
328.04931782412302
 50
217.16424960237524
 51
234.1720362239642
  0
ARC
  8
_0-1_レイヤ___3
  6
CONTINUOUS
 62
    7
 10
1246.9858938366385
 20
1591.9590315604951
 40
322.84158795288704
 50
212.89523628021689
 51
233.44583359884513
  0
ARC
  8
_0-1_レイヤ___3
  6
CONTINUOUS
 62
    7
 10
1253.0021531261038
 20
1609.2611667195467
 40
296.81480291147841
 50
216.28577972266669
 51
233.51372443794716
  0
ARC
  8
_0-1_レイヤ___3
  6
CONTINUOUS
 62
    7
 10
1304.5930511828474
 20
1650.2311778233475
 40
362.65610371768753
 50
204.46838341811019
 51
216.67960876650039
  0
ARC
  8
_0-1_レイヤ___3
  6
CONTINUOUS
 62
    7
 10
1265.5942125202271
 20
1633.7707929604194
 40
282.58515200666835
 50
215.0258310450522
 51
233.70176713235855
  0
ARC
  8
_0-1_レイヤ___3
  6
CONTINUOUS
 62
    7
 10
1321.6537763371755
 20
1676.5845459001921
 40
353.07651076487889
 50
202.43779129692962
 51
215.49396205426399
  0
ARC
  8
_0-1_レイヤ___3
  6
CONTINUOUS
 62
    7
 10
1278.1163210203183
 20
1657.0166519842403
 40
269.35424368966375
 50
215.32241353152742
 51
234.02976698137934
  0
ARC
  8
_0-1_レイヤ___3
  6
CONTINUOUS
 62
    7
 10
1318.2826423103368
 20
1688.4321624966876
 40
320.29918648738499
 50
207.24059463805412
 51
215.75335139474262
  0
ARC
  8
_0-1_レイヤ___3
  6
CONTINUOUS
 62
    7
 10
1292.9020963443875
 20
1683.2353188205161
 40
255.49826046027047
 50
213.60605137792285
 51
234.65784572258605
  0
ARC
  8
_0-1_レイヤ___3
  6
CONTINUOUS
 62
    7
 10
1304.6842776408764
 20
1709.2320871777804
 40
228.75547681290885
 50
227.55697387090757
 51
236.52445536167693
  0
ARC
  8
_0-1_レイヤ___3
  6
CONTINUOUS
 62
    7
 10
1657.3681886210463
 20
1369.0509372087199
 40
317.59568622291704
 50
208.03811770233943
 51
223.05649641446132
  0
ARC
  8
_0-1_レイヤ___3
  6
CONTINUOUS
 62
    7
 10
1729.158461230975
 20
1410.6260899640238
 40
400.51393205705205
 50
197.58806399959323
 51
208.46014049047812
  0
ARC
  8
_0-1_レイヤ___3
  6
CONTINUOUS
 62
    7
 10
1834.5016620382037
 20
1447.1568927030742
 40
511.98002137115225
 50
188.53158912034181
 51
197.92283708801662
  0
ARC
  8
_0-1_レイヤ___3
  6
CONTINUOUS
 62
    7
 10
1985.213571451525
 20
1473.3002757545705
 40
664.91186587122229
 50
180.23076609925172
 51
188.83277971552008
  0
LINE
  8
_0-1_レイヤ___3
  6
CONTINUOUS
 62
    7
 10
1320.3070986030721
 20
1470.6222651908822
 11
1320.3070986030721
 21
1478.4222651908819
  0
ARC
  8
_0-1_レイヤ___3
  6
CONTINUOUS
 62
    7
 10
2162.5929520181166
 20
1478.2830530742228
 40
842.28586491946021
 50
175.67368922742267
 51
179.99053021413494
  0
ARC
  8
_0-1_レイヤ___3
  6
CONTINUOUS
 62
    7
 10
1655.7636282261851
 20
1381.4645685736516
 40
286.60446610870332
 50
210.31445603269404
 51
226.89254789144186
  0
ARC
  8
_0-1_レイヤ___3
  6
CONTINUOUS
 62
    7
 10
1720.6843410974616
 20
1422.8552210809471
 40
363.55227128434512
 50
198.83871586662673
 51
210.7813981638688
  0
ARC
  8
_0-1_レイヤ___3
  6
CONTINUOUS
 62
    7
 10
1823.0500803457139
 20
1461.1223732189251
 40
472.80165390286237
 50
189.02915725146022
 51
199.22199695454191
  0
ARC
  8
_0-1_レイヤ___3
  6
CONTINUOUS
 62
    7
 10
1974.4688488725862
 20
1489.2110379410447
 40
626.7649055411099
 50
180.18180417442244
 51
189.39275313985172
  0
LINE
  8
_0-1_レイヤ___3
  6
CONTINUOUS
 62
    7
 10
1347.7070986030722
 20
1487.2222651908824
 11
1347.7070986030722
 21
1494.4222651908819
  0
ARC
  8
_0-1_レイヤ___3
  6
CONTINUOUS
 62
    7
 10
2120.5141147473905
 20
1495.3174166127819
 40
772.80753457633477
 50
176.55005652039873
 51
180.06636634307264
  0
ARC
  8
_0-1_レイヤ___3
  6
CONTINUOUS
 62
    7
 10
1661.2802570694421
 20
1398.651315853911
 40
259.91139350460753
 50
213.26091083307324
 51
231.5071785498117
  0
ARC
  8
_0-1_レイヤ___3
  6
CONTINUOUS
 62
    7
 10
1713.4267593885611
 20
1436.0673032567649
 40
324.0473747207289
 50
201.77796151181624
 51
213.73595736615584
  0
ARC
  8
_0-1_レイヤ___3
  6
CONTINUOUS
 62
    7
 10
1792.3332119906163
 20
1470.1760172504855
 40
409.98388041630739
 50
192.90642321981676
 51
202.11325354600041
  0
ARC
  8
_0-1_レイヤ___3
  6
CONTINUOUS
 62
    7
 10
1898.226565563049
 20
1496.8736720680586
 40
519.17054682167827
 50
185.16871053574408
 51
193.16807658800261
  0
ARC
  8
_0-1_レイヤ___3
  6
CONTINUOUS
 62
    7
 10
2021.3110914772683
 20
1510.8930214938628
 40
643.02398666118506
 50
180.45182754046678
 51
185.42477895154653
  0
LINE
  8
_0-1_レイヤ___3
  6
CONTINUOUS
 62
    7
 10
1378.3070986030716
 20
1505.822265190882
 11
1378.3070986030716
 21
1512.0222651908819
  0
ARC
  8
_0-1_レイヤ___3
  6
CONTINUOUS
 62
    7
 10
2126.2245568873795
 20
1511.869564688513
 40
747.91747387255441
 50
177.70479703864723
 51
179.98830205914197
  0
ARC
  8
_0-1_レイヤ___3
  6
CONTINUOUS
 62
    7
 10
1669.6580870061323
 20
1420.9948296066236
 40
228.28473914931433
 50
218.09766751706323
 51
238.94855242862161
  0
ARC
  8
_0-1_レイヤ___3
  6
CONTINUOUS
 62
    7
 10
1710.0205011021128
 20
1455.05979360796
 40
281.07301276973863
 50
203.1226401499064
 51
218.48579532181364
  0
ARC
  8
_0-1_レイヤ___3
  6
CONTINUOUS
 62
    7
 10
1789.6117028441572
 20
1492.7886668944632
 40
369.10256922750727
 50
192.81787402332077
 51
203.65702213367413
  0
ARC
  8
_0-1_レイヤ___3
  6
CONTINUOUS
 62
    7
 10
1900.1371198403021
 20
1520.7960819944337
 40
483.09528605994296
 50
183.91140635569218
 51
193.14866870902023
  0
ARC
  8
_0-1_レイヤ___3
  6
CONTINUOUS
 62
    7
 10
2020.6404668964772
 20
1532.8115059835725
 40
604.14931276984157
 50
180.41626660787398
 51
184.26870112098331
  0
LINE
  8
_0-1_レイヤ___3
  6
CONTINUOUS
 62
    7
 10
1416.5070986030717
 20
1528.4222651908819
 11
1416.5070986030717
 21
1534.0222651908816
  0
LINE
  8
_0-1_レイヤ___3
  6
CONTINUOUS
 62
    7
 10
1416.5070986030717
 20
1534.0222651908816
 11
1416.5070986030717
 21
1541.822265190882
  0
ARC
  8
_0-1_レイヤ___3
  6
CONTINUOUS
 62
    7
 10
1729.6130924600786
 20
1548.3161088761562
 40
274.91406375912254
 50
179.5610444709003
 51
182.22930294952533
  0
ARC
  8
_0-1_レイヤ___3
  6
CONTINUOUS
 62
    7
 10
1684.1673658699269
 20
1450.068442081646
 40
205.7481854059078
 50
217.23881819174625
 51
248.66353368557827
  0
ARC
  8
_0-1_レイヤ___3
  6
CONTINUOUS
 62
    7
 10
1723.4213573753332
 20
1483.4457355275958
 40
257.21240714980974
 50
203.835698981273
 51
217.86660986768322
  0
ARC
  8
_0-1_レイヤ___3
  6
CONTINUOUS
 62
    7
 10
1794.8292107486279
 20
1517.902777572426
 40
336.46488733694025
 50
192.36332053688938
 51
204.28886066599577
  0
ARC
  8
_0-1_レイヤ___3
  6
CONTINUOUS
 62
    7
 10
1915.1742907834923
 20
1547.5314435889834
 40
460.37385009928835
 50
181.23334100951746
 51
192.75840249397052
  0
ARC
  8
_0-1_レイヤ___3
  6
CONTINUOUS
 62
    7
 10
1704.6090772936568
 20
1488.136772960064
 40
191.27639646904305
 50
213.82461821426614
 51
262.21729448230872
  0
ARC
  8
_0-1_レイヤ___3
  6
CONTINUOUS
 62
    7
 10
1751.3400725027075
 20
1521.8009554316272
 40
248.84487681922835
 50
199.78666172188247
 51
214.27439490302098
  0
ARC
  8
_0-1_レイヤ___3
  6
CONTINUOUS
 62
    7
 10
1832.4109446697084
 20
1554.3414980549758
 40
336.15987736662964
 50
188.22292220680438
 51
200.32787704294967
  0
ARC
  8
_0-1_レイヤ___3
  6
CONTINUOUS
 62
    7
 10
1931.9041238620944
 20
1572.8833256249652
 40
437.30153906074696
 50
184.07308768612282
 51
188.76289466689755
  0
ARC
  8
_0-1_レイヤ___3
  6
CONTINUOUS
 62
    7
 10
1722.1825573230128
 20
1578.3682075226716
 40
231.24034324519511
 50
267.53251381114148
 51
281.80931466983498
  0
ARC
  8
_0-1_レイヤ___3
  6
CONTINUOUS
 62
    7
 10
1721.7146262334963
 20
1524.5790631194718
 40
177.49054929057684
 50
241.36166282951538
 51
266.93586658356173
  0
ARC
  8
_0-1_レイヤ___3
  6
CONTINUOUS
 62
    7
 10
1719.9272048758846
 20
1515.9250913379253
 40
169.05828034158452
 50
217.00891692084863
 51
240.48760482512142
  0
ARC
  8
_0-1_レイヤ___3
  6
CONTINUOUS
 62
    7
 10
1752.4173996737566
 20
1542.912405702858
 40
211.25719031437515
 50
202.88378093898604
 51
217.54955475908883
  0
ARC
  8
_0-1_レイヤ___3
  6
CONTINUOUS
 62
    7
 10
1814.8970812613404
 20
1571.7326484020064
 40
280.03565873116764
 50
190.95770410791116
 51
203.34534973227815
  0
ARC
  8
_0-1_レイヤ___3
  6
CONTINUOUS
 62
    7
 10
1889.6917222598322
 20
1589.6064049371389
 40
356.8796890827727
 50
187.79189916017376
 51
191.49242652559244
  0
ARC
  8
_0-1_レイヤ___3
  6
CONTINUOUS
 62
    7
 10
1731.3591145440776
 20
1661.4420664912416
 40
254.00212296854289
 50
278.66974416471868
 51
291.31970773246871
  0
ARC
  8
_0-1_レイヤ___3
  6
CONTINUOUS
 62
    7
 10
1743.817665249587
 20
1592.1000650786364
 40
183.58392198233099
 50
260.5219960440337
 51
278.08809245371543
  0
ARC
  8
_0-1_レイヤ___3
  6
CONTINUOUS
 62
    7
 10
1740.456061628523
 20
1555.332316524931
 40
146.79009447263888
 50
215.06421527676167
 51
259.45291593059659
  0
ARC
  8
_0-1_レイヤ___3
  6
CONTINUOUS
 62
    7
 10
1774.3834378540034
 20
1581.2462539950279
 40
189.45515727218316
 50
200.86055462711431
 51
215.58430196824776
  0
ARC
  8
_0-1_レイヤ___3
  6
CONTINUOUS
 62
    7
 10
1823.4936799557122
 20
1602.6026219289515
 40
242.96364715269004
 50
194.53583769411102
 51
201.44270020185454
  0
ARC
  8
_0-1_レイヤ___3
  6
CONTINUOUS
 62
    7
 10
1758.2651879109571
 20
1671.9866696459167
 40
197.38043492202931
 50
276.56948172121014
 51
289.05561467045447
  0
ARC
  8
_0-1_レイヤ___3
  6
CONTINUOUS
 62
    7
 10
1765.4894852021184
 20
1621.0709451517978
 40
145.97877156174664
 50
258.07554740554639
 51
276.0389423817287
  0
ARC
  8
_0-1_レイヤ___3
  6
CONTINUOUS
 62
    7
 10
1762.1080528978812
 20
1595.5012335153538
 40
120.27836666180497
 50
215.98888295042568
 51
257.13479210447832
  0
ARC
  8
_0-1_レイヤ___3
  6
CONTINUOUS
 62
    7
 10
1782.8661787411042
 20
1612.3744790392243
 40
146.99680357280675
 50
208.68262430889959
 51
216.55586183348703
  0
ARC
  8
_0-1_レイヤ___3
  6
CONTINUOUS
 62
    7
 10
1776.5480874051182
 20
1680.6674939226928
 40
159.572928576105
 50
272.9236354931196
 51
287.18947816371792
  0
ARC
  8
_0-1_レイヤ___3
  6
CONTINUOUS
 62
    7
 10
1780.186647372765
 20
1636.5022506279479
 40
115.28785995052195
 50
249.34876528679004
 51
272.23720044794425
  0
ARC
  8
_0-1_レイヤ___3
  6
CONTINUOUS
 62
    7
 10
1776.2061335179735
 20
1621.0761544505056
 40
99.463931561484458
 50
232.8265828798491
 51
248.36038927923693
  0
ARC
  8
_0-1_レイヤ___3
  6
CONTINUOUS
 62
    7
 10
2249.4029425248332
 20
671.9398230423252
 40
1365.137767314126
 50
140.41574689347866
 51
155.08562913530184
  0
ARC
  8
_0-1_レイヤ___3
  6
CONTINUOUS
 62
    7
 10
2115.3365295799367
 20
729.66376358192497
 40
1219.237792450956
 50
154.89177264246678
 51
157.13448704577837
  0
ARC
  8
_0-1_レイヤ___3
  6
CONTINUOUS
 62
    7
 10
2124.8656128726138
 20
729.37271114414102
 40
1205.2794950570362
 50
153.40772398198644
 51
164.80796425197548
  0
ARC
  8
_0-1_レイヤ___3
  6
CONTINUOUS
 62
    7
 10
2204.5419001842961
 20
695.88111229207527
 40
1291.5319797424449
 50
140.61570580941591
 51
153.66136829308894
  0
ARC
  8
_0-1_レイヤ___3
  6
CONTINUOUS
 62
    7
 10
2084.7831689337959
 20
787.37007365252225
 40
1140.9303018406913
 50
138.60391999657784
 51
140.35071989618419
  0
ARC
  8
_0-1_レイヤ___3
  6
CONTINUOUS
 62
    7
 10
1976.7551431415141
 20
782.60389122242691
 40
1021.790805192147
 50
159.81697640268442
 51
169.73875680426977
  0
ARC
  8
_0-1_レイヤ___3
  6
CONTINUOUS
 62
    7
 10
2152.0408183271466
 20
723.9264369850099
 40
1206.570112505975
 50
138.49757273267829
 51
160.07353258362787
  0
ARC
  8
_0-1_レイヤ___3
  6
CONTINUOUS
 62
    7
 10
2011.3910734354774
 20
838.1093599148719
 40
1025.5989213963655
 50
136.6740224431077
 51
138.0681261551014
  0
LINE
  8
_0-1_レイヤ___3
  6
CONTINUOUS
 62
    7
 10
995.70710460307191
 20
829.62227519088196
 11
995.70710460307191
 21
834.82227519088212
  0
LINE
  8
_0-1_レイヤ___3
  6
CONTINUOUS
 62
    7
 10
995.70710460307191
 20
834.82227519088212
 11
995.70710460307191
 21
840.42227519088215
  0
ARC
  8
_0-1_レイヤ___3
  6
CONTINUOUS
 62
    7
 10
1716.0072678924232
 20
839.9415017841352
 40
720.30032373846313
 50
171.61470463930249
 51
179.96175721675218
  0
ARC
  8
_0-1_レイヤ___3
  6
CONTINUOUS
 62
    7
 10
1887.5393699079088
 20
818.13688151230167
 40
893.1850961268641
 50
162.45025714528902
 51
171.83555634543262
  0
ARC
  8
_0-1_レイヤ___3
  6
CONTINUOUS
 62
    7
 10
2085.9231078475436
 20
759.7490766845641
 40
1099.9488827590581
 50
137.78207586125646
 51
162.66638756781862
  0
ARC
  8
_0-1_レイヤ___3
  6
CONTINUOUS
 62
    7
 10
1941.1327313863646
 20
883.09318782116236
 40
909.85599536354721
 50
133.61488521760319
 51
137.40774869633762
  0
LINE
  8
_0-1_レイヤ___3
  6
CONTINUOUS
 62
    7
 10
1033.907104603072
 20
851.82227519088224
 11
1033.907104603072
 21
856.82227519088224
  0
ARC
  8
_0-1_レイヤ___3
  6
CONTINUOUS
 62
    7
 10
1525.022081121982
 20
1375.3655045608311
 40
336.53430003573698
 50
27.435242194746355
 51
29.644728181168894
  0
LINE
  8
_0-1_レイヤ___3
  6
CONTINUOUS
 62
    7
 10
1033.907104603072
 20
856.82227519088224
 11
1033.907104603072
 21
862.42227519088203
  0
ARC
  8
_0-1_レイヤ___3
  6
CONTINUOUS
 62
    7
 10
1701.0429140098083
 20
861.76038737155386
 40
667.13613774721182
 50
170.83311435671533
 51
179.94315495348792
  0
ARC
  8
_0-1_レイヤ___3
  6
CONTINUOUS
 62
    7
 10
1864.0316612757133
 20
839.17719205878598
 40
831.64912070346588
 50
161.90642896075616
 51
171.08603035568939
  0
ARC
  8
_0-1_レイヤ___3
  6
CONTINUOUS
 62
    7
 10
2034.7134666941722
 20
787.18440622463845
 40
1010.0445672628728
 50
137.5137214770439
 51
162.10989625344359
  0
ARC
  8
_0-1_レイヤ___3
  6
CONTINUOUS
 62
    7
 10
1898.910416546337
 20
902.68212294713294
 40
831.91514706384146
 50
134.04851370917743
 51
137.0625563010401
  0
ARC
  8
_0-1_レイヤ___3
  6
CONTINUOUS
 62
    7
 10
1747.9189502863542
 20
878.58166025209448
 40
674.57120374106489
 50
165.09417839161571
 51
176.10345161758886
  0
ARC
  8
_0-1_レイヤ___3
  6
CONTINUOUS
 62
    7
 10
1937.2235606952247
 20
834.06381556412271
 40
868.97560532659156
 50
150.61248161410788
 51
165.46837412979374
  0
ARC
  8
_0-1_レイヤ___3
  6
CONTINUOUS
 62
    7
 10
1977.505967359315
 20
818.63312848621013
 40
911.66847557373512
 50
138.09938775376031
 51
151.00980843893353
  0
ARC
  8
_0-1_レイヤ___3
  6
CONTINUOUS
 62
    7
 10
1868.462823106204
 20
909.05199578039174
 40
770.14161327188344
 50
135.33591643387064
 51
137.68839851581063
  0
ARC
  8
_0-1_レイヤ___3
  6
CONTINUOUS
 62
    7
 10
1719.57021684031
 20
900.34394742798077
 40
608.39539359764319
 50
165.82191039834177
 51
175.67529251556994
  0
ARC
  8
_0-1_レイヤ___3
  6
CONTINUOUS
 62
    7
 10
1872.8241088996779
 20
865.68689910587545
 40
765.47993317427779
 50
153.97409329136246
 51
166.11652907732176
  0
ARC
  8
_0-1_レイヤ___3
  6
CONTINUOUS
 62
    7
 10
1933.5733340313529
 20
840.96674477904321
 40
830.92744867017564
 50
138.846504536905
 51
154.28038622912192
  0
ARC
  8
_0-1_レイヤ___3
  6
CONTINUOUS
 62
    7
 10
1834.9898977509079
 20
920.88401740552683
 40
704.1229777460245
 50
136.53902838134971
 51
138.46389212870588
  0
ARC
  8
_0-1_レイヤ___3
  6
CONTINUOUS
 62
    7
 10
1694.9628419383894
 20
925.60582106045615
 40
537.94952673205012
 50
165.04797449067402
 51
174.94321931230743
  0
ARC
  8
_0-1_レイヤ___3
  6
CONTINUOUS
 62
    7
 10
1829.1608213234215
 20
893.1057905646926
 40
675.99688812474847
 50
151.67744079946254
 51
165.32130077788463
  0
ARC
  8
_0-1_レイヤ___3
  6
CONTINUOUS
 62
    7
 10
1862.016904191237
 20
880.17333516567021
 40
711.06782335472883
 50
138.27571001902712
 51
152.01616884607685
  0
ARC
  8
_0-1_レイヤ___3
  6
CONTINUOUS
 62
    7
 10
1707.1440788246005
 20
945.96431442568473
 40
500.70912066383141
 50
158.82341163607217
 51
170.35876027903899
  0
ARC
  8
_0-1_レイヤ___3
  6
CONTINUOUS
 62
    7
 10
1796.8795048826328
 20
914.91585113456631
 40
595.61098127211449
 50
139.53945494091514
 51
159.1566906574466
  0
ARC
  8
_0-1_レイヤ___3
  6
CONTINUOUS
 62
    7
 10
1686.9298472235143
 20
964.70212246203573
 40
445.93902341081969
 50
155.02577403073349
 51
168.91740137450751
  0
ARC
  8
_0-1_レイヤ___3
  6
CONTINUOUS
 62
    7
 10
1748.941572531854
 20
940.46546981969504
 40
512.40279415575799
 50
140.26360163744113
 51
155.49670363308266
  0
ARC
  8
_0-1_レイヤ___3
  6
CONTINUOUS
 62
    7
 10
1669.5329100632196
 20
980.7991324643981
 40
393.24839388272329
 50
149.55502668053435
 51
166.52680100386789
  0
ARC
  8
_0-1_レイヤ___3
  6
CONTINUOUS
 62
    7
 10
1689.824106006512
 20
972.77219181737314
 40
414.82271974427783
 50
140.68048834539974
 51
150.01934096459578
  0
ARC
  8
_0-1_レイヤ___3
  6
CONTINUOUS
 62
    7
 10
1628.348069342883
 20
1005.8361431116621
 40
308.3154423124833
 50
141.01029803475441
 51
162.25160842050576
  0
ARC
  8
_0-1_レイヤ___3
  6
CONTINUOUS
 62
    7
 10
1588.7055632400702
 20
1025.9526039902826
 40
235.93292985696283
 50
140.93989467450197
 51
155.91833786543953
  0
LINE
  8
_0-2_決定
  6
CONTINUOUS
 62
    7
 10
1334.107098603072
 20
494.42228119088185
 11
874.50710660307232
 21
759.62227719088219
  0
LINE
  8
_0-2_決定
  6
CONTINUOUS
 62
    7
 10
874.50710660307232
 20
759.62227719088219
 11
1045.3071026030718
 21
858.22227519088187
  0
LINE
  8
_0-2_決定
  6
CONTINUOUS
 62
    7
 10
1045.3071026030718
 20
858.22227519088187
 11
1044.9071026030717
 21
851.22227519088199
  0
LINE
  8
_0-2_決定
  6
CONTINUOUS
 62
    7
 10
1044.9071026030717
 20
851.22227519088199
 11
1659.5070946030719
 21
496.42228119088202
  0
LINE
  8
_0-2_決定
  6
CONTINUOUS
 62
    7
 10
874.50710660307232
 20
1541.6222651908822
 11
874.50710660307232
 21
761.62227719088207
  0
LINE
  8
_0-2_決定
  6
CONTINUOUS
 62
    7
 10
874.50710660307232
 20
761.62227719088207
 11
1331.7070986030719
 21
496.42228119088202
  0
ARC
  8
_0-2_決定
  6
CONTINUOUS
 62
    7
 10
705.91416308553585
 20
1221.5179738484367
 40
6.0575680531158147
 50
324.52257114122659
 51
37.699147424676994
  0
ARC
  8
_0-2_決定
  6
CONTINUOUS
 62
    7
 10
699.85229158593734
 20
1225.0629430264926
 40
13.06671788373605
 50
303.30467319381199
 51
327.29215244617217
  0
ARC
  8
_0-2_決定
  6
CONTINUOUS
 62
    7
 10
693.18737669990787
 20
1234.1460376379471
 40
24.3246568575025
 50
277.36870302144331
 51
304.67766397648279
  0
ARC
  8
_0-2_決定
  6
CONTINUOUS
 62
    7
 10
685.73099931843649
 20
1233.6623143447694
 40
25.89798877284494
 50
267.86703018876858
 51
294.10283956051643
  0
ARC
  8
_0-2_決定
  6
CONTINUOUS
 62
    7
 10
685.58430190271588
 20
1221.44493602683
 40
13.687084056112674
 50
244.19930879480677
 51
266.57709490828336
  0
ARC
  8
_0-2_決定
  6
CONTINUOUS
 62
    7
 10
682.67984466905341
 20
1214.949454592891
 40
6.5783954881056941
 50
177.62318803513654
 51
242.35093190962556
  0
ARC
  8
_0-2_決定
  6
CONTINUOUS
 62
    7
 10
680.89783822465529
 20
1218.9265215658158
 40
6.0557886327313124
 50
144.51007219345459
 51
217.71164637244911
  0
ARC
  8
_0-2_決定
  6
CONTINUOUS
 62
    7
 10
686.71743267670172
 20
1215.4554170958124
 40
12.821293612052024
 50
122.71988614341446
 51
146.97934930044522
  0
ARC
  8
_0-2_決定
  6
CONTINUOUS
 62
    7
 10
693.16202973273244
 20
1206.6443409220465
 40
23.726932116375071
 50
96.424555995521246
 51
124.31221031097178
  0
ARC
  8
_0-2_決定
  6
CONTINUOUS
 62
    7
 10
701.52016017215283
 20
1206.2467515546889
 40
26.383948733778432
 50
88.551490470261953
 51
114.67148237751573
  0
ARC
  8
_0-2_決定
  6
CONTINUOUS
 62
    7
 10
701.47726103501464
 20
1219.1907415395117
 40
13.450272064884404
 50
64.219535205819668
 51
86.974769479381465
  0
ARC
  8
_0-2_決定
  6
CONTINUOUS
 62
    7
 10
704.39240008668185
 20
1225.691296364336
 40
6.3321031369055607
 50
355.75213614795086
 51
62.389071926232972
  0
ARC
  8
_0-2_決定
  6
CONTINUOUS
 62
    7
 10
761.50012043515608
 20
1285.2484438838287
 40
30.490177195113993
 50
283.6724416653924
 51
300.22135104417356
  0
ARC
  8
_0-2_決定
  6
CONTINUOUS
 62
    7
 10
773.29497483020668
 20
1264.6498788137692
 40
6.7566749595420452
 50
301.71685169071327
 51
319.9501385381833
  0
ARC
  8
_0-2_決定
  6
CONTINUOUS
 62
    7
 10
777.19046077742655
 20
1261.4611511327637
 40
1.7241902213378379
 50
317.76823881768939
 51
5.3618635364850649
  0
ARC
  8
_0-2_決定
  6
CONTINUOUS
 62
    7
 10
777.76358536867315
 20
1261.2511340566716
 40
1.202240450727559
 50
17.981079634886772
 51
60.963840061797534
  0
ARC
  8
_0-2_決定
  6
CONTINUOUS
 62
    7
 10
776.36021249630426
 20
1258.6156349528931
 40
4.1879613412996477
 50
61.677762225045782
 51
81.944146375667799
  0
ARC
  8
_0-2_決定
  6
CONTINUOUS
 62
    7
 10
774.89576761603553
 20
1250.2141822651952
 40
12.714655997482742
 50
80.715515968736895
 51
91.841857501767123
  0
ARC
  8
_0-2_決定
  6
CONTINUOUS
 62
    7
 10
775.2814047749805
 20
1233.7547738038695
 40
29.178308668209084
 50
91.559910691402365
 51
105.86045406667078
  0
ARC
  8
_0-2_決定
  6
CONTINUOUS
 62
    7
 10
773.22091331166439
 20
1234.5530232777319
 40
27.903133494344651
 50
102.23609614161721
 51
119.48500663950739
  0
ARC
  8
_0-2_決定
  6
CONTINUOUS
 62
    7
 10
763.63744927071389
 20
1251.7265608470568
 40
8.2376351516599193
 50
120.25349810147704
 51
136.44921153198223
  0
ARC
  8
_0-2_決定
  6
CONTINUOUS
 62
    7
 10
758.87335839087859
 20
1256.1091533349602
 40
1.7683854691269427
 50
133.00947229364266
 51
182.81618449987772
  0
ARC
  8
_0-2_決定
  6
CONTINUOUS
 62
    7
 10
758.32708927648832
 20
1256.3555885661278
 40
1.264695476952701
 50
195.28122850485701
 51
236.39407740374082
  0
ARC
  8
_0-2_決定
  6
CONTINUOUS
 62
    7
 10
759.60651795023045
 20
1258.2551141976769
 40
3.55490576496359
 50
236.16448219557077
 51
257.66525045881212
  0
ARC
  8
_0-2_決定
  6
CONTINUOUS
 62
    7
 10
761.05160644033072
 20
1264.7804571583979
 40
10.238338407586443
 50
257.56581975166995
 51
270.31060267086514
  0
ARC
  8
_0-2_決定
  6
CONTINUOUS
 62
    7
 10
761.27367215113259
 20
1277.1895829201294
 40
22.647926231037331
 50
269.5786159730381
 51
278.00371540169931
  0
ARC
  8
_0-2_決定
  6
CONTINUOUS
 62
    7
 10
759.8142160246814
 20
1288.799688069379
 40
34.348575834378259
 50
277.71794029496454
 51
285.00488200096015
  0
ARC
  8
_0-2_決定
  6
CONTINUOUS
 62
    7
 10
755.34788507916141
 20
1487.181488714793
 40
4.9617789240024583
 50
271.83893771165754
 51
358.1610622883374
  0
ARC
  8
_0-2_決定
  6
CONTINUOUS
 62
    7
 10
755.71696811794163
 20
1487.2321247057519
 40
5.0142530226059376
 50
182.39867783169387
 51
267.6013221683113
  0
ARC
  8
_0-2_決定
  6
CONTINUOUS
 62
    7
 10
755.6488534064365
 20
1486.880520387517
 40
4.943777229089811
 50
91.642972918947919
 51
178.35702708105208
  0
ARC
  8
_0-2_決定
  6
CONTINUOUS
 62
    7
 10
755.41473238244203
 20
1486.929888970252
 40
4.8932482514503359
 50
1.0817113152084326
 51
88.918288684791577
  0
ARC
  8
_0-2_決定
  6
CONTINUOUS
 62
    7
 10
731.60932416682749
 20
1385.5200516271268
 40
2.4996977589135967
 50
272.24189719581591
 51
357.75810280418409
  0
ARC
  8
_0-2_決定
  6
CONTINUOUS
 62
    7
 10
731.82431062535534
 20
1385.3380357113087
 40
2.3187324455889731
 50
177.91818570674221
 51
267.10270844926447
  0
ARC
  8
_0-2_決定
  6
CONTINUOUS
 62
    7
 10
732.16584135071594
 20
1385.4033394813368
 40
2.6588001206532015
 50
99.935169263710193
 51
179.59211411773319
  0
ARC
  8
_0-2_決定
  6
CONTINUOUS
 62
    7
 10
731.49388777653235
 20
1385.4177556586915
 40
2.6132247209497628
 50
0.0989168210402248
 51
85.319863093686891
  0
ARC
  8
_0-2_決定
  6
CONTINUOUS
 62
    7
 10
743.26144637890343
 20
1322.917466906169
 40
1.0499867104152758
 50
310.76967880444602
 51
354.79809808092324
  0
ARC
  8
_0-2_決定
  6
CONTINUOUS
 62
    7
 10
741.93997042227102
 20
1324.3376989838623
 40
2.9894368774823219
 50
288.4712214695727
 51
312.17599225556228
  0
ARC
  8
_0-2_決定
  6
CONTINUOUS
 62
    7
 10
741.16205457952924
 20
1326.6708269119783
 40
5.4488347653828253
 50
269.42222033795753
 51
288.4569096683316
  0
ARC
  8
_0-2_決定
  6
CONTINUOUS
 62
    7
 10
740.94382275872567
 20
1325.5354224616005
 40
4.3162429731971201
 50
228.91192695082549
 51
272.1680481786056
  0
ARC
  8
_0-2_決定
  6
CONTINUOUS
 62
    7
 10
738.77406313469487
 20
1322.8363264248162
 40
0.8670684896404541
 50
180.92894099225876
 51
219.71733266703177
  0
ARC
  8
_0-2_決定
  6
CONTINUOUS
 62
    7
 10
739.03357285572633
 20
1322.7963602771877
 40
1.1267621684794644
 50
132.86209198551586
 51
178.68241737858082
  0
ARC
  8
_0-2_決定
  6
CONTINUOUS
 62
    7
 10
739.94973683224566
 20
1321.7278698120122
 40
2.5337692800004392
 50
106.09945584319172
 51
131.61186659626469
  0
ARC
  8
_0-2_決定
  6
CONTINUOUS
 62
    7
 10
741.00103040045474
 20
1318.3980594095983
 40
6.025143655879619
 50
88.991202917527474
 51
106.92384753629298
  0
ARC
  8
_0-2_決定
  6
CONTINUOUS
 62
    7
 10
741.26542760876669
 20
1318.8584560492484
 40
5.5660651795122895
 50
69.802975563575245
 51
91.629918825911432
  0
ARC
  8
_0-2_決定
  6
CONTINUOUS
 62
    7
 10
742.70762105415338
 20
1322.5282802585104
 40
1.6262810063153119
 50
10.414832372882797
 51
72.852246300260802
  0
ARC
  8
_0-2_決定
  6
CONTINUOUS
 62
    7
 10
766.03417117585968
 20
1352.2706689454021
 40
1.2738573010501744
 50
315.78036584104365
 51
357.82245313163889
  0
ARC
  8
_0-2_決定
  6
CONTINUOUS
 62
    7
 10
765.03189690330623
 20
1353.2735354717652
 40
2.6916410543002591
 50
289.87809051089818
 51
315.36039563150456
  0
ARC
  8
_0-2_決定
  6
CONTINUOUS
 62
    7
 10
764.170764465616
 20
1355.5062459812584
 40
5.0843772883049043
 50
269.28264419672792
 51
290.44896968942476
  0
ARC
  8
_0-2_決定
  6
CONTINUOUS
 62
    7
 10
763.94190824896918
 20
1354.5142217824921
 40
4.0952879675051825
 50
227.34680398138832
 51
272.31188919491933
  0
ARC
  8
_0-2_決定
  6
CONTINUOUS
 62
    7
 10
762.08289952824111
 20
1352.2399139138593
 40
1.1759233421196698
 50
180.85985256515335
 51
218.85057617343654
  0
ARC
  8
_0-2_決定
  6
CONTINUOUS
 62
    7
 10
761.95277082724124
 20
1352.1270694755954
 40
1.0499867104159504
 50
130.76967880446495
 51
174.79809808094217
  0
ARC
  8
_0-2_決定
  6
CONTINUOUS
 62
    7
 10
763.27424678387138
 20
1350.7068373979032
 40
2.9894368774804287
 50
108.4712214695632
 51
132.17599225555276
  0
ARC
  8
_0-2_決定
  6
CONTINUOUS
 62
    7
 10
764.05216262661588
 20
1348.373709469784
 40
5.4488347653847233
 50
89.422220337968113
 51
108.45690966834216
  0
ARC
  8
_0-2_決定
  6
CONTINUOUS
 62
    7
 10
764.27039444741786
 20
1349.5091139201643
 40
4.3162429731965855
 50
48.911926950814824
 51
92.168048178594915
  0
ARC
  8
_0-2_決定
  6
CONTINUOUS
 62
    7
 10
766.44015407144911
 20
1352.2082099569468
 40
0.8670684896407514
 50
0.9289409923117956
 51
39.717332667084797
  0
ARC
  8
_0-2_決定
  6
CONTINUOUS
 62
    7
 10
777.22555756093152
 20
1531.9238875561755
 40
12.085232991983945
 50
346.303034300918
 51
1.4147444653308536
  0
ARC
  8
_0-2_決定
  6
CONTINUOUS
 62
    7
 10
785.91689576191948
 20
1529.6893339193025
 40
3.1140008615360899
 50
321.29852512058778
 51
348.38287104734218
  0
ARC
  8
_0-2_決定
  6
CONTINUOUS
 62
    7
 10
787.67160065390294
 20
1528.2932770892198
 40
0.8717352806172331
 50
272.33431407277504
 51
320.79578828140126
  0
ARC
  8
_0-2_決定
  6
CONTINUOUS
 62
    7
 10
787.83089282050901
 20
1528.2814013236762
 40
0.8680080197210314
 50
213.50398988245797
 51
261.80112311859597
  0
ARC
  8
_0-2_決定
  6
CONTINUOUS
 62
    7
 10
790.22845375897327
 20
1530.0340531830334
 40
3.8371455158182095
 50
195.28867940930576
 51
215.56506892991703
  0
ARC
  8
_0-2_決定
  6
CONTINUOUS
 62
    7
 10
796.93307773298534
 20
1532.0156114016822
 40
10.827943327072976
 50
178.90643047306688
 51
196.0482301402443
  0
ARC
  8
_0-2_決定
  6
CONTINUOUS
 62
    7
 10
797.41229655344432
 20
1532.2912071280775
 40
11.305400161192726
 50
165.49784367135038
 51
180.3493999733758
  0
ARC
  8
_0-2_決定
  6
CONTINUOUS
 62
    7
 10
790.67789936926692
 20
1534.2149965492081
 40
4.3074252295312325
 50
145.05468807576568
 51
167.84078457845672
  0
ARC
  8
_0-2_決定
  6
CONTINUOUS
 62
    7
 10
787.77292721390927
 20
1536.2826783024434
 40
0.7425100122970314
 50
95.085722541357441
 51
147.44174084735798
  0
ARC
  8
_0-2_決定
  6
CONTINUOUS
 62
    7
 10
787.64260738352868
 20
1536.1190166217189
 40
0.9055485227288846
 50
36.863527658574107
 51
85.91555300955423
  0
ARC
  8
_0-2_決定
  6
CONTINUOUS
 62
    7
 10
785.72614857568647
 20
1534.7133903358058
 40
3.2821901991139777
 50
14.26716361649291
 51
36.425188267366067
  0
ARC
  8
_0-2_決定
  6
CONTINUOUS
 62
    7
 10
777.89932622863626
 20
1532.5137463576164
 40
11.411503596893809
 50
358.53634912714381
 51
15.286105110913775
  0
ARC
  8
_0-2_決定
  6
CONTINUOUS
 62
    7
 10
809.48110942724406
 20
1490.0291110188623
 40
12.027548237574983
 50
345.9159402289124
 51
0.9201704607304048
  0
ARC
  8
_0-2_決定
  6
CONTINUOUS
 62
    7
 10
817.94262998575641
 20
1487.7499934771736
 40
3.2692846807497866
 50
321.66662430090508
 51
348.57264198071857
  0
ARC
  8
_0-2_決定
  6
CONTINUOUS
 62
    7
 10
819.87375847186081
 20
1486.2389614533045
 40
0.817376830421414
 50
272.33825767890573
 51
320.79184467529365
  0
ARC
  8
_0-2_決定
  6
CONTINUOUS
 62
    7
 10
820.03587346444056
 20
1486.2514356634961
 40
0.8391093952770257
 50
212.36387201096773
 51
261.17270585305192
  0
ARC
  8
_0-2_決定
  6
CONTINUOUS
 62
    7
 10
822.77142124536817
 20
1488.1804104104031
 40
4.1855558818709504
 50
194.92693748458368
 51
214.62334365307379
  0
ARC
  8
_0-2_決定
  6
CONTINUOUS
 62
    7
 10
829.25119470697973
 20
1490.1072385894861
 40
10.944692574263017
 50
179.39782135674545
 51
195.93578716689456
  0
ARC
  8
_0-2_決定
  6
CONTINUOUS
 62
    7
 10
830.56978295141698
 20
1490.3307738557826
 40
12.263156418908585
 50
166.07334682262669
 51
180.50697956185886
  0
ARC
  8
_0-2_決定
  6
CONTINUOUS
 62
    7
 10
822.95093018585271
 20
1492.4061401682004
 40
4.3724980896233658
 50
145.50771382453772
 51
168.44130215841528
  0
ARC
  8
_0-2_決定
  6
CONTINUOUS
 62
    7
 10
819.97004083944353
 20
1494.4874323309759
 40
0.7375229149697798
 50
94.895111051711936
 51
147.63235233701559
  0
ARC
  8
_0-2_決定
  6
CONTINUOUS
 62
    7
 10
819.84606016014231
 20
1494.3253467121781
 40
0.8989935626214669
 50
36.67276504464094
 51
86.10631562340788
  0
ARC
  8
_0-2_決定
  6
CONTINUOUS
 62
    7
 10
817.83743743184596
 20
1492.8995352311676
 40
3.3620533426911976
 50
13.46274570787967
 51
35.71748862453866
  0
ARC
  8
_0-2_決定
  6
CONTINUOUS
 62
    7
 10
809.2831148040957
 20
1490.5622083355083
 40
12.228717710497069
 50
358.40704337298411
 51
14.781986691478439
  0
ARC
  8
_0-2_決定
  6
CONTINUOUS
 62
    7
 10
726.1485873350548
 20
1441.1918446960299
 40
11.605252349004779
 50
156.48471556004449
 51
171.62449263810981
  0
ARC
  8
_0-2_決定
  6
CONTINUOUS
 62
    7
 10
718.12888428895144
 20
1442.222587786549
 40
3.5240697802184417
 50
169.21101361727023
 51
195.13847461196983
  0
ARC
  8
_0-2_決定
  6
CONTINUOUS
 62
    7
 10
715.48760210982118
 20
1441.5139078837251
 40
0.7893935372644782
 50
195.55155988058533
 51
241.18341088911779
  0
ARC
  8
_0-2_決定
  6
CONTINUOUS
 62
    7
 10
715.36729125929378
 20
1441.5407146129933
 40
0.76410844317859
 50
250.0923627384318
 51
303.32731087707793
  0
ARC
  8
_0-2_決定
  6
CONTINUOUS
 62
    7
 10
713.87526523072984
 20
1443.9515508698014
 40
3.5990659947952826
 50
302.08693660165977
 51
322.93395755431732
  0
ARC
  8
_0-2_決定
  6
CONTINUOUS
 62
    7
 10
705.0849902729417
 20
1450.9748475644851
 40
14.84952988720886
 50
321.75331009719741
 51
334.67218365946121
  0
ARC
  8
_0-2_決定
  6
CONTINUOUS
 62
    7
 10
708.15695245100437
 20
1449.0484216775667
 40
11.256845735470424
 50
336.8464463777849
 51
352.1053316287136
  0
ARC
  8
_0-2_決定
  6
CONTINUOUS
 62
    7
 10
715.76050533738999
 20
1448.1470132191243
 40
3.6047319130665501
 50
349.69657550142307
 51
14.708620822129397
  0
ARC
  8
_0-2_決定
  6
CONTINUOUS
 62
    7
 10
718.49792527443378
 20
1448.8801975525528
 40
0.7709896322973465
 50
13.659454422182243
 51
74.25729222578704
  0
ARC
  8
_0-2_決定
  6
CONTINUOUS
 62
    7
 10
718.44639490303416
 20
1448.9083336412009
 40
0.7600478581955114
 50
69.938856796963677
 51
123.48081681852231
  0
ARC
  8
_0-2_決定
  6
CONTINUOUS
 62
    7
 10
719.84429929894623
 20
1446.7215678270131
 40
3.3553728446332274
 50
122.79101481702916
 51
144.66292514284618
  0
ARC
  8
_0-2_決定
  6
CONTINUOUS
 62
    7
 10
726.68968000026462
 20
1441.3929311924642
 40
12.027839392018558
 50
142.81605607512819
 51
158.39183821498875
  0
ARC
  8
_0-2_決定
  6
CONTINUOUS
 62
    7
 10
786.29227894287374
 20
1406.5464867175042
 40
6.2152896574584906
 50
324.10289643520787
 51
0.698601210535779
  0
ARC
  8
_0-2_決定
  6
CONTINUOUS
 62
    7
 10
789.11455948453954
 20
1404.6114756903594
 40
2.7958466421481063
 50
273.94902801076853
 51
322.3136567173558
  0
ARC
  8
_0-2_決定
  6
CONTINUOUS
 62
    7
 10
789.36861613900101
 20
1404.0020473879906
 40
2.1806478694911733
 50
236.56521973063369
 51
268.38364352193838
  0
ARC
  8
_0-2_決定
  6
CONTINUOUS
 62
    7
 10
790.67211012196344
 20
1405.7977814401931
 40
4.398520878275952
 50
194.15330677778965
 51
235.28390636436069
  0
ARC
  8
_0-2_決定
  6
CONTINUOUS
 62
    7
 10
792.44546949591063
 20
1406.6493771213291
 40
6.3384208687687433
 50
180.24505935556024
 51
197.70019387421539
  0
ARC
  8
_0-2_決定
  6
CONTINUOUS
 62
    7
 10
792.17182582402279
 20
1406.6276335403445
 40
6.064721595149889
 50
142.70614327358132
 51
180.05069799345102
  0
ARC
  8
_0-2_決定
  6
CONTINUOUS
 62
    7
 10
789.64502769081355
 20
1408.555905287335
 40
2.8862122624031712
 50
96.723677936296781
 51
142.7660846575975
  0
ARC
  8
_0-2_決定
  6
CONTINUOUS
 62
    7
 10
789.20949599154915
 20
1408.7455415406121
 40
2.6785048139392704
 50
30.929993012547321
 51
87.911553242477098
  0
ARC
  8
_0-2_決定
  6
CONTINUOUS
 62
    7
 10
786.60623207719345
 20
1406.8291601834885
 40
5.9045003921206565
 50
357.99195163506454
 51
33.8988401667701
  0
ARC
  8
_0-2_決定
  6
CONTINUOUS
 62
    7
 10
847.14628560988876
 20
1256.0539681515043
 40
8.9683866178637146
 50
2.3536040399271032
 51
90.250301305229257
  0
ARC
  8
_0-2_決定
  6
CONTINUOUS
 62
    7
 10
847.3646050304651
 20
1255.7434917668656
 40
9.2823496984623581
 50
91.589626173231323
 51
175.80646848160865
  0
ARC
  8
_0-2_決定
  6
CONTINUOUS
 62
    7
 10
847.12009637442543
 20
1256.8451654632286
 40
9.0229056226742639
 50
182.68639089511416
 51
269.91751445004678
  0
ARC
  8
_0-2_決定
  6
CONTINUOUS
 62
    7
 10
846.81328021731565
 20
1257.1390642457436
 40
9.321427146057653
 50
271.8063544034768
 51
355.58974025136587
  0
ARC
  8
_0-2_決定
  6
CONTINUOUS
 62
    7
 10
814.81282683290283
 20
1319.7402269376846
 40
3.4962701758076968
 50
308.4539557013274
 51
358.06657851774526
  0
ARC
  8
_0-2_決定
  6
CONTINUOUS
 62
    7
 10
811.67317437167776
 20
1323.0994350550354
 40
8.0878493640055673
 50
281.07721386382889
 51
311.07349730406389
  0
ARC
  8
_0-2_決定
  6
CONTINUOUS
 62
    7
 10
810.3328634357772
 20
1327.3098869805863
 40
12.487644352565873
 50
269.88182247889398
 51
283.40121579713002
  0
ARC
  8
_0-2_決定
  6
CONTINUOUS
 62
    7
 10
810.20999978833083
 20
1326.5227067989781
 40
11.700840566148019
 50
243.59842639145415
 51
270.47551066827759
  0
ARC
  8
_0-2_決定
  6
CONTINUOUS
 62
    7
 10
807.62649833247929
 20
1321.1456507824464
 40
5.7363504688270561
 50
208.11689917218831
 51
242.83011694528597
  0
ARC
  8
_0-2_決定
  6
CONTINUOUS
 62
    7
 10
805.25759519746293
 20
1319.6537327794754
 40
2.9506563512270381
 50
180.61097084346878
 51
204.24091488733558
  0
ARC
  8
_0-2_決定
  6
CONTINUOUS
 62
    7
 10
805.87445434602409
 20
1319.5608939442207
 40
3.567875676091675
 50
130.29330915803817
 51
179.01433895807298
  0
ARC
  8
_0-2_決定
  6
CONTINUOUS
 62
    7
 10
808.61975151644265
 20
1316.5616919523045
 40
7.6324455165523588
 50
100.66604026388413
 51
131.45224239086605
  0
ARC
  8
_0-2_決定
  6
CONTINUOUS
 62
    7
 10
810.26955323479251
 20
1311.2184231955048
 40
13.203899398477228
 50
89.837044168184221
 51
103.41102110084324
  0
ARC
  8
_0-2_決定
  6
CONTINUOUS
 62
    7
 10
810.43455908490705
 20
1312.333514484443
 40
12.089426557433566
 50
64.248140001127041
 51
90.604050534635746
  0
ARC
  8
_0-2_決定
  6
CONTINUOUS
 62
    7
 10
813.251181651764
 20
1318.4263442395736
 40
5.3790916061159963
 50
26.92672418335248
 51
63.073275816657855
  0
ARC
  8
_0-2_決定
  6
CONTINUOUS
 62
    7
 10
815.1092646488396
 20
1319.5990120069314
 40
3.1979265252431608
 50
0.4166919470920178
 51
23.267460283525967
  0
ARC
  8
_0-2_決定
  6
CONTINUOUS
 62
    7
 10
806.7988716874263
 20
1245.9305041065277
 40
8.3139506960755778
 50
272.12469482834035
 51
357.87530517166266
  0
ARC
  8
_0-2_決定
  6
CONTINUOUS
 62
    7
 10
807.41534151871838
 20
1245.9305041065281
 40
8.3139506960758762
 50
182.12469482833936
 51
267.87530517166164
  0
ARC
  8
_0-2_決定
  6
CONTINUOUS
 62
    7
 10
807.41534151871838
 20
1245.3140342752363
 40
8.3139506960758762
 50
92.124694828338349
 51
177.87530517166061
  0
ARC
  8
_0-2_決定
  6
CONTINUOUS
 62
    7
 10
806.7988716874263
 20
1245.3140342752365
 40
8.3139506960755778
 50
2.1246948283373319
 51
87.875305171659591
  0
ARC
  8
_0-2_決定
  6
CONTINUOUS
 62
    7
 10
709.23299353747007
 20
1273.7383732875055
 40
9.140958798332413
 50
319.33885137145347
 51
18.390495012693584
  0
ARC
  8
_0-2_決定
  6
CONTINUOUS
 62
    7
 10
706.56545463357156
 20
1275.6749692568587
 40
12.429258758328391
 50
287.51983651626909
 51
320.57929496084836
  0
ARC
  8
_0-2_決定
  6
CONTINUOUS
 62
    7
 10
706.50686383147081
 20
1275.1346023811518
 40
11.933597216755743
 50
226.33291160500247
 51
288.56916641521138
  0
ARC
  8
_0-2_決定
  6
CONTINUOUS
 62
    7
 10
704.77192238956059
 20
1272.4133898293126
 40
8.7894225975870413
 50
199.89570822855288
 51
222.26237104159935
  0
ARC
  8
_0-2_決定
  6
CONTINUOUS
 62
    7
 10
705.42791075775222
 20
1272.076783758022
 40
9.3073712008334439
 50
137.85372043348178
 51
196.57113982713952
  0
ARC
  8
_0-2_決定
  6
CONTINUOUS
 62
    7
 10
708.16330281780006
 20
1270.2740634059785
 40
12.555072891070987
 50
107.88709753157514
 51
140.13117007521825
  0
ARC
  8
_0-2_決定
  6
CONTINUOUS
 62
    7
 10
708.0312282770185
 20
1270.157803751561
 40
12.626178902678761
 50
57.973108152663173
 51
107.15467313492725
  0
ARC
  8
_0-2_決定
  6
CONTINUOUS
 62
    7
 10
709.84463791872622
 20
1273.8879161776229
 40
8.5135257054320839
 50
18.734150831935846
 51
55.005644459752197
  0
ARC
  8
_0-2_決定
  6
CONTINUOUS
 62
    7
 10
747.3868403991346
 20
1452.0737448196001
 40
2.5207938761499058
 50
300.52291602272254
 51
358.82987025216539
  0
ARC
  8
_0-2_決定
  6
CONTINUOUS
 62
    7
 10
746.27378800514884
 20
1453.7535917948258
 40
4.5343891197584316
 50
267.8933924667358
 51
301.85797153655585
  0
ARC
  8
_0-2_決定
  6
CONTINUOUS
 62
    7
 10
746.0626279455571
 20
1453.7674451245286
 40
4.5453955798589956
 50
227.76113215582075
 51
270.56069809081595
  0
ARC
  8
_0-2_決定
  6
CONTINUOUS
 62
    7
 10
744.69252327148092
 20
1452.091767356244
 40
2.3864269134513298
 50
181.6688670601981
 51
225.06935926676778
  0
ARC
  8
_0-2_決定
  6
CONTINUOUS
 62
    7
 10
745.02443466384784
 20
1451.9681462816957
 40
2.7178649696744146
 50
122.42550053750034
 51
178.85899237692405
  0
ARC
  8
_0-2_決定
  6
CONTINUOUS
 62
    7
 10
746.03989481940721
 20
1450.6224290468151
 40
4.4003515071754205
 50
89.124793578372618
 51
124.19089753479139
  0
ARC
  8
_0-2_決定
  6
CONTINUOUS
 62
    7
 10
746.23949403753932
 20
1450.6492383647064
 40
4.3750322304894969
 50
47.643967984813202
 51
91.733995148866128
  0
ARC
  8
_0-2_決定
  6
CONTINUOUS
 62
    7
 10
747.21417350641468
 20
1452.0491955405632
 40
2.6930697300340971
 50
359.42708260386644
 51
42.895437029787203
  0
ARC
  8
_0-2_決定
  6
CONTINUOUS
 62
    7
 10
825.25427218061191
 20
1513.6942982985024
 40
2.0540978395956939
 50
324.52697967861178
 51
357.99033943100443
  0
ARC
  8
_0-2_決定
  6
CONTINUOUS
 62
    7
 10
823.5669318372411
 20
1515.0025227220185
 40
4.1883245073577138
 50
266.44333805389169
 51
323.34759703663758
  0
ARC
  8
_0-2_決定
  6
CONTINUOUS
 62
    7
 10
823.27633152218687
 20
1515.667790395263
 40
4.8456229333177152
 50
229.15320084679774
 51
270.36389420462098
  0
ARC
  8
_0-2_決定
  6
CONTINUOUS
 62
    7
 10
821.71909476687711
 20
1513.8058395927605
 40
2.4189639235342715
 50
184.35234300045013
 51
228.21047904217147
  0
ARC
  8
_0-2_決定
  6
CONTINUOUS
 62
    7
 10
821.75358839629644
 20
1513.5297910669369
 40
2.4482288757749897
 50
118.45441753049084
 51
177.83531770461352
  0
ARC
  8
_0-2_決定
  6
CONTINUOUS
 62
    7
 10
823.19003574202065
 20
1511.483660788258
 40
4.9399918048639204
 50
88.642043442663663
 51
121.79688621967853
  0
ARC
  8
_0-2_決定
  6
CONTINUOUS
 62
    7
 10
823.39128139147397
 20
1511.4979633031157
 40
4.9250212666404556
 50
49.846707882714874
 51
90.979304390438898
  0
ARC
  8
_0-2_決定
  6
CONTINUOUS
 62
    7
 10
824.95053175767475
 20
1513.5458838582022
 40
2.3578123568131799
 50
1.8564216067825337
 51
46.715228704563479
  0
ARC
  8
_0-2_決定
  6
CONTINUOUS
 62
    7
 10
862.5542879953523
 20
1523.782220522256
 40
8.3529145972499723
 50
314.86837833279913
 51
0.2746824795640731
  0
ARC
  8
_0-2_決定
  6
CONTINUOUS
 62
    7
 10
864.73371931432348
 20
1521.9197589423884
 40
5.5002273316431891
 50
271.80647187237304
 51
312.46451188383088
  0
ARC
  8
_0-2_決定
  6
CONTINUOUS
 62
    7
 10
865.05157936297587
 20
1521.9947589017993
 40
5.5743662004363683
 50
210.06304912150188
 51
268.51487934631439
  0
ARC
  8
_0-2_決定
  6
CONTINUOUS
 62
    7
 10
867.22454131749055
 20
1523.7001036807164
 40
8.3183317836681088
 50
179.15853433681744
 51
212.73225746503016
  0
ARC
  8
_0-2_決定
  6
CONTINUOUS
 62
    7
 10
866.67539405236334
 20
1523.7961700373342
 40
7.7683312784575955
 50
118.51309433179961
 51
179.80753331412754
  0
ARC
  8
_0-2_決定
  6
CONTINUOUS
 62
    7
 10
864.92224151583764
 20
1526.0443608639666
 40
4.9779273350967159
 50
90.174202615349103
 51
113.1263962597103
  0
ARC
  8
_0-2_決定
  6
CONTINUOUS
 62
    7
 10
864.76202154948419
 20
1525.4076673621262
 40
5.6164720645120978
 50
30.784839527692778
 51
88.519767224962933
  0
ARC
  8
_0-2_決定
  6
CONTINUOUS
 62
    7
 10
862.92585953886623
 20
1523.8854387055126
 40
7.9814970771680471
 50
359.54649941933303
 51
33.427228213468993
  0
ARC
  8
_0-2_決定
  6
CONTINUOUS
 62
    7
 10
773.67131595183514
 20
1539.7086547012573
 40
1.0393870408528132
 50
309.11949332820438
 51
355.23231390328664
  0
ARC
  8
_0-2_決定
  6
CONTINUOUS
 62
    7
 10
772.19210655677307
 20
1541.4043587085062
 40
3.2891787985201089
 50
288.34082256552955
 51
310.47364467645235
  0
ARC
  8
_0-2_決定
  6
CONTINUOUS
 62
    7
 10
770.35564182731173
 20
1546.9474311482145
 40
9.1285498581323914
 50
268.43987655759082
 51
288.33418819972684
  0
ARC
  8
_0-2_決定
  6
CONTINUOUS
 62
    7
 10
770.00074542525772
 20
1548.517824389357
 40
10.69608805562458
 50
255.08158605815112
 51
270.56976546887824
  0
ARC
  8
_0-2_決定
  6
CONTINUOUS
 62
    7
 10
768.21457118582407
 20
1542.2125421539238
 40
4.1447697460593371
 50
233.46458244253384
 51
256.50163060127261
  0
ARC
  8
_0-2_決定
  6
CONTINUOUS
 62
    7
 10
766.31149951208181
 20
1539.7186597854279
 40
1.0090059543722618
 50
185.4820680855951
 51
235.98890731820728
  0
ARC
  8
_0-2_決定
  6
CONTINUOUS
 62
    7
 10
766.13627907568593
 20
1539.4934983295143
 40
0.8391093952766487
 50
122.363872011007
 51
171.1727058530912
  0
ARC
  8
_0-2_決定
  6
CONTINUOUS
 62
    7
 10
768.06525382259247
 20
1536.7579505485855
 40
4.1855558818715295
 50
104.92693748457376
 51
124.62334365306387
  0
ARC
  8
_0-2_決定
  6
CONTINUOUS
 62
    7
 10
769.9920820016755
 20
1530.2781770869751
 40
10.944692574261971
 50
89.397821356743577
 51
105.93578716689267
  0
ARC
  8
_0-2_決定
  6
CONTINUOUS
 62
    7
 10
770.20961693225763
 20
1530.8002471028408
 40
10.422522198825607
 50
74.88646148632381
 51
90.563528597893438
  0
ARC
  8
_0-2_決定
  6
CONTINUOUS
 62
    7
 10
772.08285485803776
 20
1537.1422565743455
 40
3.8146072527992581
 50
52.838767857706749
 51
77.213350251616774
  0
ARC
  8
_0-2_決定
  6
CONTINUOUS
 62
    7
 10
773.94822597797338
 20
1539.5600476908253
 40
0.761426831982792
 50
4.6869625482515271
 51
54.802800045695555
  0
ARC
  8
_0-2_決定
  6
CONTINUOUS
 62
    7
 10
782.11622280682127
 20
1431.5008306483542
 40
1.3931008404001219
 50
316.52176183851964
 51
356.76710844290022
  0
ARC
  8
_0-2_決定
  6
CONTINUOUS
 62
    7
 10
780.52626037826462
 20
1433.0057465790762
 40
3.582336078755203
 50
295.12157275055483
 51
316.55373315801165
  0
ARC
  8
_0-2_決定
  6
CONTINUOUS
 62
    7
 10
778.43862913278576
 20
1437.1369289226257
 40
8.2101611014164195
 50
281.86796452918639
 51
296.0728510877791
  0
ARC
  8
_0-2_決定
  6
CONTINUOUS
 62
    7
 10
777.51912644566096
 20
1441.1076529495244
 40
12.285391638660103
 50
269.94394266126102
 51
282.25617725937252
  0
ARC
  8
_0-2_決定
  6
CONTINUOUS
 62
    7
 10
777.29483458748837
 20
1439.2562067157721
 40
10.43609857263036
 50
243.1857074636273
 51
271.16548625032118
  0
ARC
  8
_0-2_決定
  6
CONTINUOUS
 62
    7
 10
773.56943848965193
 20
1431.7931565675754
 40
2.0954148731991267
 50
190.19509303891698
 51
242.04358866001729
  0
ARC
  8
_0-2_決定
  6
CONTINUOUS
 62
    7
 10
773.15469324932133
 20
1431.3731544636885
 40
1.6483164825145094
 50
141.36611317000009
 51
178.29258000629733
  0
ARC
  8
_0-2_決定
  6
CONTINUOUS
 62
    7
 10
774.37998335388761
 20
1430.3946851716139
 40
3.2163527600955404
 50
118.46278733014955
 51
141.37799694979958
  0
ARC
  8
_0-2_決定
  6
CONTINUOUS
 62
    7
 10
776.22280763536173
 20
1427.1028156240773
 40
6.9887789659618207
 50
103.36684909136547
 51
118.88263297738841
  0
ARC
  8
_0-2_決定
  6
CONTINUOUS
 62
    7
 10
777.37567837809161
 20
1422.1127104797586
 40
12.110269902782161
 50
89.378178150663814
 51
103.21545928729411
  0
ARC
  8
_0-2_決定
  6
CONTINUOUS
 62
    7
 10
777.6774839583984
 20
1424.1752274899209
 40
10.048484223796578
 50
62.179733143277907
 51
90.971526746660217
  0
ARC
  8
_0-2_決定
  6
CONTINUOUS
 62
    7
 10
781.26515378509771
 20
1431.0800560857047
 40
2.2679199453528853
 50
8.6786260817871188
 51
60.929397423658877
  0
ARC
  8
_0-2_決定
  6
CONTINUOUS
 62
    7
 10
815.94082023666397
 20
1457.0853045936574
 40
3.1692472461362691
 50
310.69106530536629
 51
2.476873178166175
  0
ARC
  8
_0-2_決定
  6
CONTINUOUS
 62
    7
 10
817.12067996379324
 20
1456.0629747883872
 40
1.6407637418691603
 50
269.52601027564191
 51
302.70082619052403
  0
ARC
  8
_0-2_決定
  6
CONTINUOUS
 62
    7
 10
817.17321696250201
 20
1456.0021109071731
 40
1.5812263429148554
 50
230.48465566656731
 51
267.60379087221781
  0
ARC
  8
_0-2_決定
  6
CONTINUOUS
 62
    7
 10
818.1080826813004
 20
1457.0757240117518
 40
3.0045519342242306
 50
177.20436244914126
 51
229.75841891607203
  0
ARC
  8
_0-2_決定
  6
CONTINUOUS
 62
    7
 10
818.03649495688182
 20
1457.2125736195658
 40
2.9294043921525366
 50
126.66835776514665
 51
179.81040455189131
  0
ARC
  8
_0-2_決定
  6
CONTINUOUS
 62
    7
 10
817.13374576455612
 20
1458.3151724508143
 40
1.5073281567360328
 50
91.012646769345992
 51
124.172202354956
  0
ARC
  8
_0-2_決定
  6
CONTINUOUS
 62
    7
 10
817.03680144624718
 20
1457.9298716569547
 40
1.8936990527340127
 50
20.797728470474585
 51
87.87235744069713
  0
ARC
  8
_0-2_決定
  6
CONTINUOUS
 62
    7
 10
815.80252340482639
 20
1457.2264882347413
 40
3.3045858940777402
 50
359.92681441130878
 51
24.602733044496105
  0
ARC
  8
_0-2_決定
  6
CONTINUOUS
 62
    7
 10
855.8204797118558
 20
1433.1464291053571
 40
2.8876229366572503
 50
307.71924650381868
 51
1.5049409139982504
  0
ARC
  8
_0-2_決定
  6
CONTINUOUS
 62
    7
 10
856.72308174784143
 20
1432.2970249933933
 40
1.6748339924672466
 50
269.45348478940548
 51
301.05675261672104
  0
ARC
  8
_0-2_決定
  6
CONTINUOUS
 62
    7
 10
856.7665377294943
 20
1432.2407501946741
 40
1.6195737996004913
 50
230.99088096499099
 51
267.89702859582724
  0
ARC
  8
_0-2_決定
  6
CONTINUOUS
 62
    7
 10
857.57401610110924
 20
1433.1919037435421
 40
2.8670702832104542
 50
179.39320290971645
 51
230.41633470647241
  0
ARC
  8
_0-2_決定
  6
CONTINUOUS
 62
    7
 10
857.91611531069202
 20
1433.2688792202071
 40
3.2093472181831433
 50
130.14184468233168
 51
180.83218370433892
  0
ARC
  8
_0-2_決定
  6
CONTINUOUS
 62
    7
 10
856.75101712635956
 20
1434.5137236907919
 40
1.5091824361950537
 50
91.667288663866316
 51
126.7940560874692
  0
ARC
  8
_0-2_決定
  6
CONTINUOUS
 62
    7
 10
856.64742258512911
 20
1434.1551197469289
 40
1.8681011106090768
 50
19.615953541822876
 51
88.169143874649819
  0
ARC
  8
_0-2_決定
  6
CONTINUOUS
 62
    7
 10
854.87610190073065
 20
1433.2943816712004
 40
3.8316833804000745
 50
358.92159687544233
 51
22.849457233897205
  0
ARC
  8
_0-2_決定
  6
CONTINUOUS
 62
    7
 10
821.22443482475069
 20
1385.6705330778591
 40
1.8832903707961781
 50
323.9512643658652
 51
358.53143493844721
  0
ARC
  8
_0-2_決定
  6
CONTINUOUS
 62
    7
 10
820.2342058672989
 20
1386.4015517331404
 40
3.1141030386357498
 50
299.91185524974583
 51
323.79822982086444
  0
ARC
  8
_0-2_決定
  6
CONTINUOUS
 62
    7
 10
819.22193743814796
 20
1388.1908750761709
 40
5.1698833248492448
 50
268.72727044310034
 51
299.74729048841806
  0
ARC
  8
_0-2_決定
  6
CONTINUOUS
 62
    7
 10
819.02342623321056
 20
1388.1138026840381
 40
5.0922230982517247
 50
230.53983427531622
 51
270.94158243715941
  0
ARC
  8
_0-2_決定
  6
CONTINUOUS
 62
    7
 10
817.20709225642531
 20
1385.7333715271875
 40
2.1029227084791113
 50
183.02853490417024
 51
227.52690956692336
  0
ARC
  8
_0-2_決定
  6
CONTINUOUS
 62
    7
 10
817.55358839629616
 20
1385.5297930669367
 40
2.4482288757749897
 50
118.45441753049084
 51
177.83531770461352
  0
ARC
  8
_0-2_決定
  6
CONTINUOUS
 62
    7
 10
818.99003574202175
 20
1383.4836627882573
 40
4.9399918048650768
 50
88.642043442668978
 51
121.79688621968384
  0
ARC
  8
_0-2_決定
  6
CONTINUOUS
 62
    7
 10
819.19128139147369
 20
1383.4979653031155
 40
4.9250212666406581
 50
49.84670788270823
 51
90.979304390432262
  0
ARC
  8
_0-2_決定
  6
CONTINUOUS
 62
    7
 10
820.75053175767516
 20
1385.5458858582028
 40
2.3578123568128735
 50
1.8564216067660393
 51
46.715228704546988
  0
ARC
  8
_0-2_決定
  6
CONTINUOUS
 62
    7
 10
858.27075554026374
 20
1395.7768769310419
 40
8.4364731689631771
 50
314.91231684083704
 51
0.3082665961073305
  0
ARC
  8
_0-2_決定
  6
CONTINUOUS
 62
    7
 10
860.61481298619265
 20
1393.8369581556776
 40
5.4154774818067519
 50
270.97651421475621
 51
311.83835950142065
  0
ARC
  8
_0-2_決定
  6
CONTINUOUS
 62
    7
 10
860.77751893037293
 20
1393.4977052222057
 40
5.0759264283124716
 50
228.39438880328771
 51
269.20517788543691
  0
ARC
  8
_0-2_決定
  6
CONTINUOUS
 62
    7
 10
862.58751135102693
 20
1395.6433281090972
 40
7.8824360566119207
 50
178.69921749046557
 51
228.91266954644445
  0
ARC
  8
_0-2_決定
  6
CONTINUOUS
 62
    7
 10
862.4753940523633
 20
1395.7961720373351
 40
7.7683312784566656
 50
118.51309433180508
 51
179.807533314133
  0
ARC
  8
_0-2_決定
  6
CONTINUOUS
 62
    7
 10
860.72224151583805
 20
1398.0443628639655
 40
4.9779273350983306
 50
90.174202615357856
 51
113.12639625971906
  0
ARC
  8
_0-2_決定
  6
CONTINUOUS
 62
    7
 10
860.61862222943114
 20
1397.405820714722
 40
5.6171434469799895
 50
31.517911422073404
 51
89.097407622653051
  0
ARC
  8
_0-2_決定
  6
CONTINUOUS
 62
    7
 10
858.67577472166067
 20
1395.9593177559623
 40
8.0325011451455417
 50
359.02237175496771
 51
33.069222806939848
  0
ARC
  8
_0-2_決定
  6
CONTINUOUS
 62
    7
 10
769.47131795183532
 20
1411.7086567012573
 40
1.0393870408523318
 50
309.1194933281904
 51
355.2323139032726
  0
ARC
  8
_0-2_決定
  6
CONTINUOUS
 62
    7
 10
767.99210755677132
 20
1413.4043658214136
 40
3.2891833370325601
 50
288.34077800528513
 51
310.47360011620788
  0
ARC
  8
_0-2_決定
  6
CONTINUOUS
 62
    7
 10
766.15564182731327
 20
1418.9474331482111
 40
9.1285498581288955
 50
268.43987655758366
 51
288.33418819971962
  0
ARC
  8
_0-2_決定
  6
CONTINUOUS
 62
    7
 10
765.80074542525631
 20
1420.517826389357
 40
10.696088055624315
 50
255.08158605816232
 51
270.56976546888939
  0
ARC
  8
_0-2_決定
  6
CONTINUOUS
 62
    7
 10
764.01457118582562
 20
1414.2125441539249
 40
4.1447697460612289
 50
233.46458244252437
 51
256.50163060126317
  0
ARC
  8
_0-2_決定
  6
CONTINUOUS
 62
    7
 10
762.11149951208108
 20
1411.7186617854281
 40
1.0090059543716892
 50
185.48206808561446
 51
235.98890731822661
  0
ARC
  8
_0-2_決定
  6
CONTINUOUS
 62
    7
 10
761.93627907568634
 20
1411.4935003295136
 40
0.8391093952770257
 50
122.36387201096771
 51
171.17270585305192
  0
ARC
  8
_0-2_決定
  6
CONTINUOUS
 62
    7
 10
763.86525382259242
 20
1408.7579525485885
 40
4.1855558818685132
 50
104.92693748459281
 51
124.62334365308293
  0
ARC
  8
_0-2_決定
  6
CONTINUOUS
 62
    7
 10
765.79208200167523
 20
1402.2781790869708
 40
10.944692574265888
 50
89.39782135674082
 51
105.93578716688991
  0
ARC
  8
_0-2_決定
  6
CONTINUOUS
 62
    7
 10
766.00961693225963
 20
1402.8002491028428
 40
10.422522198823343
 50
74.886461486330887
 51
90.563528597900515
  0
ARC
  8
_0-2_決定
  6
CONTINUOUS
 62
    7
 10
767.88285585803669
 20
1409.1422539441908
 40
3.8146115468103616
 50
52.838797897146833
 51
77.213380291056865
  0
ARC
  8
_0-2_決定
  6
CONTINUOUS
 62
    7
 10
769.7482279779731
 20
1411.5600496908251
 40
0.761426831982792
 50
4.6869625482515271
 51
54.802800045695555
  0
ARC
  8
_0-2_決定
  6
CONTINUOUS
 62
    7
 10
656.13590044518014
 20
1478.36165065719
 40
28.772388479233317
 50
343.52578133224671
 51
0.5189807950673355
  0
ARC
  8
_0-2_決定
  6
CONTINUOUS
 62
    7
 10
672.25502964815041
 20
1473.8067356950819
 40
12.025007408047824
 50
329.60325513947436
 51
342.55753902036622
  0
ARC
  8
_0-2_決定
  6
CONTINUOUS
 62
    7
 10
678.08861320557435
 20
1470.3775747768489
 40
5.2581945067136857
 50
310.55119469850422
 51
329.66964042358131
  0
ARC
  8
_0-2_決定
  6
CONTINUOUS
 62
    7
 10
680.01334909243019
 20
1468.0866639674875
 40
2.2663390446549245
 50
272.37102997765737
 51
311.23178899502221
  0
ARC
  8
_0-2_決定
  6
CONTINUOUS
 62
    7
 10
680.15498694639314
 20
1468.161859668618
 40
2.3400843266881766
 50
237.77387032266904
 51
268.82764120932882
  0
ARC
  8
_0-2_決定
  6
CONTINUOUS
 62
    7
 10
681.06678108792403
 20
1469.6170092166767
 40
4.0572961149706073
 50
217.94309020362002
 51
237.839448988839
  0
ARC
  8
_0-2_決定
  6
CONTINUOUS
 62
    7
 10
684.52013789381931
 20
1472.2032485967145
 40
8.3713315018514116
 50
203.22357071423329
 51
217.36932563826838
  0
ARC
  8
_0-2_決定
  6
CONTINUOUS
 62
    7
 10
691.64267999074605
 20
1475.488220663492
 40
16.213450127301183
 50
193.64905383979686
 51
203.96654841424771
  0
ARC
  8
_0-2_決定
  6
CONTINUOUS
 62
    7
 10
703.33654453103554
 20
1478.262201975914
 40
28.231732117066226
 50
179.26923853572782
 51
193.51955699473223
  0
ARC
  8
_0-2_決定
  6
CONTINUOUS
 62
    7
 10
703.32020914443569
 20
1478.8969064438922
 40
28.214437261355435
 50
163.2201737312021
 51
180.55772982612433
  0
ARC
  8
_0-2_決定
  6
CONTINUOUS
 62
    7
 10
687.3236842815802
 20
1483.4802102418912
 40
11.578133491194668
 50
148.54353742382929
 51
162.08211511659542
  0
ARC
  8
_0-2_決定
  6
CONTINUOUS
 62
    7
 10
681.8957932027954
 20
1486.8432546418683
 40
5.1930619281441324
 50
129.29285021344469
 51
148.9435291945461
  0
ARC
  8
_0-2_決定
  6
CONTINUOUS
 62
    7
 10
680.18695271379306
 20
1488.9194684657359
 40
2.5040699929150669
 50
91.827227720976765
 51
129.11733131851099
  0
ARC
  8
_0-2_決定
  6
CONTINUOUS
 62
    7
 10
680.04669537791892
 20
1489.3120907126265
 40
2.1110391011191516
 50
56.0021233320386
 51
88.360098838947835
  0
ARC
  8
_0-2_決定
  6
CONTINUOUS
 62
    7
 10
678.89169598002559
 20
1487.6408640850304
 40
4.1424796495588643
 50
35.429540960361678
 51
55.682963493796585
  0
ARC
  8
_0-2_決定
  6
CONTINUOUS
 62
    7
 10
674.84454623011152
 20
1484.7447573656818
 40
9.1191020028591758
 50
21.874230435982376
 51
35.515578322708954
  0
ARC
  8
_0-2_決定
  6
CONTINUOUS
 62
    7
 10
666.80463552377682
 20
1481.3901451797508
 40
17.83038817237555
 50
12.27929911121857
 51
22.252319878804428
  0
ARC
  8
_0-2_決定
  6
CONTINUOUS
 62
    7
 10
655.44597362037644
 20
1478.883610954872
 40
29.46229414144376
 50
359.49175018144922
 51
12.344370522763354
  0
ARC
  8
_0-2_決定
  6
CONTINUOUS
 62
    7
 10
762.79330289447989
 20
896.69151451087509
 40
27.903127262907734
 50
282.23610101765962
 51
299.48501151554979
  0
ARC
  8
_0-2_決定
  6
CONTINUOUS
 62
    7
 10
772.37676593543006
 20
879.51798353470735
 40
8.2376351516599193
 50
300.25349810147702
 51
316.44921153198226
  0
ARC
  8
_0-2_決定
  6
CONTINUOUS
 62
    7
 10
777.14084939433542
 20
875.13539405819552
 40
1.7683927331423741
 50
313.00958155783587
 51
2.8160752357044743
  0
ARC
  8
_0-2_決定
  6
CONTINUOUS
 62
    7
 10
777.68712592965448
 20
874.88895581563611
 40
1.2646954769533572
 50
15.281228504835564
 51
56.394077403719372
  0
ARC
  8
_0-2_決定
  6
CONTINUOUS
 62
    7
 10
776.40769725591349
 20
872.98943018408863
 40
3.5549057649620397
 50
56.164482195566798
 51
77.665250458808146
  0
ARC
  8
_0-2_決定
  6
CONTINUOUS
 62
    7
 10
774.96260876581368
 20
866.46408722336582
 40
10.238338407586376
 50
77.565819751673516
 51
90.310602670868704
  0
ARC
  8
_0-2_決定
  6
CONTINUOUS
 62
    7
 10
774.74054405500942
 20
854.05497503832885
 40
22.647912647355714
 50
89.578618250208905
 51
98.003717678870075
  0
ARC
  8
_0-2_決定
  6
CONTINUOUS
 62
    7
 10
776.20000118146231
 20
842.44485631238513
 40
34.348575834378259
 50
97.717940294964521
 51
105.00488200096015
  0
ARC
  8
_0-2_決定
  6
CONTINUOUS
 62
    7
 10
774.51409577098752
 20
845.99609362172259
 40
30.490183640104682
 50
103.6724367852283
 51
120.22134616400946
  0
ARC
  8
_0-2_決定
  6
CONTINUOUS
 62
    7
 10
762.71924037593658
 20
866.59466556799657
 40
6.7566749595406881
 50
121.7168516907232
 51
139.95013853819324
  0
ARC
  8
_0-2_決定
  6
CONTINUOUS
 62
    7
 10
758.82375442871671
 20
869.78339324899991
 40
1.7241902213378939
 50
137.76823881766535
 51
185.36186353646099
  0
ARC
  8
_0-2_決定
  6
CONTINUOUS
 62
    7
 10
758.25062983747011
 20
869.99341032509335
 40
1.202240450728052
 50
197.98107963491529
 51
240.96384006182606
  0
ARC
  8
_0-2_決定
  6
CONTINUOUS
 62
    7
 10
759.65400270984014
 20
872.62890942886941
 40
4.1879613412983661
 50
241.67776222502837
 51
261.9441463756504
  0
ARC
  8
_0-2_決定
  6
CONTINUOUS
 62
    7
 10
761.1184475901066
 20
881.03036211656877
 40
12.714655997482648
 50
260.71551596874349
 51
271.84185750177369
  0
ARC
  8
_0-2_決定
  6
CONTINUOUS
 62
    7
 10
760.7328114311631
 20
897.48977854934594
 40
29.178316609483915
 50
271.55990830237579
 51
285.86045167764416
  0
ARC
  8
_0-2_決定
  6
CONTINUOUS
 62
    7
 10
733.45707974117909
 20
1180.4390603273011
 40
4.131570921034128
 50
348.59782396437299
 51
33.880744435007635
  0
ARC
  8
_0-2_決定
  6
CONTINUOUS
 62
    7
 10
729.25623340133279
 20
1178.179591622471
 40
8.8909111562605041
 50
30.876194775147297
 51
44.780380894094698
  0
ARC
  8
_0-2_決定
  6
CONTINUOUS
 62
    7
 10
724.3107161190037
 20
1173.1817086991437
 40
15.92189182810024
 50
45.010610841367942
 51
66.31326911184631
  0
ARC
  8
_0-2_決定
  6
CONTINUOUS
 62
    7
 10
720.7086224086047
 20
1166.578610384124
 40
23.424713687827921
 50
64.733135662072868
 51
75.162700045727746
  0
ARC
  8
_0-2_決定
  6
CONTINUOUS
 62
    7
 10
720.78672546066082
 20
1166.7980566243687
 40
23.192592254380745
 50
75.210389645644497
 51
94.400752538882472
  0
ARC
  8
_0-2_決定
  6
CONTINUOUS
 62
    7
 10
719.95638658247253
 20
1178.5121177578285
 40
11.449573356592701
 50
94.755821534784218
 51
119.44963640331663
  0
ARC
  8
_0-2_決定
  6
CONTINUOUS
 62
    7
 10
716.62884820904219
 20
1184.7658260214728
 40
4.3714951573712302
 50
121.77155000924196
 51
160.53878667732172
  0
ARC
  8
_0-2_決定
  6
CONTINUOUS
 62
    7
 10
716.75234563089498
 20
1185.3847233650229
 40
4.3270687287126082
 50
168.83937949708528
 51
213.0910138731951
  0
ARC
  8
_0-2_決定
  6
CONTINUOUS
 62
    7
 10
720.54311455375705
 20
1187.4181111055329
 40
8.6209368873595054
 50
210.65735595830313
 51
224.99921971093352
  0
ARC
  8
_0-2_決定
  6
CONTINUOUS
 62
    7
 10
725.53352177991223
 20
1192.5061831322589
 40
15.747648822604631
 50
225.25083747078315
 51
247.26331573692289
  0
ARC
  8
_0-2_決定
  6
CONTINUOUS
 62
    7
 10
729.47897341053567
 20
1200.2972698355948
 40
24.466251777269679
 50
245.79336384422186
 51
255.38869257575982
  0
ARC
  8
_0-2_決定
  6
CONTINUOUS
 62
    7
 10
729.22749174548153
 20
1199.0464857573952
 40
23.192592254380635
 50
255.21038964564764
 51
274.40075253888563
  0
ARC
  8
_0-2_決定
  6
CONTINUOUS
 62
    7
 10
730.05783062367095
 20
1187.3324246239331
 40
11.449573356590159
 50
274.75582153478814
 51
299.44963640332054
  0
ARC
  8
_0-2_決定
  6
CONTINUOUS
 62
    7
 10
733.38536899710198
 20
1181.0787163602922
 40
4.3714951573712666
 50
301.77155000922795
 51
340.53878667730771
  0
ARC
  8
_0-2_決定
  6
CONTINUOUS
 62
    7
 10
755.34788507916141
 20
1100.9814947147929
 40
4.9617789240026786
 50
271.83893771166004
 51
358.16106228833996
  0
ARC
  8
_0-2_決定
  6
CONTINUOUS
 62
    7
 10
755.71696811794163
 20
1101.032130705752
 40
5.0142530226061606
 50
182.39867783169132
 51
267.60132216830874
  0
ARC
  8
_0-2_決定
  6
CONTINUOUS
 62
    7
 10
755.71696811794163
 20
1100.6124116760122
 40
5.0142530226058648
 50
92.39867783168792
 51
177.60132216830533
  0
ARC
  8
_0-2_決定
  6
CONTINUOUS
 62
    7
 10
755.36536379970721
 20
1100.6805263875171
 40
4.9437772290895188
 50
1.6429729189512987
 51
88.357027081055463
  0
ARC
  8
_0-2_決定
  6
CONTINUOUS
 62
    7
 10
731.3818556605188
 20
999.33019898400835
 40
2.7273891503993397
 50
276.84906931974359
 51
357.7321507655293
  0
ARC
  8
_0-2_決定
  6
CONTINUOUS
 62
    7
 10
731.79788227656695
 20
998.77343370112499
 40
2.1530748711151984
 50
205.03617217361472
 51
267.58369277443381
  0
ARC
  8
_0-2_決定
  6
CONTINUOUS
 62
    7
 10
732.4238823170524
 20
999.22896661937807
 40
2.9167813940292402
 50
180.13148244180064
 51
207.94100449408614
  0
ARC
  8
_0-2_決定
  6
CONTINUOUS
 62
    7
 10
732.16584135071594
 20
999.20334548133667
 40
2.6588001206532015
 50
99.935169263710193
 51
179.59211411773319
  0
ARC
  8
_0-2_決定
  6
CONTINUOUS
 62
    7
 10
731.49388777653235
 20
999.21776165869176
 40
2.6132247209497628
 50
0.0989168210402248
 51
85.319863093686891
  0
ARC
  8
_0-2_決定
  6
CONTINUOUS
 62
    7
 10
743.26144637890275
 20
936.71747090616896
 40
1.0499867104161189
 50
310.76967880446966
 51
354.79809808094689
  0
ARC
  8
_0-2_決定
  6
CONTINUOUS
 62
    7
 10
741.93997042227261
 20
938.13770298386203
 40
2.9894368774816233
 50
288.47122146954979
 51
312.17599225553937
  0
ARC
  8
_0-2_決定
  6
CONTINUOUS
 62
    7
 10
741.1620545795281
 20
940.47083091197806
 40
5.4488347653830251
 50
269.42222033797088
 51
288.45690966834496
  0
ARC
  8
_0-2_決定
  6
CONTINUOUS
 62
    7
 10
740.94382275872613
 20
939.33542646160049
 40
4.3162429731973777
 50
228.91192695081583
 51
272.16804817859588
  0
ARC
  8
_0-2_決定
  6
CONTINUOUS
 62
    7
 10
738.77406313469487
 20
936.63633042481649
 40
0.8670684896404541
 50
180.92894099225876
 51
219.71733266703177
  0
ARC
  8
_0-2_決定
  6
CONTINUOUS
 62
    7
 10
738.95277082724056
 20
936.52707547559544
 40
1.0499867104151075
 50
130.7696788044413
 51
174.79809808091849
  0
ARC
  8
_0-2_決定
  6
CONTINUOUS
 62
    7
 10
740.27424678387115
 20
935.10684339790316
 40
2.9894368774804287
 50
108.4712214695632
 51
132.17599225555276
  0
ARC
  8
_0-2_決定
  6
CONTINUOUS
 62
    7
 10
741.05216262661565
 20
932.77371546978407
 40
5.4488347653847233
 50
89.422220337968113
 51
108.45690966834216
  0
ARC
  8
_0-2_決定
  6
CONTINUOUS
 62
    7
 10
741.27039444741831
 20
933.90911992016356
 40
4.3162429731971201
 50
48.911926950825489
 51
92.168048178605574
  0
ARC
  8
_0-2_決定
  6
CONTINUOUS
 62
    7
 10
743.44015407144957
 20
936.60821595694813
 40
0.8670684896400529
 50
0.9289409922685781
 51
39.717332667041575
  0
ARC
  8
_0-2_決定
  6
CONTINUOUS
 62
    7
 10
766.26144637890343
 20
965.91747090616877
 40
1.0499867104151075
 50
310.7696788044413
 51
354.79809808091852
  0
ARC
  8
_0-2_決定
  6
CONTINUOUS
 62
    7
 10
764.93997042227102
 20
967.33770298386219
 40
2.9894368774823219
 50
288.4712214695727
 51
312.17599225556228
  0
ARC
  8
_0-2_決定
  6
CONTINUOUS
 62
    7
 10
764.16205457952992
 20
969.67083091197821
 40
5.4488347653827578
 50
269.42222033795309
 51
288.45690966832711
  0
ARC
  8
_0-2_決定
  6
CONTINUOUS
 62
    7
 10
763.94382275872567
 20
968.53542646160065
 40
4.3162429731971201
 50
228.91192695082549
 51
272.1680481786056
  0
ARC
  8
_0-2_決定
  6
CONTINUOUS
 62
    7
 10
761.77406313469442
 20
965.83633042481608
 40
0.8670684896400529
 50
180.92894099226859
 51
219.71733266704157
  0
ARC
  8
_0-2_決定
  6
CONTINUOUS
 62
    7
 10
762.03357285572656
 20
965.79636427718788
 40
1.1267621684797975
 50
132.86209198552351
 51
178.68241737858847
  0
ARC
  8
_0-2_決定
  6
CONTINUOUS
 62
    7
 10
762.94973683224521
 20
964.72787381201238
 40
2.5337692800001284
 50
106.09945584317897
 51
131.61186659625196
  0
ARC
  8
_0-2_決定
  6
CONTINUOUS
 62
    7
 10
764.00103040045474
 20
961.39806340959808
 40
6.025143655879619
 50
88.991202917527474
 51
106.92384753629298
  0
ARC
  8
_0-2_決定
  6
CONTINUOUS
 62
    7
 10
764.26542760876737
 20
961.85846004924827
 40
5.5660651795122291
 50
69.802975563579068
 51
91.629918825915254
  0
ARC
  8
_0-2_決定
  6
CONTINUOUS
 62
    7
 10
765.70762105415361
 20
965.52828425851033
 40
1.6262810063154149
 50
10.414832372879591
 51
72.85224630025759
  0
ARC
  8
_0-2_決定
  6
CONTINUOUS
 62
    7
 10
688.88555297550602
 20
858.03370118281782
 40
2.4215825839087555
 50
275.24945117443866
 51
359.72965466955475
  0
ARC
  8
_0-2_決定
  6
CONTINUOUS
 62
    7
 10
689.14021391423853
 20
858.05538050204859
 40
2.4333305194434405
 50
180.77952958439252
 51
269.22047041560745
  0
ARC
  8
_0-2_決定
  6
CONTINUOUS
 62
    7
 10
689.26868327594343
 20
858.06543703130842
 40
2.5619382797337376
 50
93.615893046381416
 51
180.96532703889153
  0
ARC
  8
_0-2_決定
  6
CONTINUOUS
 62
    7
 10
688.96408239358971
 20
858.27048378285838
 40
2.356136524790688
 50
353.95292217114934
 51
86.519794447407307
  0
ARC
  8
_0-2_決定
  6
CONTINUOUS
 62
    7
 10
700.46144637890302
 20
795.51747290616959
 40
1.0499867104161285
 50
310.76967880442345
 51
354.79809808090062
  0
ARC
  8
_0-2_決定
  6
CONTINUOUS
 62
    7
 10
699.13997042227243
 20
796.9377049838622
 40
2.9894368774816233
 50
288.47122146954979
 51
312.17599225553937
  0
ARC
  8
_0-2_決定
  6
CONTINUOUS
 62
    7
 10
698.36205457952906
 20
799.27083291197675
 40
5.4488347653811928
 50
269.4222203379648
 51
288.45690966833882
  0
ARC
  8
_0-2_決定
  6
CONTINUOUS
 62
    7
 10
698.14382275872595
 20
798.13542846160067
 40
4.3162429731971201
 50
228.91192695082549
 51
272.1680481786056
  0
ARC
  8
_0-2_決定
  6
CONTINUOUS
 62
    7
 10
695.97406313469469
 20
795.43633242481724
 40
0.8670684896407514
 50
180.92894099231182
 51
219.7173326670848
  0
ARC
  8
_0-2_決定
  6
CONTINUOUS
 62
    7
 10
696.23357285572547
 20
795.39636627718778
 40
1.1267621684791316
 50
132.86209198550827
 51
178.68241737857323
  0
ARC
  8
_0-2_決定
  6
CONTINUOUS
 62
    7
 10
697.1497368322448
 20
794.32787581201069
 40
2.5337692800012563
 50
106.09945584316493
 51
131.61186659623792
  0
ARC
  8
_0-2_決定
  6
CONTINUOUS
 62
    7
 10
698.2010304004566
 20
790.99806540959798
 40
6.0251436558798721
 50
88.991202917544655
 51
106.92384753631015
  0
ARC
  8
_0-2_決定
  6
CONTINUOUS
 62
    7
 10
698.46542760876582
 20
791.45846204924828
 40
5.5660651795124716
 50
69.80297556356382
 51
91.629918825899992
  0
ARC
  8
_0-2_決定
  6
CONTINUOUS
 62
    7
 10
699.90762105415433
 20
795.12828625851034
 40
1.6262810063150046
 50
10.414832372892427
 51
72.852246300270423
  0
ARC
  8
_0-2_決定
  6
CONTINUOUS
 62
    7
 10
723.62822281172134
 20
824.86806319731045
 40
1.0798569777106133
 50
311.73782761316681
 51
357.56982050302082
  0
ARC
  8
_0-2_決定
  6
CONTINUOUS
 62
    7
 10
722.50687334552458
 20
826.16684307536639
 40
2.7956523001842899
 50
286.20582923511807
 51
311.16646591233138
  0
ARC
  8
_0-2_決定
  6
CONTINUOUS
 62
    7
 10
721.55260894653429
 20
829.13384976255998
 40
5.9117496731312951
 50
269.55901323126068
 51
287.06154110379975
  0
ARC
  8
_0-2_決定
  6
CONTINUOUS
 62
    7
 10
721.39829223728066
 20
829.45950851104612
 40
6.2381824670035559
 50
250.41388739358985
 51
270.99949540761753
  0
ARC
  8
_0-2_決定
  6
CONTINUOUS
 62
    7
 10
719.96733356296977
 20
825.66355716072599
 40
2.1834906996985524
 50
221.30609410440672
 51
252.39991423109416
  0
ARC
  8
_0-2_決定
  6
CONTINUOUS
 62
    7
 10
719.07261239682975
 20
824.83595991525954
 40
0.9656007702165497
 50
180.81203663509362
 51
219.46057022136918
  0
ARC
  8
_0-2_決定
  6
CONTINUOUS
 62
    7
 10
719.10325448621643
 20
824.73019795862888
 40
1.0003923416369862
 50
129.48650012239463
 51
174.71895781569691
  0
ARC
  8
_0-2_決定
  6
CONTINUOUS
 62
    7
 10
720.60073729549254
 20
822.9372159822384
 40
3.3364502305546972
 50
107.32612210886619
 51
129.75384826707307
  0
ARC
  8
_0-2_決定
  6
CONTINUOUS
 62
    7
 10
721.47074165032018
 20
820.48593255830895
 40
5.9364540263154311
 50
89.649001587439727
 51
108.29625164234865
  0
ARC
  8
_0-2_決定
  6
CONTINUOUS
 62
    7
 10
721.56752330920904
 20
821.94613348034659
 40
4.4765494021078895
 50
48.95411612631203
 51
90.773277017191077
  0
ARC
  8
_0-2_決定
  6
CONTINUOUS
 62
    7
 10
723.92455884311721
 20
824.79925528690069
 40
0.7828882696680141
 50
1.6849575148164175
 51
41.917861457842271
  0
ARC
  8
_0-2_決定
  6
CONTINUOUS
 62
    7
 10
777.28110942724152
 20
1145.6291170188624
 40
12.027548237577143
 50
345.9159402289136
 51
0.9201704607315932
  0
ARC
  8
_0-2_決定
  6
CONTINUOUS
 62
    7
 10
785.74262998575728
 20
1143.3499994771737
 40
3.2692846807489548
 50
321.66662430089832
 51
348.57264198071181
  0
ARC
  8
_0-2_決定
  6
CONTINUOUS
 62
    7
 10
787.67375847186054
 20
1141.8389674533043
 40
0.8173768304213366
 50
272.33825767889493
 51
320.79184467528279
  0
ARC
  8
_0-2_決定
  6
CONTINUOUS
 62
    7
 10
787.83587346444028
 20
1141.8514416634964
 40
0.8391093952770257
 50
212.36387201096773
 51
261.17270585305192
  0
ARC
  8
_0-2_決定
  6
CONTINUOUS
 62
    7
 10
790.57142124536631
 20
1143.7804164104029
 40
4.1855558818694414
 50
194.92693748459322
 51
214.62334365308334
  0
ARC
  8
_0-2_決定
  6
CONTINUOUS
 62
    7
 10
797.05119470698173
 20
1145.7072445894842
 40
10.944692574264714
 50
179.3978213567338
 51
195.9357871668829
  0
ARC
  8
_0-2_決定
  6
CONTINUOUS
 62
    7
 10
797.45344632827505
 20
1145.9633173985758
 40
11.347216363162588
 50
165.51127700917806
 51
180.7122064368321
  0
ARC
  8
_0-2_決定
  6
CONTINUOUS
 62
    7
 10
790.25628259423661
 20
1147.9886447415547
 40
3.875544179990984
 50
143.346013834665
 51
167.88124396174013
  0
ARC
  8
_0-2_決定
  6
CONTINUOUS
 62
    7
 10
787.76612194551581
 20
1149.8689943416052
 40
0.7555850860756446
 50
94.479677447543438
 51
145.01008514630655
  0
ARC
  8
_0-2_決定
  6
CONTINUOUS
 62
    7
 10
787.64832608143229
 20
1149.6890190944523
 40
0.9351013983597955
 50
37.809449686403788
 51
86.396008251687746
  0
ARC
  8
_0-2_決定
  6
CONTINUOUS
 62
    7
 10
785.9106671794982
 20
1148.3780950402295
 40
3.1117313485126559
 50
14.216058677711585
 51
37.265358034781478
  0
ARC
  8
_0-2_決定
  6
CONTINUOUS
 62
    7
 10
777.93833291536635
 20
1146.2027729977106
 40
11.375139418366158
 50
358.08308148962982
 51
14.975990508069724
  0
ARC
  8
_0-2_決定
  6
CONTINUOUS
 62
    7
 10
809.48110942724361
 20
1103.8291170188625
 40
12.027548237575525
 50
345.91594022891269
 51
0.9201704607307016
  0
ARC
  8
_0-2_決定
  6
CONTINUOUS
 62
    7
 10
817.94262998575641
 20
1101.5499994771737
 40
3.2692846807497866
 50
321.66662430090508
 51
348.57264198071857
  0
ARC
  8
_0-2_決定
  6
CONTINUOUS
 62
    7
 10
819.87375847186081
 20
1100.0389674533042
 40
0.8173768304213366
 50
272.33825767889493
 51
320.79184467528279
  0
ARC
  8
_0-2_決定
  6
CONTINUOUS
 62
    7
 10
820.03587346444056
 20
1100.0514416634962
 40
0.8391093952770257
 50
212.36387201096773
 51
261.17270585305192
  0
ARC
  8
_0-2_決定
  6
CONTINUOUS
 62
    7
 10
822.77142124536772
 20
1101.980416410403
 40
4.1855558818705729
 50
194.92693748458606
 51
214.62334365307618
  0
ARC
  8
_0-2_決定
  6
CONTINUOUS
 62
    7
 10
829.25119470698041
 20
1103.9072445894863
 40
10.944692574263506
 50
179.39782135674511
 51
195.93578716689419
  0
ARC
  8
_0-2_決定
  6
CONTINUOUS
 62
    7
 10
829.61229655344391
 20
1104.0912131280772
 40
11.305400161192726
 50
165.49784367135038
 51
180.3493999733758
  0
ARC
  8
_0-2_決定
  6
CONTINUOUS
 62
    7
 10
822.87789936926606
 20
1106.015002549208
 40
4.307425229530903
 50
145.05468807576375
 51
167.84078457845479
  0
ARC
  8
_0-2_決定
  6
CONTINUOUS
 62
    7
 10
819.97292721391
 20
1108.0826843024429
 40
0.7425100122979166
 50
95.085722541374139
 51
147.44174084737466
  0
ARC
  8
_0-2_決定
  6
CONTINUOUS
 62
    7
 10
819.8426073835285
 20
1107.9190226217197
 40
0.9055485227285295
 50
36.863527658524845
 51
85.915553009504976
  0
ARC
  8
_0-2_決定
  6
CONTINUOUS
 62
    7
 10
817.92614857568788
 20
1106.5133963358046
 40
3.2821901991136082
 50
14.267163616524536
 51
36.425188267397694
  0
ARC
  8
_0-2_決定
  6
CONTINUOUS
 62
    7
 10
810.09932622863494
 20
1104.3137523576163
 40
11.41150359689526
 50
358.53634912714296
 51
15.286105110912887
  0
ARC
  8
_0-2_決定
  6
CONTINUOUS
 62
    7
 10
727.58046694176846
 20
1054.6619936373568
 40
13.052598782716556
 50
157.66494103780124
 51
172.24945747008493
  0
ARC
  8
_0-2_決定
  6
CONTINUOUS
 62
    7
 10
718.01234614722398
 20
1055.867547635665
 40
3.4106512503164508
 50
170.63957598357715
 51
196.7910118503585
  0
ARC
  8
_0-2_決定
  6
CONTINUOUS
 62
    7
 10
715.48325327889052
 20
1055.0875168502184
 40
0.7642211351659743
 50
195.57894131479648
 51
240.51514374884994
  0
ARC
  8
_0-2_決定
  6
CONTINUOUS
 62
    7
 10
715.23115764676527
 20
1055.4322917292152
 40
1.0176077893856008
 50
262.99807974805049
 51
307.24993486860114
  0
ARC
  8
_0-2_決定
  6
CONTINUOUS
 62
    7
 10
713.09296077889121
 20
1058.4364210150629
 40
4.704577968547599
 50
305.83257334021135
 51
324.16742665978865
  0
ARC
  8
_0-2_決定
  6
CONTINUOUS
 62
    7
 10
705.39006475522024
 20
1064.2447118045477
 40
14.351224825990423
 50
323.37074642757131
 51
336.06435028544075
  0
ARC
  8
_0-2_決定
  6
CONTINUOUS
 62
    7
 10
708.51924296158495
 20
1062.8334774237539
 40
10.918617151513502
 50
336.17103578340539
 51
351.83236306438988
  0
ARC
  8
_0-2_決定
  6
CONTINUOUS
 62
    7
 10
716.00286138777642
 20
1061.869416074288
 40
3.3757012104903095
 50
349.98344517514005
 51
16.042129833210907
  0
ARC
  8
_0-2_決定
  6
CONTINUOUS
 62
    7
 10
718.30228386515023
 20
1062.5245206126929
 40
0.9848041272619879
 50
16.381779117989758
 51
65.727848423909606
  0
ARC
  8
_0-2_決定
  6
CONTINUOUS
 62
    7
 10
718.44639490303416
 20
1062.7083376412011
 40
0.7600478581955296
 50
69.938856796975543
 51
123.48081681853417
  0
ARC
  8
_0-2_決定
  6
CONTINUOUS
 62
    7
 10
719.84429929894554
 20
1060.5215718270133
 40
3.3553728446329689
 50
122.79101481702453
 51
144.66292514284154
  0
ARC
  8
_0-2_決定
  6
CONTINUOUS
 62
    7
 10
726.68968000026643
 20
1055.1929351924641
 40
12.027839392020386
 50
142.81605607513308
 51
158.39183821499361
  0
ARC
  8
_0-2_決定
  6
CONTINUOUS
 62
    7
 10
785.85901764655341
 20
1020.3052334392644
 40
6.6491191203978763
 50
325.32354909704293
 51
1.0085892616013041
  0
ARC
  8
_0-2_決定
  6
CONTINUOUS
 62
    7
 10
789.11249040245389
 20
1018.1843865774721
 40
2.7689611456145951
 50
274.03035199031552
 51
323.11104510661164
  0
ARC
  8
_0-2_決定
  6
CONTINUOUS
 62
    7
 10
789.3614012514056
 20
1017.5792062439366
 40
2.1576163014301235
 50
236.39081686064122
 51
268.55804639190484
  0
ARC
  8
_0-2_決定
  6
CONTINUOUS
 62
    7
 10
790.21207477264079
 20
1018.8500531973168
 40
3.6868915067342627
 50
214.86855664562432
 51
236.31275778367456
  0
ARC
  8
_0-2_決定
  6
CONTINUOUS
 62
    7
 10
792.30709233741072
 20
1020.2433559607424
 40
6.2025667655611771
 50
178.3470352333095
 51
214.3645989687266
  0
ARC
  8
_0-2_決定
  6
CONTINUOUS
 62
    7
 10
792.17182582402324
 20
1020.4276395403447
 40
6.0647215951505213
 50
142.70614327358331
 51
180.05069799345304
  0
ARC
  8
_0-2_決定
  6
CONTINUOUS
 62
    7
 10
789.64502769081287
 20
1022.3559112873353
 40
2.8862122624029007
 50
96.723677936287388
 51
142.76608465758812
  0
ARC
  8
_0-2_決定
  6
CONTINUOUS
 62
    7
 10
789.20949599154915
 20
1022.545547540612
 40
2.6785048139393464
 50
30.929993012544585
 51
87.911553242474369
  0
ARC
  8
_0-2_決定
  6
CONTINUOUS
 62
    7
 10
786.60623207719345
 20
1020.6291661834885
 40
5.9045003921204344
 50
357.99195163506516
 51
33.898840166770718
  0
ARC
  8
_0-2_決定
  6
CONTINUOUS
 62
    7
 10
839.68373617650423
 20
1213.3243991568738
 40
4.4244530141244027
 50
1.267500699524462
 51
66.512370727617736
  0
ARC
  8
_0-2_決定
  6
CONTINUOUS
 62
    7
 10
837.88730926079188
 20
1210.2786476907304
 40
7.9456652040920739
 50
63.383437947288243
 51
91.299543435112938
  0
ARC
  8
_0-2_決定
  6
CONTINUOUS
 62
    7
 10
837.62084665326802
 20
1210.1568050101769
 40
8.0659254415830723
 50
89.387246347114171
 51
121.66097564639787
  0
ARC
  8
_0-2_決定
  6
CONTINUOUS
 62
    7
 10
835.89523333081524
 20
1213.1722404148527
 40
4.5949343040652337
 50
123.08249852528283
 51
176.88076661950609
  0
ARC
  8
_0-2_決定
  6
CONTINUOUS
 62
    7
 10
835.35928501479907
 20
1213.4973836513111
 40
4.0528745431647133
 50
181.06195934294959
 51
227.2291245778913
  0
ARC
  8
_0-2_決定
  6
CONTINUOUS
 62
    7
 10
837.38294417427619
 20
1215.5468858293796
 40
6.932200002192479
 50
226.45410915157831
 51
272.6802334896297
  0
ARC
  8
_0-2_決定
  6
CONTINUOUS
 62
    7
 10
837.77808359625487
 20
1216.0489948201391
 40
7.4270647840059816
 50
269.452442630755
 51
317.19504721429695
  0
ARC
  8
_0-2_決定
  6
CONTINUOUS
 62
    7
 10
840.06297441680908
 20
1213.5228627131596
 40
4.0453830716870263
 50
321.45866521933374
 51
358.57512173685768
  0
ARC
  8
_0-2_決定
  6
CONTINUOUS
 62
    7
 10
847.14628560988876
 20
869.8539741515043
 40
8.968386617863926
 50
2.3536040399256812
 51
90.250301305227836
  0
ARC
  8
_0-2_決定
  6
CONTINUOUS
 62
    7
 10
847.36460503046578
 20
869.5434977668657
 40
9.2823496984625802
 50
91.589626173232759
 51
175.80646848161007
  0
ARC
  8
_0-2_決定
  6
CONTINUOUS
 62
    7
 10
847.06792759625523
 20
870.59057623025979
 40
8.9683866178639402
 50
182.35360403992937
 51
270.25030130523157
  0
ARC
  8
_0-2_決定
  6
CONTINUOUS
 62
    7
 10
846.8496081756789
 20
870.90105261489782
 40
9.2823496984619798
 50
271.58962617323266
 51
355.80646848161001
  0
ARC
  8
_0-2_決定
  6
CONTINUOUS
 62
    7
 10
814.81282683290351
 20
933.54023093768433
 40
3.4962701758069414
 50
308.45395570132115
 51
358.066578517739
  0
ARC
  8
_0-2_決定
  6
CONTINUOUS
 62
    7
 10
811.67317437167662
 20
936.89943905503526
 40
8.0878493640060505
 50
281.07721386383588
 51
311.07349730407088
  0
ARC
  8
_0-2_決定
  6
CONTINUOUS
 62
    7
 10
810.33286343577947
 20
941.10989098058644
 40
12.487644352565663
 50
269.88182247888574
 51
283.40121579712178
  0
ARC
  8
_0-2_決定
  6
CONTINUOUS
 62
    7
 10
810.20999978833152
 20
940.32271079897805
 40
11.700840566148084
 50
243.59842639145268
 51
270.47551066827612
  0
ARC
  8
_0-2_決定
  6
CONTINUOUS
 62
    7
 10
807.62649833247929
 20
934.94565478244681
 40
5.7363504688270561
 50
208.11689917218831
 51
242.83011694528597
  0
ARC
  8
_0-2_決定
  6
CONTINUOUS
 62
    7
 10
805.25759519746111
 20
933.45373677947521
 40
2.950656351225343
 50
180.61097084347603
 51
204.24091488734283
  0
ARC
  8
_0-2_決定
  6
CONTINUOUS
 62
    7
 10
805.80138637324103
 20
933.30431544407952
 40
3.4962701758078483
 50
128.45395570132865
 51
178.06657851774651
  0
ARC
  8
_0-2_決定
  6
CONTINUOUS
 62
    7
 10
808.9410388344661
 20
929.94510732672893
 40
8.0878493640055673
 50
101.07721386382887
 51
131.07349730406389
  0
ARC
  8
_0-2_決定
  6
CONTINUOUS
 62
    7
 10
810.28134977036552
 20
925.73465540118013
 40
12.487644352563406
 50
89.881822478892545
 51
103.40121579712859
  0
ARC
  8
_0-2_決定
  6
CONTINUOUS
 62
    7
 10
810.40421341781121
 20
926.52183558278466
 40
11.700840566149413
 50
63.598426391451106
 51
90.47551066827458
  0
ARC
  8
_0-2_決定
  6
CONTINUOUS
 62
    7
 10
812.98771487366503
 20
931.89889159931738
 40
5.7363504688263891
 50
28.116899172195112
 51
62.830116945292744
  0
ARC
  8
_0-2_決定
  6
CONTINUOUS
 62
    7
 10
815.35661800868093
 20
933.39080960228875
 40
2.9506563512273765
 50
0.6109708434673194
 51
24.240914887334107
  0
ARC
  8
_0-2_決定
  6
CONTINUOUS
 62
    7
 10
806.6403844121171
 20
859.68005293815509
 40
8.4706454314766759
 50
273.15852681801596
 51
358.25611191907728
  0
ARC
  8
_0-2_決定
  6
CONTINUOUS
 62
    7
 10
807.43154194766385
 20
859.54123650267866
 40
8.3252853164314526
 50
180.81873627165569
 51
267.76662499125518
  0
ARC
  8
_0-2_決定
  6
CONTINUOUS
 62
    7
 10
807.4153415187177
 20
859.11404027523622
 40
8.3139506960757998
 50
92.124694828337837
 51
177.8753051716601
  0
ARC
  8
_0-2_決定
  6
CONTINUOUS
 62
    7
 10
806.7988716874263
 20
859.11404027523645
 40
8.313950696075505
 50
2.1246948283378408
 51
87.875305171660102
  0
ARC
  8
_0-2_決定
  6
CONTINUOUS
 62
    7
 10
709.50491411399389
 20
887.35711811355259
 40
8.8772742049612159
 50
319.41919356290157
 51
18.829429765379725
  0
ARC
  8
_0-2_決定
  6
CONTINUOUS
 62
    7
 10
707.02590413305666
 20
888.97908189590339
 40
11.821309627501865
 50
286.11504425005973
 51
321.26509080190743
  0
ARC
  8
_0-2_決定
  6
CONTINUOUS
 62
    7
 10
706.32549206369595
 20
889.1883696123748
 40
12.232244701342498
 50
239.00922529055879
 51
288.99597356160996
  0
ARC
  8
_0-2_決定
  6
CONTINUOUS
 62
    7
 10
705.07747449011072
 20
886.26592296131867
 40
9.0947766980943072
 50
199.55179586619141
 51
236.26834384549454
  0
ARC
  8
_0-2_決定
  6
CONTINUOUS
 62
    7
 10
705.20611898618176
 20
885.82923855002809
 40
9.0812465885128795
 50
137.34718710526849
 51
196.68268745796723
  0
ARC
  8
_0-2_決定
  6
CONTINUOUS
 62
    7
 10
708.15616903504269
 20
883.75858526984393
 40
12.662854367003071
 50
107.69588721615494
 51
139.50104805739522
  0
ARC
  8
_0-2_決定
  6
CONTINUOUS
 62
    7
 10
708.26201552159569
 20
884.35167214210742
 40
12.133261022361337
 50
58.911804547167726
 51
109.02349247022522
  0
ARC
  8
_0-2_決定
  6
CONTINUOUS
 62
    7
 10
709.6775044578626
 20
887.59204023273833
 40
8.6397060321451598
 50
17.724217527814908
 51
55.853151849938634
  0
ARC
  8
_0-2_決定
  6
CONTINUOUS
 62
    7
 10
747.14729570035934
 20
1065.9135928495748
 40
2.7613233970916031
 50
302.40545181615875
 51
358.10478558996931
  0
ARC
  8
_0-2_決定
  6
CONTINUOUS
 62
    7
 10
746.18532424747991
 20
1067.1208193173202
 40
4.2992596667721497
 50
268.95757085869957
 51
304.60771743183193
  0
ARC
  8
_0-2_決定
  6
CONTINUOUS
 62
    7
 10
746.11621289224809
 20
1066.9632020688325
 40
4.1409408863258106
 50
207.01526687943044
 51
269.87402916877375
  0
ARC
  8
_0-2_決定
  6
CONTINUOUS
 62
    7
 10
744.53897405343332
 20
1065.8044655882379
 40
2.2319364749026085
 50
179.54290961402745
 51
198.8791434676001
  0
ARC
  8
_0-2_決定
  6
CONTINUOUS
 62
    7
 10
745.0315965145237
 20
1065.7094782242191
 40
2.7268217090554003
 50
121.98742805972164
 51
177.62932601836198
  0
ARC
  8
_0-2_決定
  6
CONTINUOUS
 62
    7
 10
746.10895919825248
 20
1064.4474418160635
 40
4.3748297662285971
 50
90.024236668002587
 51
125.20091901785484
  0
ARC
  8
_0-2_決定
  6
CONTINUOUS
 62
    7
 10
746.16646385408694
 20
1064.7769262461215
 40
4.045780365754462
 50
26.502003288237514
 51
90.840610976146166
  0
ARC
  8
_0-2_決定
  6
CONTINUOUS
 62
    7
 10
747.50418960339039
 20
1065.8323366119848
 40
2.4029400807617698
 50
359.7599990780829
 51
18.185254151718684
  0
ARC
  8
_0-2_決定
  6
CONTINUOUS
 62
    7
 10
785.84745532994907
 20
1173.275816556519
 40
1.6605148161219714
 50
321.50658719333569
 51
358.1521059829617
  0
ARC
  8
_0-2_決定
  6
CONTINUOUS
 62
    7
 10
784.62208775761133
 20
1174.2264395953248
 40
3.2113306318597354
 50
299.16608031349483
 51
321.83961645714351
  0
ARC
  8
_0-2_決定
  6
CONTINUOUS
 62
    7
 10
782.87372298897048
 20
1177.4258341807329
 40
6.8572063952677729
 50
282.9215291794369
 51
298.89443176259772
  0
ARC
  8
_0-2_決定
  6
CONTINUOUS
 62
    7
 10
781.74208491039644
 20
1181.6777667228353
 40
11.255549882249309
 50
269.82194449574047
 51
283.696217758194
  0
ARC
  8
_0-2_決定
  6
CONTINUOUS
 62
    7
 10
781.43807171936123
 20
1180.4414763404284
 40
10.022816550119364
 50
242.60986973456087
 51
271.53813201602838
  0
ARC
  8
_0-2_決定
  6
CONTINUOUS
 62
    7
 10
777.97984697990137
 20
1173.5240981087686
 40
2.2926945520134141
 50
187.56479059287307
 51
239.81534445910438
  0
ARC
  8
_0-2_決定
  6
CONTINUOUS
 62
    7
 10
777.12979265893614
 20
1173.1538996225738
 40
1.4243280116966617
 50
138.25336126804484
 51
177.24859141753907
  0
ARC
  8
_0-2_決定
  6
CONTINUOUS
 62
    7
 10
778.55253888134689
 20
1171.9090135962149
 40
3.3147778939857053
 50
116.23734841207624
 51
138.57336485073554
  0
ARC
  8
_0-2_決定
  6
CONTINUOUS
 62
    7
 10
780.50123119090836
 20
1167.9827841074805
 40
7.6979977081897788
 50
101.64731921641207
 51
116.3279289593206
  0
ARC
  8
_0-2_決定
  6
CONTINUOUS
 62
    7
 10
781.68255163937965
 20
1163.2021768568638
 40
12.620118222337169
 50
89.888519532972609
 51
102.51837627042272
  0
ARC
  8
_0-2_決定
  6
CONTINUOUS
 62
    7
 10
781.88386603781942
 20
1166.0527754973727
 40
9.7710946164323218
 50
62.026631078835258
 51
91.036539144535084
  0
ARC
  8
_0-2_決定
  6
CONTINUOUS
 62
    7
 10
785.46330485057274
 20
1172.8668233671838
 40
2.0744803587625142
 50
9.8659168929276291
 51
61.060811590140162
  0
ARC
  8
_0-2_決定
  6
CONTINUOUS
 62
    7
 10
820.09809789545193
 20
1198.7756571615566
 40
3.2093472181831433
 50
310.14184468233168
 51
0.8321837043388965
  0
ARC
  8
_0-2_決定
  6
CONTINUOUS
 62
    7
 10
821.26319607978439
 20
1197.530812690972
 40
1.5091824361950537
 50
271.66728866386632
 51
306.79405608746919
  0
ARC
  8
_0-2_決定
  6
CONTINUOUS
 62
    7
 10
821.36679062101484
 20
1197.889416634835
 40
1.8681011106090768
 50
199.6159535418229
 51
268.16914387464988
  0
ARC
  8
_0-2_決定
  6
CONTINUOUS
 62
    7
 10
823.1381113054133
 20
1198.7501547105637
 40
3.8316833804000745
 50
178.92159687544236
 51
202.84945723389723
  0
ARC
  8
_0-2_決定
  6
CONTINUOUS
 62
    7
 10
822.47338031863455
 20
1198.9592372668199
 40
3.1692348438839506
 50
130.69095646565918
 51
182.47698201789726
  0
ARC
  8
_0-2_決定
  6
CONTINUOUS
 62
    7
 10
821.29353324235149
 20
1199.981561593376
 40
1.6407637418703245
 50
89.526010275657327
 51
122.70082619053943
  0
ARC
  8
_0-2_決定
  6
CONTINUOUS
 62
    7
 10
821.24099624364112
 20
1200.0424254745919
 40
1.5812263429142612
 50
50.484655666533087
 51
87.603790872183595
  0
ARC
  8
_0-2_決定
  6
CONTINUOUS
 62
    7
 10
820.30613052484318
 20
1198.9688123700123
 40
3.0045519342243776
 50
357.20436244914004
 51
49.758418916070781
  0
ARC
  8
_0-2_決定
  6
CONTINUOUS
 62
    7
 10
859.74082023666347
 20
1174.8853085936569
 40
3.1692472461360106
 50
310.69106530537709
 51
2.4768731781769708
  0
ARC
  8
_0-2_決定
  6
CONTINUOUS
 62
    7
 10
860.92067996379205
 20
1173.8629787883881
 40
1.6407637418703245
 50
269.52601027565731
 51
302.70082619053943
  0
ARC
  8
_0-2_決定
  6
CONTINUOUS
 62
    7
 10
860.97321696250242
 20
1173.8021149071712
 40
1.581226342913427
 50
230.48465566652152
 51
267.603790872172
  0
ARC
  8
_0-2_決定
  6
CONTINUOUS
 62
    7
 10
861.90808268130104
 20
1174.8757280117525
 40
3.0045519342244864
 50
177.20436244915246
 51
229.75841891608323
  0
ARC
  8
_0-2_決定
  6
CONTINUOUS
 62
    7
 10
862.24056839508967
 20
1174.9773572250492
 40
3.3337643562749508
 50
130.23731674368281
 51
179.22806225561979
  0
ARC
  8
_0-2_決定
  6
CONTINUOUS
 62
    7
 10
860.95202158390998
 20
1176.4288369099261
 40
1.3941579719843666
 50
91.846192658063529
 51
128.34426972579354
  0
ARC
  8
_0-2_決定
  6
CONTINUOUS
 62
    7
 10
860.87624333007648
 20
1176.2243656143946
 40
1.5982036081145337
 50
50.765213774195153
 51
88.893479402107644
  0
ARC
  8
_0-2_決定
  6
CONTINUOUS
 62
    7
 10
859.92714549885159
 20
1175.2097464669871
 40
2.9858525016843029
 50
356.40015292624309
 51
48.972900422205306
  0
ARC
  8
_0-2_決定
  6
CONTINUOUS
 62
    7
 10
824.8606248098472
 20
1127.5147453148279
 40
2.4482288757752926
 50
298.45441753047942
 51
357.83531770460212
  0
ARC
  8
_0-2_決定
  6
CONTINUOUS
 62
    7
 10
823.42417746412229
 20
1129.5608755935061
 40
4.9399918048641158
 50
268.64204344267205
 51
301.79688621968688
  0
ARC
  8
_0-2_決定
  6
CONTINUOUS
 62
    7
 10
823.22293181466966
 20
1129.5465730786482
 40
4.9250212666404556
 50
229.8467078827149
 51
270.97930439043893
  0
ARC
  8
_0-2_決定
  6
CONTINUOUS
 62
    7
 10
821.66368144846933
 20
1127.4986525235613
 40
2.3578123568133824
 50
181.85642160676048
 51
226.7152287045414
  0
ARC
  8
_0-2_決定
  6
CONTINUOUS
 62
    7
 10
821.18977838139335
 20
1127.3740053039051
 40
1.8832903707961781
 50
143.95126436586523
 51
178.53143493844721
  0
ARC
  8
_0-2_決定
  6
CONTINUOUS
 62
    7
 10
822.18000733884514
 20
1126.6429866486239
 40
3.1141030386357498
 50
119.91185524974581
 51
143.79822982086444
  0
ARC
  8
_0-2_決定
  6
CONTINUOUS
 62
    7
 10
823.19227576799585
 20
1124.8536633055933
 40
5.1698833248492448
 50
88.727270443100352
 51
119.74729048841806
  0
ARC
  8
_0-2_決定
  6
CONTINUOUS
 62
    7
 10
823.39078697293326
 20
1124.9307356977258
 40
5.0922230982517247
 50
50.539834275316203
 51
90.941582437159369
  0
ARC
  8
_0-2_決定
  6
CONTINUOUS
 62
    7
 10
825.2071209497185
 20
1127.3111668545764
 40
2.1029227084791113
 50
3.0285349041702418
 51
47.526909566923337
  0
ARC
  8
_0-2_決定
  6
CONTINUOUS
 62
    7
 10
862.80250794422295
 20
1137.4656337345677
 40
8.1047146606901208
 50
299.93668549640836
 51
359.69344971419309
  0
ARC
  8
_0-2_決定
  6
CONTINUOUS
 62
    7
 10
864.88994821389292
 20
1134.792002798039
 40
4.7697624694140188
 50
270.20611202546633
 51
294.22532624280916
  0
ARC
  8
_0-2_決定
  6
CONTINUOUS
 62
    7
 10
864.97751893037366
 20
1135.0977092222058
 40
5.0759264283127647
 50
228.39438880327918
 51
269.20517788542833
  0
ARC
  8
_0-2_決定
  6
CONTINUOUS
 62
    7
 10
866.78751135102607
 20
1137.2433321090978
 40
7.8824360566115796
 50
178.69921749047197
 51
228.91266954645084
  0
ARC
  8
_0-2_決定
  6
CONTINUOUS
 62
    7
 10
867.01170526192095
 20
1137.3789086471961
 40
8.1047146606905311
 50
119.93668549640537
 51
179.69344971419008
  0
ARC
  8
_0-2_決定
  6
CONTINUOUS
 62
    7
 10
864.92426499225053
 20
1140.0525395837253
 40
4.7697624694139469
 50
90.206112025462318
 51
114.22532624280517
  0
ARC
  8
_0-2_決定
  6
CONTINUOUS
 62
    7
 10
864.83669427577047
 20
1139.7468331595585
 40
5.0759264283126928
 50
48.394388803281302
 51
89.205177885430473
  0
ARC
  8
_0-2_決定
  6
CONTINUOUS
 62
    7
 10
863.02670185511738
 20
1137.6012102726672
 40
7.8824360566114615
 50
358.69921749046705
 51
48.912669546445905
  0
ARC
  8
_0-2_決定
  6
CONTINUOUS
 62
    7
 10
773.76621959886825
 20
1153.2850937225198
 40
0.9429819855974453
 50
308.0253971719734
 51
356.18006076604331
  0
ARC
  8
_0-2_決定
  6
CONTINUOUS
 62
    7
 10
772.47706742022024
 20
1154.9323466305104
 40
3.0347169806284482
 50
285.08990436572395
 51
308.0402828712011
  0
ARC
  8
_0-2_決定
  6
CONTINUOUS
 62
    7
 10
770.4405123753495
 20
1162.1787029793086
 40
10.561695421620147
 50
268.19102878010187
 51
285.5231158880992
  0
ARC
  8
_0-2_決定
  6
CONTINUOUS
 62
    7
 10
769.91395443105284
 20
1163.6482683667091
 40
12.027548237573967
 50
255.91594022890925
 51
270.92017046072726
  0
ARC
  8
_0-2_決定
  6
CONTINUOUS
 62
    7
 10
767.63483688936299
 20
1155.1867478081981
 40
3.2692846807499554
 50
231.66662430092416
 51
258.57264198073767
  0
ARC
  8
_0-2_決定
  6
CONTINUOUS
 62
    7
 10
766.12380486549364
 20
1153.2556193220926
 40
0.8173768304209493
 50
182.33825767886776
 51
230.79184467525565
  0
ARC
  8
_0-2_決定
  6
CONTINUOUS
 62
    7
 10
766.28762091685894
 20
1153.138470554172
 40
0.9840868580571231
 50
129.09043806086493
 51
175.11501987734104
  0
ARC
  8
_0-2_決定
  6
CONTINUOUS
 62
    7
 10
767.84145881699237
 20
1151.2623369265752
 40
3.4200952870701187
 50
107.60380292296246
 51
129.47616745293078
  0
ARC
  8
_0-2_決定
  6
CONTINUOUS
 62
    7
 10
769.90254200256709
 20
1145.2324107542117
 40
9.7919974909885497
 50
88.802935193531795
 51
108.42836117479629
  0
ARC
  8
_0-2_決定
  6
CONTINUOUS
 62
    7
 10
770.24283518614288
 20
1145.1564931379332
 40
9.8667116252274187
 50
74.454742143722754
 51
90.788186170924334
  0
ARC
  8
_0-2_決定
  6
CONTINUOUS
 62
    7
 10
771.97178766897287
 20
1151.0151982540513
 40
3.7601799716187023
 50
51.605998148384856
 51
75.911238539829142
  0
ARC
  8
_0-2_決定
  6
CONTINUOUS
 62
    7
 10
773.68776700140779
 20
1153.1493849197118
 40
1.0219420884016563
 50
4.0898836917037071
 51
52.696155151069632
  0
ARC
  8
_0-2_決定
  6
CONTINUOUS
 62
    7
 10
781.89525145078028
 20
1045.2792188729916
 40
1.6128607635751591
 50
320.91128665070278
 51
357.97662291013029
  0
ARC
  8
_0-2_決定
  6
CONTINUOUS
 62
    7
 10
780.5930766129311
 20
1046.3571878130051
 40
3.3032917619437248
 50
298.06343983142966
 51
320.64006542110212
  0
ARC
  8
_0-2_決定
  6
CONTINUOUS
 62
    7
 10
778.62861318291289
 20
1049.9225987524462
 40
7.3739009575370957
 50
283.15735931073834
 51
298.49975226965853
  0
ARC
  8
_0-2_決定
  6
CONTINUOUS
 62
    7
 10
777.58310756196488
 20
1054.1672648005547
 40
11.745237505348134
 50
269.629248487285
 51
283.41035501604028
  0
ARC
  8
_0-2_決定
  6
CONTINUOUS
 62
    7
 10
777.23807271936175
 20
1052.4414744637052
 40
10.022812647951017
 50
242.60986461494173
 51
271.53812689640927
  0
ARC
  8
_0-2_決定
  6
CONTINUOUS
 62
    7
 10
773.77984897990154
 20
1045.5241001087684
 40
2.2926945520131903
 50
187.56479059285741
 51
239.81534445908869
  0
ARC
  8
_0-2_決定
  6
CONTINUOUS
 62
    7
 10
773.02295058574282
 20
1045.1379363978137
 40
1.5181862899830381
 50
139.58165914685256
 51
176.81552188044378
  0
ARC
  8
_0-2_決定
  6
CONTINUOUS
 62
    7
 10
774.66803438583065
 20
1043.7875006393137
 40
3.6464157892482243
 50
118.16094722463009
 51
140.18636871623414
  0
ARC
  8
_0-2_決定
  6
CONTINUOUS
 62
    7
 10
776.51312434365968
 20
1040.3480076687997
 40
7.5495508409764378
 50
103.06028052783974
 51
118.18682285770561
  0
ARC
  8
_0-2_決定
  6
CONTINUOUS
 62
    7
 10
777.47084005695706
 20
1036.7776471737193
 40
11.244684501052838
 50
89.815208365149402
 51
103.70295388878507
  0
ARC
  8
_0-2_決定
  6
CONTINUOUS
 62
    7
 10
777.60970947589135
 20
1038.1663763536576
 40
9.8564308862548131
 50
61.669761459125262
 51
90.596444881887393
  0
ARC
  8
_0-2_決定
  6
CONTINUOUS
 62
    7
 10
781.15614362727138
 20
1044.7211776165132
 40
2.4037728029576271
 50
12.032243757324206
 51
61.933570095379096
  0
ARC
  8
_0-2_決定
  6
CONTINUOUS
 62
    7
 10
815.84525989003532
 20
1070.7800113705891
 40
3.2621204563532458
 50
310.57554922978727
 51
0.7422708968384184
  0
ARC
  8
_0-2_決定
  6
CONTINUOUS
 62
    7
 10
817.08206662316934
 20
1069.5598939862973
 40
1.5378266682478792
 50
270.93297157620412
 51
305.13559955807466
  0
ARC
  8
_0-2_決定
  6
CONTINUOUS
 62
    7
 10
817.18110160677702
 20
1069.5122587001433
 40
1.4918237289734273
 50
229.24023925034541
 51
267.15694177694786
  0
ARC
  8
_0-2_決定
  6
CONTINUOUS
 62
    7
 10
818.33650201040746
 20
1070.810195349927
 40
3.2294179851567648
 50
179.78575200348433
 51
228.74782486158492
  0
ARC
  8
_0-2_決定
  6
CONTINUOUS
 62
    7
 10
818.31611531069234
 20
1070.8688832202072
 40
3.2093472181834191
 50
130.14184468232091
 51
180.83218370432812
  0
ARC
  8
_0-2_決定
  6
CONTINUOUS
 62
    7
 10
817.15101712635919
 20
1072.1137276907921
 40
1.5091824361948207
 50
91.667288663840992
 51
126.79405608744389
  0
ARC
  8
_0-2_決定
  6
CONTINUOUS
 62
    7
 10
817.04742258512988
 20
1071.755123746929
 40
1.8681011106088539
 50
19.615953541832265
 51
88.169143874659213
  0
ARC
  8
_0-2_決定
  6
CONTINUOUS
 62
    7
 10
815.27610190073096
 20
1070.8943856712006
 40
3.8316833804000745
 50
358.92159687544233
 51
22.849457233897205
  0
ARC
  8
_0-2_決定
  6
CONTINUOUS
 62
    7
 10
855.54082023666388
 20
1046.8853105936573
 40
3.1692472461362691
 50
310.69106530536629
 51
2.476873178166175
  0
ARC
  8
_0-2_決定
  6
CONTINUOUS
 62
    7
 10
856.72067996379292
 20
1045.8629807883872
 40
1.6407637418691603
 50
269.52601027564191
 51
302.70082619052403
  0
ARC
  8
_0-2_決定
  6
CONTINUOUS
 62
    7
 10
856.77321696250283
 20
1045.8021169071724
 40
1.5812263429142612
 50
230.48465566653306
 51
267.60379087218359
  0
ARC
  8
_0-2_決定
  6
CONTINUOUS
 62
    7
 10
857.70808268130031
 20
1046.8757300117518
 40
3.0045519342237892
 50
177.20436244914492
 51
229.7584189160757
  0
ARC
  8
_0-2_決定
  6
CONTINUOUS
 62
    7
 10
857.91611531069202
 20
1047.0688852202072
 40
3.2093472181831433
 50
130.14184468233168
 51
180.83218370433892
  0
ARC
  8
_0-2_決定
  6
CONTINUOUS
 62
    7
 10
856.75101712635956
 20
1048.3137296907919
 40
1.5091824361950537
 50
91.667288663866316
 51
126.7940560874692
  0
ARC
  8
_0-2_決定
  6
CONTINUOUS
 62
    7
 10
856.64742258512979
 20
1047.9551257469291
 40
1.8681011106087795
 50
19.615953541835381
 51
88.169143874662325
  0
ARC
  8
_0-2_決定
  6
CONTINUOUS
 62
    7
 10
854.87610190072905
 20
1047.0943876712004
 40
3.8316833804014205
 50
358.92159687543847
 51
22.849457233893336
  0
ARC
  8
_0-2_決定
  6
CONTINUOUS
 62
    7
 10
820.66062480984692
 20
999.51474731482733
 40
2.4482288757752335
 50
298.45441753049442
 51
357.83531770461707
  0
ARC
  8
_0-2_決定
  6
CONTINUOUS
 62
    7
 10
819.22417746412384
 20
1001.5608775935061
 40
4.939991804863789
 50
268.64204344265806
 51
301.79688621967296
  0
ARC
  8
_0-2_決定
  6
CONTINUOUS
 62
    7
 10
819.02293181467007
 20
1001.5465750786493
 40
4.9250212666412176
 50
229.84670788271805
 51
270.97930439044205
  0
ARC
  8
_0-2_決定
  6
CONTINUOUS
 62
    7
 10
817.46368144846861
 20
999.4986545235613
 40
2.3578123568128735
 50
181.85642160676602
 51
226.715228704547
  0
ARC
  8
_0-2_決定
  6
CONTINUOUS
 62
    7
 10
817.55358839629616
 20
999.32979906693674
 40
2.4482288757749897
 50
118.45441753049084
 51
177.83531770461352
  0
ARC
  8
_0-2_決定
  6
CONTINUOUS
 62
    7
 10
818.99003574202106
 20
997.28366878825705
 40
4.9399918048650111
 50
88.642043442666207
 51
121.79688621968107
  0
ARC
  8
_0-2_決定
  6
CONTINUOUS
 62
    7
 10
819.19128139147438
 20
997.29797130311567
 40
4.9250212666404556
 50
49.846707882714874
 51
90.979304390438898
  0
ARC
  8
_0-2_決定
  6
CONTINUOUS
 62
    7
 10
820.75053175767471
 20
999.34589185820278
 40
2.3578123568132128
 50
1.8564216067623116
 51
46.715228704543257
  0
ARC
  8
_0-2_決定
  6
CONTINUOUS
 62
    7
 10
858.64604641787446
 20
1009.3591829288567
 40
8.0613070708503827
 50
313.81459102639189
 51
0.4484189243079162
  0
ARC
  8
_0-2_決定
  6
CONTINUOUS
 62
    7
 10
860.65326816907736
 20
1007.719175681533
 40
5.4971661398122933
 50
270.56115538101051
 51
310.55093505816245
  0
ARC
  8
_0-2_決定
  6
CONTINUOUS
 62
    7
 10
860.85219165665899
 20
1007.8368710196378
 40
5.616472064512025
 50
210.78483952769412
 51
268.51976722496426
  0
ARC
  8
_0-2_決定
  6
CONTINUOUS
 62
    7
 10
862.68830227500393
 20
1009.3590844659818
 40
7.9814458069081207
 50
179.54638731393635
 51
213.42734031886371
  0
ARC
  8
_0-2_決定
  6
CONTINUOUS
 62
    7
 10
863.05992521079156
 20
1009.4623178595079
 40
8.3529145972498018
 50
134.86837833279864
 51
180.27468247956361
  0
ARC
  8
_0-2_決定
  6
CONTINUOUS
 62
    7
 10
860.88049389182038
 20
1011.3247794393753
 40
5.5002273316431891
 50
91.806471872373066
 51
132.46451188383088
  0
ARC
  8
_0-2_決定
  6
CONTINUOUS
 62
    7
 10
860.61787749807854
 20
1011.2474287815187
 40
5.5755584493203347
 50
30.799036789253115
 51
89.083021113064163
  0
ARC
  8
_0-2_決定
  6
CONTINUOUS
 62
    7
 10
858.33995357470508
 20
1009.6186195718906
 40
8.3694564758677021
 50
358.65572499702085
 51
32.392496996498437
  0
ARC
  8
_0-2_決定
  6
CONTINUOUS
 62
    7
 10
769.64127074796443
 20
1025.3503038324504
 40
0.8752525558477628
 50
303.71643500409942
 51
351.58867799700357
  0
ARC
  8
_0-2_決定
  6
CONTINUOUS
 62
    7
 10
767.84535160182122
 20
1027.7215124267555
 40
3.848596998119111
 50
286.01455715593033
 51
306.36166423907048
  0
ARC
  8
_0-2_決定
  6
CONTINUOUS
 62
    7
 10
766.07948511842687
 20
1033.7794493257288
 40
10.158638722651006
 50
269.02773185459171
 51
286.16155488257698
  0
ARC
  8
_0-2_決定
  6
CONTINUOUS
 62
    7
 10
765.83818812828576
 20
1034.9276360328911
 40
11.305572918756507
 50
255.49795778238956
 51
270.34928586234838
  0
ARC
  8
_0-2_決定
  6
CONTINUOUS
 62
    7
 10
763.9143772447469
 20
1028.1930659570767
 40
4.3074252295316642
 50
235.05468807575252
 51
257.84078457844356
  0
ARC
  8
_0-2_決定
  6
CONTINUOUS
 62
    7
 10
761.8466954915109
 20
1025.2880938017202
 40
0.7425100122973361
 50
185.08572254137226
 51
237.44174084737278
  0
ARC
  8
_0-2_決定
  6
CONTINUOUS
 62
    7
 10
762.08762091685821
 20
1025.1384725541716
 40
0.9840868580568207
 50
129.09043806080771
 51
175.11501987728383
  0
ARC
  8
_0-2_決定
  6
CONTINUOUS
 62
    7
 10
763.6414588169921
 20
1023.2623389265764
 40
3.4200952870688015
 50
107.60380292297444
 51
129.47616745294278
  0
ARC
  8
_0-2_決定
  6
CONTINUOUS
 62
    7
 10
765.7025420025675
 20
1017.2324127542097
 40
9.7919974909901946
 50
88.802935193530331
 51
108.42836117479483
  0
ARC
  8
_0-2_決定
  6
CONTINUOUS
 62
    7
 10
766.04283518614488
 20
1017.1564951379353
 40
9.8667116252251788
 50
74.454742143732773
 51
90.788186170934367
  0
ARC
  8
_0-2_決定
  6
CONTINUOUS
 62
    7
 10
767.77178866897111
 20
1023.0151956102803
 40
3.7601842322804528
 50
51.606030152107799
 51
75.911270543552078
  0
ARC
  8
_0-2_決定
  6
CONTINUOUS
 62
    7
 10
769.4877690014082
 20
1025.149386919712
 40
1.0219420884010488
 50
4.0898836917221226
 51
52.69615515108805
  0
ARC
  8
_0-2_決定
  6
CONTINUOUS
 62
    7
 10
655.32542487342789
 20
1092.1775513318421
 40
29.582695957097947
 50
343.75568191515902
 51
0.4739789447033331
  0
ARC
  8
_0-2_決定
  6
CONTINUOUS
 62
    7
 10
671.78825458371739
 20
1087.6135963580614
 40
12.50240656001878
 50
330.10513414644441
 51
342.73156356385221
  0
ARC
  8
_0-2_決定
  6
CONTINUOUS
 62
    7
 10
677.92103819880163
 20
1084.057197895796
 40
5.4131628025220309
 50
311.48869800596719
 51
330.38613419301481
  0
ARC
  8
_0-2_決定
  6
CONTINUOUS
 62
    7
 10
680.00226953703623
 20
1081.6549861778658
 40
2.2351750362931848
 50
272.68839827169006
 51
312.31865872782714
  0
ARC
  8
_0-2_決定
  6
CONTINUOUS
 62
    7
 10
680.13882497655209
 20
1081.7079924358159
 40
2.2859412804987587
 50
237.39648936699786
 51
269.2050221650249
  0
ARC
  8
_0-2_決定
  6
CONTINUOUS
 62
    7
 10
681.18861984098226
 20
1083.2453035249919
 40
4.1470334548687831
 50
216.78035726318393
 51
236.62235194749192
  0
ARC
  8
_0-2_決定
  6
CONTINUOUS
 62
    7
 10
684.83724912035336
 20
1085.9523514864729
 40
8.6902124430494592
 50
202.81779186493534
 51
216.67197072896448
  0
ARC
  8
_0-2_決定
  6
CONTINUOUS
 62
    7
 10
692.40079311819818
 20
1089.3401660292536
 40
16.976713227924403
 50
193.41241090132243
 51
203.45748674449737
  0
ARC
  8
_0-2_決定
  6
CONTINUOUS
 62
    7
 10
704.1208340856324
 20
1092.0926851333902
 40
29.015597414953792
 50
179.34916741788243
 51
193.3312160739425
  0
ARC
  8
_0-2_決定
  6
CONTINUOUS
 62
    7
 10
703.12481246065408
 20
1092.6472778300767
 40
28.01860734295833
 50
163.16427070289814
 51
180.46012527328412
  0
ARC
  8
_0-2_決定
  6
CONTINUOUS
 62
    7
 10
687.69766535061626
 20
1097.0780973140027
 40
11.971546273314139
 50
148.8973660905728
 51
162.07666229609779
  0
ARC
  8
_0-2_決定
  6
CONTINUOUS
 62
    7
 10
682.07050549588894
 20
1100.5534738027172
 40
5.3584869243694913
 50
130.26611282897355
 51
149.63443163961915
  0
ARC
  8
_0-2_決定
  6
CONTINUOUS
 62
    7
 10
680.20099143638186
 20
1102.7498155874935
 40
2.4742373970815623
 50
92.174561634968143
 51
130.10508798234818
  0
ARC
  8
_0-2_決定
  6
CONTINUOUS
 62
    7
 10
680.06017621416868
 20
1103.1540370920702
 40
2.068766525400016
 50
55.662155480967307
 51
88.70006669003233
  0
ARC
  8
_0-2_決定
  6
CONTINUOUS
 62
    7
 10
678.75114744661823
 20
1101.3928376034166
 40
4.2623178044465586
 50
34.42223557800245
 51
54.486449235192104
  0
ARC
  8
_0-2_決定
  6
CONTINUOUS
 62
    7
 10
674.55038141623481
 20
1098.3807106313461
 40
9.4308640843136828
 50
21.795033583074762
 51
35.090823665643185
  0
ARC
  8
_0-2_決定
  6
CONTINUOUS
 62
    7
 10
666.23789984984546
 20
1094.9805691596857
 40
18.411718507207631
 50
12.298237173583502
 51
22.015275007856356
  0
ARC
  8
_0-2_決定
  6
CONTINUOUS
 62
    7
 10
655.64141683521507
 20
1092.6268590917869
 40
29.266406866241464
 50
359.59946846949254
 51
12.381720966353965
  0
ARC
  8
_0-2_決定
  6
CONTINUOUS
 62
    7
 10
769.52730481215985
 20
821.87542967708418
 40
6.2319561279779068
 50
325.23926103238585
 51
36.958115933948385
  0
ARC
  8
_0-2_決定
  6
CONTINUOUS
 62
    7
 10
763.85350532511006
 20
825.29587281774275
 40
12.850404367527236
 50
302.86597756666549
 51
327.13405243113516
  0
ARC
  8
_0-2_決定
  6
CONTINUOUS
 62
    7
 10
757.84115532878468
 20
833.29672355303637
 40
22.84439256534634
 50
286.75598393418261
 51
304.64238790902652
  0
ARC
  8
_0-2_決定
  6
CONTINUOUS
 62
    7
 10
755.51667474151054
 20
840.08414947282995
 40
30.0149774105437
 50
278.79723281577503
 51
287.26947983605027
  0
ARC
  8
_0-2_決定
  6
CONTINUOUS
 62
    7
 10
749.31674889331271
 20
834.89925741539082
 40
26.749850868460896
 50
268.22269995309608
 51
293.78966076450024
  0
ARC
  8
_0-2_決定
  6
CONTINUOUS
 62
    7
 10
749.24458971906142
 20
821.67691363130621
 40
13.535849800307124
 50
243.69935773094767
 51
266.79198896926823
  0
ARC
  8
_0-2_決定
  6
CONTINUOUS
 62
    7
 10
746.26029612366187
 20
815.14245313625111
 40
6.35934682605353
 50
177.47807419714886
 51
241.71743338935971
  0
ARC
  8
_0-2_決定
  6
CONTINUOUS
 62
    7
 10
744.88691039398441
 20
819.16912070467993
 40
6.2319561279779068
 50
145.23926103238588
 51
216.95811593394839
  0
ARC
  8
_0-2_決定
  6
CONTINUOUS
 62
    7
 10
750.56071088103386
 20
815.7486729129223
 40
12.850407731506726
 50
122.86596256777153
 51
147.13403743224123
  0
ARC
  8
_0-2_決定
  6
CONTINUOUS
 62
    7
 10
756.5730618773589
 20
807.74782682872774
 40
22.84439256534634
 50
106.75598393418262
 51
124.64238790902655
  0
ARC
  8
_0-2_決定
  6
CONTINUOUS
 62
    7
 10
758.89754246463303
 20
800.96040090893416
 40
30.0149774105437
 50
98.797232815775018
 51
107.26947983605027
  0
ARC
  8
_0-2_決定
  6
CONTINUOUS
 62
    7
 10
764.9536466598513
 20
806.85172245847923
 40
26.045881628357161
 50
88.034175065801605
 51
114.12702031428404
  0
ARC
  8
_0-2_決定
  6
CONTINUOUS
 62
    7
 10
765.07727918668343
 20
819.14597133687471
 40
13.757858877745591
 50
63.912945262023747
 51
86.792304193250246
  0
ARC
  8
_0-2_決定
  6
CONTINUOUS
 62
    7
 10
768.1217944876189
 20
825.86327026918013
 40
6.3898583270305975
 50
357.83856295891491
 51
61.944564325603821
  0
ARC
  8
_0-2_決定
  6
CONTINUOUS
 62
    7
 10
799.93520389403466
 20
772.16468109033372
 40
4.3825586639471279
 50
277.76201467584917
 51
342.16324832007507
  0
ARC
  8
_0-2_決定
  6
CONTINUOUS
 62
    7
 10
799.13390539690477
 20
776.66422854627262
 40
8.9510397927814207
 50
249.82713738153109
 51
278.95431372557977
  0
ARC
  8
_0-2_決定
  6
CONTINUOUS
 62
    7
 10
801.99338208728955
 20
786.06041675698009
 40
18.765179566114227
 50
223.16855312826317
 51
251.52576639034223
  0
ARC
  8
_0-2_決定
  6
CONTINUOUS
 62
    7
 10
797.03967869075404
 20
789.46527703299978
 40
18.441606739587776
 50
211.0901868698638
 51
241.73660752208292
  0
ARC
  8
_0-2_決定
  6
CONTINUOUS
 62
    7
 10
787.83950148251301
 20
783.48296437207728
 40
7.4830565921657932
 50
176.9411147758716
 51
208.23965111520454
  0
ARC
  8
_0-2_決定
  6
CONTINUOUS
 62
    7
 10
784.6405003210632
 20
783.37804326869673
 40
4.3030391256934903
 50
116.69935146593699
 51
173.27056894335465
  0
ARC
  8
_0-2_決定
  6
CONTINUOUS
 62
    7
 10
786.9161648548411
 20
785.85274711952457
 40
4.4262607224540451
 50
97.386625360522117
 51
161.9763119521956
  0
ARC
  8
_0-2_決定
  6
CONTINUOUS
 62
    7
 10
787.7702247780187
 20
781.17282706530636
 40
9.1804223564262681
 50
70.417921249165957
 51
98.917760987521447
  0
ARC
  8
_0-2_決定
  6
CONTINUOUS
 62
    7
 10
785.30749471692752
 20
772.46993099243264
 40
18.215135163664627
 50
43.560195486154498
 51
72.294688677747629
  0
ARC
  8
_0-2_決定
  6
CONTINUOUS
 62
    7
 10
788.04860880883871
 20
766.65900018426214
 40
21.13267892468518
 50
40.210745529835947
 51
60.337046384868358
  0
ARC
  8
_0-2_決定
  6
CONTINUOUS
 62
    7
 10
795.38973629555153
 20
772.97187777760087
 40
11.451134436634394
 50
15.449208698845439
 51
39.802717035833972
  0
ARC
  8
_0-2_決定
  6
CONTINUOUS
 62
    7
 10
801.80124146961953
 20
774.96858625042228
 40
4.7443537843312882
 50
299.07951937092537
 51
12.832034090342836
  0
ARC
  8
_0-2_決定
  6
CONTINUOUS
 62
    7
 10
745.28194836930447
 20
752.70757058939125
 40
14.923993925423051
 50
342.91189973056032
 51
6.5976241900164538
  0
ARC
  8
_0-2_決定
  6
CONTINUOUS
 62
    7
 10
754.28781840557713
 20
749.9729946696732
 40
5.5122592080061921
 50
306.50611394936965
 51
342.57464966031415
  0
ARC
  8
_0-2_決定
  6
CONTINUOUS
 62
    7
 10
756.41614907060875
 20
747.55874916483322
 40
2.3218240818583831
 50
246.95089124923049
 51
299.71681007385808
  0
ARC
  8
_0-2_決定
  6
CONTINUOUS
 62
    7
 10
754.64268458921333
 20
747.38953948832909
 40
2.1488019505511167
 50
230.88699119510639
 51
293.7209053608625
  0
ARC
  8
_0-2_決定
  6
CONTINUOUS
 62
    7
 10
755.80682957041768
 20
748.83845010593495
 40
4.0074340156505492
 50
210.86984978681761
 51
231.04117906477853
  0
ARC
  8
_0-2_決定
  6
CONTINUOUS
 62
    7
 10
758.92191441949171
 20
750.830266624655
 40
7.704005305482502
 50
196.80999810676457
 51
211.69784134189115
  0
ARC
  8
_0-2_決定
  6
CONTINUOUS
 62
    7
 10
765.17066189916954
 20
752.55886884900576
 40
14.186466154781421
 50
172.45232415260472
 51
196.19450640880393
  0
ARC
  8
_0-2_決定
  6
CONTINUOUS
 62
    7
 10
766.83009459440291
 20
756.20499955701746
 40
15.823728622493329
 50
163.63931426277037
 51
186.46875264302648
  0
ARC
  8
_0-2_決定
  6
CONTINUOUS
 62
    7
 10
758.1040528455369
 20
758.60181025779355
 40
6.7777321378654314
 50
145.07303731186997
 51
162.30166569853324
  0
ARC
  8
_0-2_決定
  6
CONTINUOUS
 62
    7
 10
754.80093129179659
 20
760.99257270967541
 40
2.701654336427235
 50
95.390937171546938
 51
146.5365758926169
  0
ARC
  8
_0-2_決定
  6
CONTINUOUS
 62
    7
 10
754.44621203194197
 20
761.40742831286673
 40
2.2770853158972324
 50
62.231444204576881
 51
87.460419694755771
  0
ARC
  8
_0-2_決定
  6
CONTINUOUS
 62
    7
 10
756.53547421395865
 20
761.1318139378036
 40
2.5107285284069798
 50
27.272235671998615
 51
114.17898961474263
  0
ARC
  8
_0-2_決定
  6
CONTINUOUS
 62
    7
 10
752.95711644964649
 20
758.43204568158285
 40
6.9699563483615794
 50
17.968856550788306
 51
33.532091703848039
  0
ARC
  8
_0-2_決定
  6
CONTINUOUS
 62
    7
 10
746.1756110040053
 20
756.34818973122151
 40
14.06398821337077
 50
352.12922546278202
 51
17.521208391430299
  0
ARC
  8
_0-2_決定
  6
CONTINUOUS
 62
    7
 10
693.34371896388211
 20
761.39713849271857
 40
6.4675569007973275
 50
281.6262888522852
 51
317.43456161223378
  0
ARC
  8
_0-2_決定
  6
CONTINUOUS
 62
    7
 10
692.35720540887792
 20
765.56323074796921
 40
10.747729166985787
 50
255.83519374633056
 51
282.30169305751866
  0
ARC
  8
_0-2_決定
  6
CONTINUOUS
 62
    7
 10
693.93655124789711
 20
773.90689199807775
 40
19.230969196649824
 50
237.86435526398219
 51
257.35622817295666
  0
ARC
  8
_0-2_決定
  6
CONTINUOUS
 62
    7
 10
697.15641393904684
 20
779.72135097218575
 40
25.869922226627907
 50
227.58453725938782
 51
238.67566744893199
  0
ARC
  8
_0-2_決定
  6
CONTINUOUS
 62
    7
 10
695.75298507058938
 20
778.47248936535698
 40
24.002087956771696
 50
201.27802928007904
 51
228.0470577785988
  0
ARC
  8
_0-2_決定
  6
CONTINUOUS
 62
    7
 10
685.09500306480754
 20
773.96379808127995
 40
12.438953755022332
 50
175.95021565643603
 51
199.74114428641366
  0
ARC
  8
_0-2_決定
  6
CONTINUOUS
 62
    7
 10
679.54917692947879
 20
774.13853362242151
 40
6.8980603597266308
 50
139.45835074893697
 51
174.14446822375942
  0
ARC
  8
_0-2_決定
  6
CONTINUOUS
 62
    7
 10
678.97920075137881
 20
774.34504067895341
 40
6.3342874280574026
 50
101.03182104210548
 51
137.52632338624556
  0
ARC
  8
_0-2_決定
  6
CONTINUOUS
 62
    7
 10
679.92737459590239
 20
769.95876779609034
 40
10.821328968533342
 50
75.224798844559544
 51
101.51534538466953
  0
ARC
  8
_0-2_決定
  6
CONTINUOUS
 62
    7
 10
678.13888416076361
 20
760.83606515465499
 40
20.107363017204626
 50
57.754569773607365
 51
76.926726146382777
  0
ARC
  8
_0-2_決定
  6
CONTINUOUS
 62
    7
 10
674.76506100275151
 20
754.61502088406542
 40
27.173023057147297
 50
48.678084445173035
 51
58.736656097859679
  0
ARC
  8
_0-2_決定
  6
CONTINUOUS
 62
    7
 10
676.6238256251338
 20
757.16752916643827
 40
24.030481026496481
 50
21.468091973504357
 51
47.987958948090927
  0
ARC
  8
_0-2_決定
  6
CONTINUOUS
 62
    7
 10
686.98091701171711
 20
761.56649177726899
 40
12.785599944110915
 50
356.84262354462084
 51
20.109019370799167
  0
ARC
  8
_0-2_決定
  6
CONTINUOUS
 62
    7
 10
693.11311696575535
 20
761.42533611931867
 40
6.6578435248113568
 50
318.59830193476807
 51
355.14865728773913
  0
ARC
  8
_0-2_決定
  6
CONTINUOUS
 62
    7
 10
821.48110942724406
 20
822.22912101886232
 40
12.027548237574983
 50
345.9159402289124
 51
0.9201704607304048
  0
ARC
  8
_0-2_決定
  6
CONTINUOUS
 62
    7
 10
829.94262998575641
 20
819.95000347717394
 40
3.2692846807497866
 50
321.66662430090508
 51
348.57264198071857
  0
ARC
  8
_0-2_決定
  6
CONTINUOUS
 62
    7
 10
831.87375847186081
 20
818.43897145330402
 40
0.817376830421414
 50
272.33825767890573
 51
320.79184467529365
  0
ARC
  8
_0-2_決定
  6
CONTINUOUS
 62
    7
 10
832.03587346444033
 20
818.45144566349632
 40
0.8391093952770257
 50
212.36387201096773
 51
261.17270585305192
  0
ARC
  8
_0-2_決定
  6
CONTINUOUS
 62
    7
 10
834.77142124536817
 20
820.38042041040308
 40
4.1855558818709504
 50
194.92693748458368
 51
214.62334365307379
  0
ARC
  8
_0-2_決定
  6
CONTINUOUS
 62
    7
 10
841.25119470697973
 20
822.30724858948633
 40
10.944692574263017
 50
179.39782135674545
 51
195.93578716689456
  0
ARC
  8
_0-2_決定
  6
CONTINUOUS
 62
    7
 10
841.61229655344437
 20
822.49121712807528
 40
11.305400161193544
 50
165.49784367133967
 51
180.34939997336508
  0
ARC
  8
_0-2_決定
  6
CONTINUOUS
 62
    7
 10
834.87789936926697
 20
824.4150065492081
 40
4.3074252295312325
 50
145.05468807576568
 51
167.84078457845672
  0
ARC
  8
_0-2_決定
  6
CONTINUOUS
 62
    7
 10
831.97292721390932
 20
826.48268830244319
 40
0.7425100122970314
 50
95.085722541357441
 51
147.44174084735798
  0
ARC
  8
_0-2_決定
  6
CONTINUOUS
 62
    7
 10
831.84260738352896
 20
826.31902662171967
 40
0.9055485227282834
 50
36.863527658553366
 51
85.915553009533497
  0
ARC
  8
_0-2_決定
  6
CONTINUOUS
 62
    7
 10
829.92614857568674
 20
824.91340033580457
 40
3.282190199114611
 50
14.267163616516248
 51
36.425188267389409
  0
ARC
  8
_0-2_決定
  6
CONTINUOUS
 62
    7
 10
822.09932622863585
 20
822.71375635761615
 40
11.411503596894292
 50
358.53634912714352
 51
15.286105110913478
  0
ARC
  8
_0-2_決定
  6
CONTINUOUS
 62
    7
 10
854.36059727832139
 20
780.48125147172436
 40
11.347385694956927
 50
345.51139109737068
 51
0.7120923486394793
  0
ARC
  8
_0-2_決定
  6
CONTINUOUS
 62
    7
 10
861.5579306119073
 20
778.45590364020973
 40
3.8755441799912878
 50
323.34601383466702
 51
347.8812439617422
  0
ARC
  8
_0-2_決定
  6
CONTINUOUS
 62
    7
 10
864.0480912606281
 20
776.57555404015875
 40
0.7555850860758922
 50
274.47967744757631
 51
325.01008514633941
  0
ARC
  8
_0-2_決定
  6
CONTINUOUS
 62
    7
 10
864.23089282050887
 20
776.68141332367691
 40
0.8680080197216184
 50
213.50398988248256
 51
261.80112311862052
  0
ARC
  8
_0-2_決定
  6
CONTINUOUS
 62
    7
 10
866.62845375897314
 20
778.43406518303345
 40
3.8371455158182095
 50
195.28867940930576
 51
215.56506892991703
  0
ARC
  8
_0-2_決定
  6
CONTINUOUS
 62
    7
 10
873.3330777329852
 20
780.41562340168207
 40
10.827943327072976
 50
178.90643047306688
 51
196.0482301402443
  0
ARC
  8
_0-2_決定
  6
CONTINUOUS
 62
    7
 10
873.81229655344237
 20
780.69121912807702
 40
11.305400161191088
 50
165.49784367134933
 51
180.34939997337477
  0
ARC
  8
_0-2_決定
  6
CONTINUOUS
 62
    7
 10
867.07789936926724
 20
782.61500854920632
 40
4.3074252295324671
 50
145.05468807575195
 51
167.84078457844299
  0
ARC
  8
_0-2_決定
  6
CONTINUOUS
 62
    7
 10
864.17292721391027
 20
784.68269030244323
 40
0.7425100122971988
 50
95.085722541378701
 51
147.44174084737924
  0
ARC
  8
_0-2_決定
  6
CONTINUOUS
 62
    7
 10
863.9783397417043
 20
784.59310671826779
 40
0.8391093952768371
 50
32.363872010987365
 51
81.172705853071562
  0
ARC
  8
_0-2_決定
  6
CONTINUOUS
 62
    7
 10
861.242791960776
 20
782.66413197136103
 40
4.1855558818709504
 50
14.92693748458367
 51
34.623343653073796
  0
ARC
  8
_0-2_決定
  6
CONTINUOUS
 62
    7
 10
854.76301849916445
 20
780.73730379227982
 40
10.944692574262753
 50
359.39782135673522
 51
15.935787166884282
  0
ARC
  8
_0-2_決定
  6
CONTINUOUS
 62
    7
 10
705.72730681215921
 20
621.87543367708372
 40
6.2319561279781563
 50
325.23926103239029
 51
36.958115933952811
  0
ARC
  8
_0-2_決定
  6
CONTINUOUS
 62
    7
 10
700.0535063251109
 20
625.29588146884294
 40
12.850407731507204
 50
302.86596256776517
 51
327.13403743223483
  0
ARC
  8
_0-2_決定
  6
CONTINUOUS
 62
    7
 10
694.04115532878473
 20
633.29672755303648
 40
22.84439256534634
 50
286.75598393418261
 51
304.64238790902652
  0
ARC
  8
_0-2_決定
  6
CONTINUOUS
 62
    7
 10
691.71667474151059
 20
640.08415347282607
 40
30.014977410539952
 50
278.79723281577668
 51
287.26947983605191
  0
ARC
  8
_0-2_決定
  6
CONTINUOUS
 62
    7
 10
685.66057054629277
 20
634.19283192328498
 40
26.045881628357161
 50
268.03417506580161
 51
294.12702031428404
  0
ARC
  8
_0-2_決定
  6
CONTINUOUS
 62
    7
 10
685.53693801946088
 20
621.89858304488951
 40
13.757858877745591
 50
243.91294526202375
 51
266.79230419325023
  0
ARC
  8
_0-2_決定
  6
CONTINUOUS
 62
    7
 10
682.49242171852552
 20
615.18128570962915
 40
6.3898592660863232
 50
177.83857760708889
 51
241.94457897377782
  0
ARC
  8
_0-2_決定
  6
CONTINUOUS
 62
    7
 10
681.086910393984
 20
619.16912470468048
 40
6.2319561279779148
 50
145.23926103239035
 51
216.95811593395285
  0
ARC
  8
_0-2_決定
  6
CONTINUOUS
 62
    7
 10
686.76071088103322
 20
615.74867691292127
 40
12.85040773150768
 50
122.86596256776728
 51
147.13403743223699
  0
ARC
  8
_0-2_決定
  6
CONTINUOUS
 62
    7
 10
692.77306187735894
 20
607.74783082872773
 40
22.84439256534634
 50
106.75598393418262
 51
124.64238790902655
  0
ARC
  8
_0-2_決定
  6
CONTINUOUS
 62
    7
 10
695.09754246463308
 20
600.96040490893415
 40
30.0149774105437
 50
98.797232815775018
 51
107.26947983605027
  0
ARC
  8
_0-2_決定
  6
CONTINUOUS
 62
    7
 10
701.32077543814285
 20
606.04766475122517
 40
26.848595219819519
 50
88.150895746982755
 51
113.75112840261492
  0
ARC
  8
_0-2_決定
  6
CONTINUOUS
 62
    7
 10
701.38386756368368
 20
619.08708302236107
 40
13.818561194832926
 50
64.52665435933524
 51
86.667650325862937
  0
ARC
  8
_0-2_決定
  6
CONTINUOUS
 62
    7
 10
704.48240123462233
 20
626.01192381960936
 40
6.2368906323202449
 50
356.41816056859682
 51
62.863632092056058
  0
ARC
  8
_0-2_決定
  6
CONTINUOUS
 62
    7
 10
761.32793348219275
 20
686.34261316242316
 40
31.205368110178714
 50
283.67836893662945
 51
300.162299770206
  0
ARC
  8
_0-2_決定
  6
CONTINUOUS
 62
    7
 10
773.65218714084699
 20
664.7728562743348
 40
6.3663058846016751
 50
301.80166975500902
 51
320.25333836349716
  0
ARC
  8
_0-2_決定
  6
CONTINUOUS
 62
    7
 10
777.51907779647831
 20
661.6505721644296
 40
1.3986088030762138
 50
317.31031774431528
 51
7.0519044266805615
  0
ARC
  8
_0-2_決定
  6
CONTINUOUS
 62
    7
 10
777.68712592965448
 20
661.48895781563624
 40
1.2646954769533572
 50
15.281228504835564
 51
56.394077403719372
  0
ARC
  8
_0-2_決定
  6
CONTINUOUS
 62
    7
 10
776.40769725591349
 20
659.58943218408876
 40
3.5549057649620397
 50
56.164482195566798
 51
77.665250458808146
  0
ARC
  8
_0-2_決定
  6
CONTINUOUS
 62
    7
 10
774.96260876581368
 20
653.06408922336595
 40
10.238338407586376
 50
77.565819751673516
 51
90.310602670868704
  0
ARC
  8
_0-2_決定
  6
CONTINUOUS
 62
    7
 10
774.74054405500942
 20
640.65497703832898
 40
22.647912647355714
 50
89.578618250208905
 51
98.003717678870075
  0
ARC
  8
_0-2_決定
  6
CONTINUOUS
 62
    7
 10
776.20000118146231
 20
629.04485831238526
 40
34.348575834378259
 50
97.717940294964521
 51
105.00488200096015
  0
ARC
  8
_0-2_決定
  6
CONTINUOUS
 62
    7
 10
774.68628272395085
 20
631.90193431564603
 40
31.20537458160252
 50
103.67836415515627
 51
120.16229498873284
  0
ARC
  8
_0-2_決定
  6
CONTINUOUS
 62
    7
 10
762.36202806529695
 20
653.47169810742969
 40
6.3663058846010925
 50
121.80166975500299
 51
140.2533383634912
  0
ARC
  8
_0-2_決定
  6
CONTINUOUS
 62
    7
 10
758.49513740966609
 20
656.59398221733341
 40
1.3986088030772708
 50
137.31031774427103
 51
187.05190442663633
  0
ARC
  8
_0-2_決定
  6
CONTINUOUS
 62
    7
 10
758.32708927648832
 20
656.75559656612791
 40
1.264695476952701
 50
195.28122850485701
 51
236.39407740374082
  0
ARC
  8
_0-2_決定
  6
CONTINUOUS
 62
    7
 10
759.60651795023091
 20
658.65512219767675
 40
3.5549057649637392
 50
236.16448219556511
 51
257.66525045880644
  0
ARC
  8
_0-2_決定
  6
CONTINUOUS
 62
    7
 10
761.05160644033026
 20
665.18046515839819
 40
10.238338407586376
 50
257.56581975167353
 51
270.31060267086872
  0
ARC
  8
_0-2_決定
  6
CONTINUOUS
 62
    7
 10
761.27367215113259
 20
677.58959092012958
 40
22.647926231037331
 50
269.5786159730381
 51
278.00371540169931
  0
ARC
  8
_0-2_決定
  6
CONTINUOUS
 62
    7
 10
759.81421602468549
 20
689.19969606937889
 40
34.348575834377385
 50
277.7179402949572
 51
285.00488200095288
  0
ARC
  8
_0-2_決定
  6
CONTINUOUS
 62
    7
 10
743.26144637890275
 20
723.31747490616863
 40
1.0499867104157816
 50
310.76967880446023
 51
354.79809808093745
  0
ARC
  8
_0-2_決定
  6
CONTINUOUS
 62
    7
 10
741.93997042227261
 20
724.73770698386204
 40
2.9894368774816233
 50
288.47122146954979
 51
312.17599225553937
  0
ARC
  8
_0-2_決定
  6
CONTINUOUS
 62
    7
 10
741.16205457952879
 20
727.07083491197841
 40
5.4488347653828919
 50
269.42222033796202
 51
288.45690966833604
  0
ARC
  8
_0-2_決定
  6
CONTINUOUS
 62
    7
 10
740.94382275872567
 20
725.9354304616005
 40
4.3162429731971201
 50
228.91192695082549
 51
272.1680481786056
  0
ARC
  8
_0-2_決定
  6
CONTINUOUS
 62
    7
 10
738.77406313469487
 20
723.23633442481628
 40
0.8670684896404541
 50
180.92894099225876
 51
219.71733266703177
  0
ARC
  8
_0-2_決定
  6
CONTINUOUS
 62
    7
 10
739.03357285572588
 20
723.19636827718773
 40
1.1267621684791316
 50
132.86209198550827
 51
178.68241737857323
  0
ARC
  8
_0-2_決定
  6
CONTINUOUS
 62
    7
 10
739.94973683224634
 20
722.12787781201223
 40
2.5337692800007501
 50
106.09945584320447
 51
131.61186659627745
  0
ARC
  8
_0-2_決定
  6
CONTINUOUS
 62
    7
 10
741.00103040045474
 20
718.79806740959816
 40
6.025143655879619
 50
88.991202917527474
 51
106.92384753629298
  0
ARC
  8
_0-2_決定
  6
CONTINUOUS
 62
    7
 10
741.26542760876555
 20
719.25846404924812
 40
5.5660651795124716
 50
69.80297556356382
 51
91.629918825899992
  0
ARC
  8
_0-2_決定
  6
CONTINUOUS
 62
    7
 10
742.70762105415406
 20
722.92828825851018
 40
1.6262810063150046
 50
10.414832372892427
 51
72.852246300270423
  0
ARC
  8
_0-2_決定
  6
CONTINUOUS
 62
    7
 10
847.14628560988876
 20
656.45397615150443
 40
8.9683866178637857
 50
2.3536040399266303
 51
90.250301305228788
  0
ARC
  8
_0-2_決定
  6
CONTINUOUS
 62
    7
 10
847.3646050304651
 20
656.14349976686549
 40
9.2823496984624345
 50
91.589626173231835
 51
175.80646848160916
  0
ARC
  8
_0-2_決定
  6
CONTINUOUS
 62
    7
 10
847.06792655885488
 20
657.1905792302598
 40
8.968385622405556
 50
182.35361069535068
 51
270.25030796065283
  0
ARC
  8
_0-2_決定
  6
CONTINUOUS
 62
    7
 10
846.84960928207397
 20
657.50105561489795
 40
9.2823486681548317
 50
271.5896195178114
 51
355.80646182618869
  0
ARC
  8
_0-2_決定
  6
CONTINUOUS
 62
    7
 10
814.81282683290351
 20
720.14023493768434
 40
3.496270175807243
 50
308.45395570132365
 51
358.0665785177415
  0
ARC
  8
_0-2_決定
  6
CONTINUOUS
 62
    7
 10
811.67317437167776
 20
723.49944305503527
 40
8.0878493640055673
 50
281.07721386382889
 51
311.07349730406389
  0
ARC
  8
_0-2_決定
  6
CONTINUOUS
 62
    7
 10
810.33286343577765
 20
727.70989498058634
 40
12.487644352565804
 50
269.88182247889125
 51
283.40121579712729
  0
ARC
  8
_0-2_決定
  6
CONTINUOUS
 62
    7
 10
810.20999978833083
 20
726.92271479897818
 40
11.700840566147948
 50
243.59842639145563
 51
270.47551066827907
  0
ARC
  8
_0-2_決定
  6
CONTINUOUS
 62
    7
 10
807.62649833247929
 20
721.54565878244648
 40
5.7363504688270561
 50
208.11689917218831
 51
242.83011694528597
  0
ARC
  8
_0-2_決定
  6
CONTINUOUS
 62
    7
 10
805.2575951974618
 20
720.05374077947522
 40
2.9506563512260211
 50
180.61097084347313
 51
204.24091488733993
  0
ARC
  8
_0-2_決定
  6
CONTINUOUS
 62
    7
 10
805.80138637324103
 20
719.90431944407965
 40
3.4962701758075458
 50
128.45395570132615
 51
178.06657851774403
  0
ARC
  8
_0-2_決定
  6
CONTINUOUS
 62
    7
 10
808.9410388344661
 20
716.5451113267286
 40
8.0878493640055673
 50
101.07721386382887
 51
131.07349730406389
  0
ARC
  8
_0-2_決定
  6
CONTINUOUS
 62
    7
 10
810.28134977036666
 20
712.33465940118003
 40
12.487644352563542
 50
89.88182247889803
 51
103.40121579713409
  0
ARC
  8
_0-2_決定
  6
CONTINUOUS
 62
    7
 10
810.40421341781189
 20
713.12183958278467
 40
11.700840566149274
 50
63.598426391454019
 51
90.475510668277494
  0
ARC
  8
_0-2_決定
  6
CONTINUOUS
 62
    7
 10
812.98771487366457
 20
718.49889559931739
 40
5.7363504688270561
 50
28.116899172188333
 51
62.830116945285965
  0
ARC
  8
_0-2_決定
  6
CONTINUOUS
 62
    7
 10
815.35661800868161
 20
719.99081360228865
 40
2.9506563512266988
 50
0.6109708434702169
 51
24.240914887337002
  0
ARC
  8
_0-2_決定
  6
CONTINUOUS
 62
    7
 10
806.7988716874263
 20
646.33051410652774
 40
8.313950696075505
 50
272.1246948283399
 51
357.87530517166215
  0
ARC
  8
_0-2_決定
  6
CONTINUOUS
 62
    7
 10
807.4153415187177
 20
646.33051410652797
 40
8.3139506960757998
 50
182.12469482833987
 51
267.87530517166215
  0
ARC
  8
_0-2_決定
  6
CONTINUOUS
 62
    7
 10
807.41534044165951
 20
645.71404327523601
 40
8.3139496568320919
 50
92.124687666364935
 51
177.87529800968719
  0
ARC
  8
_0-2_決定
  6
CONTINUOUS
 62
    7
 10
806.79887276448517
 20
645.71404327523624
 40
8.3139496568317934
 50
2.1247019903107454
 51
87.875312333633005
  0
ARC
  8
_0-2_決定
  6
CONTINUOUS
 62
    7
 10
709.63598287980881
 20
673.98529923534716
 40
8.7441388741384607
 50
319.11839784687447
 51
18.931855642296309
  0
ARC
  8
_0-2_決定
  6
CONTINUOUS
 62
    7
 10
706.56436755959339
 20
676.11200040827214
 40
12.464895856150877
 50
287.47337137092887
 51
320.96858557455721
  0
ARC
  8
_0-2_決定
  6
CONTINUOUS
 62
    7
 10
706.50686383147081
 20
675.53461038115188
 40
11.933597216755773
 50
226.33291160500187
 51
288.56916641521082
  0
ARC
  8
_0-2_決定
  6
CONTINUOUS
 62
    7
 10
704.77192238956013
 20
672.81339782931263
 40
8.7894225975867268
 50
199.89570822855413
 51
222.2623710416006
  0
ARC
  8
_0-2_決定
  6
CONTINUOUS
 62
    7
 10
705.34456025803729
 20
672.45365136022258
 40
9.2208829172113731
 50
137.67599991852416
 51
196.58103662061754
  0
ARC
  8
_0-2_決定
  6
CONTINUOUS
 62
    7
 10
707.66554106586477
 20
670.936974096482
 40
11.966254876834814
 50
106.29951654456032
 51
139.790019960737
  0
ARC
  8
_0-2_決定
  6
CONTINUOUS
 62
    7
 10
708.26201552159637
 20
670.95167414210721
 40
12.133261022361268
 50
58.911804547170881
 51
109.02349247022838
  0
ARC
  8
_0-2_決定
  6
CONTINUOUS
 62
    7
 10
709.6775044578626
 20
674.19204223273846
 40
8.6397060321451598
 50
17.724217527814908
 51
55.853151849938634
  0
ARC
  8
_0-2_決定
  6
CONTINUOUS
 62
    7
 10
733.55871920606182
 20
580.82987613044543
 40
4.0301354378249385
 50
348.44026149174391
 51
34.322664004960174
  0
ARC
  8
_0-2_決定
  6
CONTINUOUS
 62
    7
 10
729.53459892998717
 20
578.61052451107696
 40
8.6159885443491859
 50
31.421362458611167
 51
45.560724660410926
  0
ARC
  8
_0-2_決定
  6
CONTINUOUS
 62
    7
 10
724.39426562763492
 20
573.27160801597813
 40
16.027100305530311
 50
45.803450898220689
 51
67.346926736569728
  0
ARC
  8
_0-2_決定
  6
CONTINUOUS
 62
    7
 10
720.45943618067531
 20
565.53212069791039
 40
24.693583853237882
 50
65.837633801963023
 51
75.344422618009617
  0
ARC
  8
_0-2_決定
  6
CONTINUOUS
 62
    7
 10
720.51824812964833
 20
566.10592965750038
 40
24.123725863189904
 50
75.134750657608095
 51
93.591428674207009
  0
ARC
  8
_0-2_決定
  6
CONTINUOUS
 62
    7
 10
719.78000213373298
 20
579.21288361095492
 40
10.996590553378777
 50
94.03034724206762
 51
119.72722053327161
  0
ARC
  8
_0-2_決定
  6
CONTINUOUS
 62
    7
 10
716.66849135752068
 20
585.06342593742204
 40
4.3776236240068105
 50
122.33390601616652
 51
161.91612668164478
  0
ARC
  8
_0-2_決定
  6
CONTINUOUS
 62
    7
 10
716.45549800008189
 20
585.61468225131932
 40
4.0301354378250824
 50
168.44026149175406
 51
214.32266400497031
  0
ARC
  8
_0-2_決定
  6
CONTINUOUS
 62
    7
 10
720.47961827615745
 20
587.83403387068461
 40
8.6159885443486512
 50
211.42136245859436
 51
225.56072466039413
  0
ARC
  8
_0-2_決定
  6
CONTINUOUS
 62
    7
 10
725.61995157850811
 20
593.17295036578571
 40
16.027100305529888
 50
225.80345089822293
 51
247.34692673657196
  0
ARC
  8
_0-2_決定
  6
CONTINUOUS
 62
    7
 10
729.55478102546658
 20
600.91243768385743
 40
24.69358385324055
 50
245.83763380196945
 51
255.34442261801604
  0
ARC
  8
_0-2_決定
  6
CONTINUOUS
 62
    7
 10
729.22749174548221
 20
599.4464937573955
 40
23.192592254380674
 50
255.21038964564659
 51
274.40075253888455
  0
ARC
  8
_0-2_決定
  6
CONTINUOUS
 62
    7
 10
730.05783062367277
 20
587.73243262393294
 40
11.449573356589768
 50
274.75582153478177
 51
299.44963640331417
  0
ARC
  8
_0-2_決定
  6
CONTINUOUS
 62
    7
 10
733.38536899710084
 20
581.47872436029184
 40
4.3714951573719327
 50
301.771550009235
 51
340.53878667731476
  0
ARC
  8
_0-2_決定
  6
CONTINUOUS
 62
    7
 10
777.28110942724379
 20
546.02912501886203
 40
12.027548237574983
 50
345.9159402289124
 51
0.9201704607304048
  0
ARC
  8
_0-2_決定
  6
CONTINUOUS
 62
    7
 10
785.74262998575614
 20
543.75000747717365
 40
3.2692846807497866
 50
321.66662430090508
 51
348.57264198071857
  0
ARC
  8
_0-2_決定
  6
CONTINUOUS
 62
    7
 10
787.67375847186122
 20
542.23897545330396
 40
0.8173768304211043
 50
272.33825767886231
 51
320.79184467525022
  0
ARC
  8
_0-2_決定
  6
CONTINUOUS
 62
    7
 10
787.83587346444028
 20
542.2514496634966
 40
0.8391093952770257
 50
212.36387201096773
 51
261.17270585305192
  0
ARC
  8
_0-2_決定
  6
CONTINUOUS
 62
    7
 10
790.57142124536631
 20
544.18042441040313
 40
4.1855558818694414
 50
194.92693748459322
 51
214.62334365308334
  0
ARC
  8
_0-2_決定
  6
CONTINUOUS
 62
    7
 10
797.05119470697946
 20
546.10725258948401
 40
10.944692574262753
 50
179.39782135673522
 51
195.9357871668843
  0
ARC
  8
_0-2_決定
  6
CONTINUOUS
 62
    7
 10
797.41229655344478
 20
546.29122112807693
 40
11.305400161193273
 50
165.49784367135069
 51
180.34939997337614
  0
ARC
  8
_0-2_決定
  6
CONTINUOUS
 62
    7
 10
790.67789936926692
 20
548.21501054920782
 40
4.3074252295312325
 50
145.05468807576568
 51
167.84078457845672
  0
ARC
  8
_0-2_決定
  6
CONTINUOUS
 62
    7
 10
787.77292721390972
 20
550.28269230244314
 40
0.7425100122971988
 50
95.085722541378701
 51
147.44174084737924
  0
ARC
  8
_0-2_決定
  6
CONTINUOUS
 62
    7
 10
787.64260738352868
 20
550.11903062171882
 40
0.9055485227290485
 50
36.8635276585551
 51
85.91555300953523
  0
ARC
  8
_0-2_決定
  6
CONTINUOUS
 62
    7
 10
785.72614857568828
 20
548.71340433580599
 40
3.282190199112641
 50
14.267163616503964
 51
36.425188267377123
  0
ARC
  8
_0-2_決定
  6
CONTINUOUS
 62
    7
 10
777.89932622863398
 20
546.51376035761609
 40
11.411503596896228
 50
358.53634912714233
 51
15.286105110912299
  0
ARC
  8
_0-2_決定
  6
CONTINUOUS
 62
    7
 10
840.05492819134497
 20
613.74716473045191
 40
4.0528745431645135
 50
1.061959342962087
 51
47.229124577903796
  0
ARC
  8
_0-2_決定
  6
CONTINUOUS
 62
    7
 10
838.03126903186671
 20
611.69766255238437
 40
6.9322000021926069
 50
46.454109151575508
 51
92.6802334896269
  0
ARC
  8
_0-2_決定
  6
CONTINUOUS
 62
    7
 10
837.63612960988917
 20
611.1955535616255
 40
7.4270647840054753
 50
89.452442630759634
 51
137.19504721430161
  0
ARC
  8
_0-2_決定
  6
CONTINUOUS
 62
    7
 10
835.35123878933427
 20
613.72168566860432
 40
4.0453830716863974
 50
141.4586652193305
 51
178.57512173685441
  0
ARC
  8
_0-2_決定
  6
CONTINUOUS
 62
    7
 10
835.35928501479907
 20
613.8973936513114
 40
4.0528745431648776
 50
181.06195934294854
 51
227.22912457789025
  0
ARC
  8
_0-2_決定
  6
CONTINUOUS
 62
    7
 10
837.38294417427687
 20
615.9468958293794
 40
6.9322000021926069
 50
226.45410915157549
 51
272.68023348962686
  0
ARC
  8
_0-2_決定
  6
CONTINUOUS
 62
    7
 10
837.77808359625487
 20
616.44900482013895
 40
7.4270647840061201
 50
269.4524426307575
 51
317.19504721429945
  0
ARC
  8
_0-2_決定
  6
CONTINUOUS
 62
    7
 10
840.06297441680908
 20
613.92287271315979
 40
4.0453830716872368
 50
321.45866521933482
 51
358.57512173685876
  0
ARC
  8
_0-2_決定
  6
CONTINUOUS
 62
    7
 10
786.07445754821674
 20
573.49472653150451
 40
1.4344796727527511
 50
318.39686543816686
 51
357.10508724740407
  0
ARC
  8
_0-2_決定
  6
CONTINUOUS
 62
    7
 10
784.6073483295479
 20
574.8052089033007
 40
3.4016500365674607
 50
295.78605161952595
 51
318.29889792665125
  0
ARC
  8
_0-2_決定
  6
CONTINUOUS
 62
    7
 10
782.62280381670826
 20
578.55440522517881
 40
7.6424115894624798
 50
282.11772347521179
 51
296.95558640105048
  0
ARC
  8
_0-2_決定
  6
CONTINUOUS
 62
    7
 10
781.76226749101738
 20
582.62995058465344
 40
11.807800238268268
 50
269.73233815738172
 51
282.04891467501795
  0
ARC
  8
_0-2_決定
  6
CONTINUOUS
 62
    7
 10
781.4948335874883
 20
581.2562227295698
 40
10.436102605938133
 50
243.18571250441897
 51
271.16549129111286
  0
ARC
  8
_0-2_決定
  6
CONTINUOUS
 62
    7
 10
777.76943648965221
 20
573.79316856757555
 40
2.0954148731995099
 50
190.19509303893133
 51
242.04358866003167
  0
ARC
  8
_0-2_決定
  6
CONTINUOUS
 62
    7
 10
777.3546912493216
 20
573.37316646368834
 40
1.6483164825147203
 50
141.36611317000279
 51
178.29258000630003
  0
ARC
  8
_0-2_決定
  6
CONTINUOUS
 62
    7
 10
778.57998135388675
 20
572.39469717161398
 40
3.2163527600953112
 50
118.46278733014466
 51
141.37799694979469
  0
ARC
  8
_0-2_決定
  6
CONTINUOUS
 62
    7
 10
780.42280663536167
 20
569.1028202837831
 40
6.9887858762212831
 50
103.36682720307381
 51
118.88261108909676
  0
ARC
  8
_0-2_決定
  6
CONTINUOUS
 62
    7
 10
781.57567837809074
 20
564.11272247975626
 40
12.110269902784442
 50
89.378178150659821
 51
103.21545928729012
  0
ARC
  8
_0-2_決定
  6
CONTINUOUS
 62
    7
 10
781.90378458657938
 20
566.83979650308265
 40
9.3845438683000193
 50
61.184089168644228
 51
91.200872798955345
  0
ARC
  8
_0-2_決定
  6
CONTINUOUS
 62
    7
 10
785.26529863122983
 20
573.12157638015663
 40
2.2618853116353317
 50
7.6397156665170014
 51
59.093016335608191
  0
ARC
  8
_0-2_決定
  6
CONTINUOUS
 62
    7
 10
820.09809789545193
 20
599.17566716155648
 40
3.2093472181831433
 50
310.14184468233168
 51
0.8321837043388965
  0
ARC
  8
_0-2_決定
  6
CONTINUOUS
 62
    7
 10
821.26319607978508
 20
597.93082269097204
 40
1.5091824361948207
 50
271.66728866384096
 51
306.79405608744389
  0
ARC
  8
_0-2_決定
  6
CONTINUOUS
 62
    7
 10
821.36679062101416
 20
598.28942663483508
 40
1.8681011106087795
 50
199.61595354183538
 51
268.16914387466232
  0
ARC
  8
_0-2_決定
  6
CONTINUOUS
 62
    7
 10
823.13811130541376
 20
599.15016471056356
 40
3.8316833804004107
 50
178.9215968754414
 51
202.84945723389626
  0
ARC
  8
_0-2_決定
  6
CONTINUOUS
 62
    7
 10
822.19373349428884
 20
599.29811727640663
 40
2.8876229366576762
 50
127.71924650382269
 51
181.50494091400225
  0
ARC
  8
_0-2_決定
  6
CONTINUOUS
 62
    7
 10
821.29113145830252
 20
600.14752138837082
 40
1.674833992467315
 50
89.453484789414091
 51
121.05675261672964
  0
ARC
  8
_0-2_決定
  6
CONTINUOUS
 62
    7
 10
821.24767547664965
 20
600.20379618709001
 40
1.6195737996005706
 50
50.990880964983532
 51
87.897028595819791
  0
ARC
  8
_0-2_決定
  6
CONTINUOUS
 62
    7
 10
820.44019710503426
 20
599.25264263822191
 40
2.8670702832109036
 50
359.39320290971227
 51
50.416334706468234
  0
ARC
  8
_0-2_決定
  6
CONTINUOUS
 62
    7
 10
859.74082023666347
 20
575.28531659365717
 40
3.1692472461360106
 50
310.69106530537709
 51
2.4768731781769708
  0
ARC
  8
_0-2_決定
  6
CONTINUOUS
 62
    7
 10
860.92067996379205
 20
574.26298678838839
 40
1.6407637418703933
 50
269.52601027566567
 51
302.70082619054779
  0
ARC
  8
_0-2_決定
  6
CONTINUOUS
 62
    7
 10
860.97321696250242
 20
574.20212290717132
 40
1.5812263429135069
 50
230.48465566651393
 51
267.60379087216444
  0
ARC
  8
_0-2_決定
  6
CONTINUOUS
 62
    7
 10
861.90808268130104
 20
575.27573601175254
 40
3.0045519342244864
 50
177.20436244915246
 51
229.75841891608323
  0
ARC
  8
_0-2_決定
  6
CONTINUOUS
 62
    7
 10
861.83649695635972
 20
575.41258661956499
 40
2.9294063883109556
 50
126.66837745326399
 51
179.81042424000864
  0
ARC
  8
_0-2_決定
  6
CONTINUOUS
 62
    7
 10
860.93374576455722
 20
576.51518645081615
 40
1.5073281567345105
 50
91.012646769414005
 51
124.17220235502401
  0
ARC
  8
_0-2_決定
  6
CONTINUOUS
 62
    7
 10
860.83679993754708
 20
576.12988465695457
 40
1.8937001080572631
 50
20.79768397803268
 51
87.872312948255228
  0
ARC
  8
_0-2_決定
  6
CONTINUOUS
 62
    7
 10
859.60252340482702
 20
575.42650023474266
 40
3.3045858940771327
 50
359.92681441128747
 51
24.602733044474796
  0
ARC
  8
_0-2_決定
  6
CONTINUOUS
 62
    7
 10
824.86062480984651
 20
527.91475331482786
 40
2.4482288757757797
 50
298.45441753048652
 51
357.83531770460917
  0
ARC
  8
_0-2_決定
  6
CONTINUOUS
 62
    7
 10
823.42417746412275
 20
529.96088359350574
 40
4.9399918048639204
 50
268.64204344266363
 51
301.79688621967853
  0
ARC
  8
_0-2_決定
  6
CONTINUOUS
 62
    7
 10
823.22293181466966
 20
529.94658107864836
 40
4.9250212666404556
 50
229.8467078827149
 51
270.97930439043893
  0
ARC
  8
_0-2_決定
  6
CONTINUOUS
 62
    7
 10
821.66368144846979
 20
527.89866052356138
 40
2.3578123568135521
 50
181.8564216067586
 51
226.71522870453953
  0
ARC
  8
_0-2_決定
  6
CONTINUOUS
 62
    7
 10
821.18977838139335
 20
527.77401330390512
 40
1.8832903707961781
 50
143.95126436586523
 51
178.53143493844721
  0
ARC
  8
_0-2_決定
  6
CONTINUOUS
 62
    7
 10
822.18000733884401
 20
527.04299464862379
 40
3.1141030386348332
 50
119.91185524972698
 51
143.79822982084559
  0
ARC
  8
_0-2_決定
  6
CONTINUOUS
 62
    7
 10
823.19227576799699
 20
525.25367130559312
 40
5.169883324849506
 50
88.727270443111763
 51
119.74729048842947
  0
ARC
  8
_0-2_決定
  6
CONTINUOUS
 62
    7
 10
823.3907869729328
 20
525.33074369772578
 40
5.0922230982519956
 50
50.539834275307463
 51
90.941582437150629
  0
ARC
  8
_0-2_決定
  6
CONTINUOUS
 62
    7
 10
825.20712094971918
 20
527.71117485457637
 40
2.1029227084784328
 50
3.0285349041789758
 51
47.526909566932069
  0
ARC
  8
_0-2_決定
  6
CONTINUOUS
 62
    7
 10
862.80250794422295
 20
537.86564173456782
 40
8.1047146606902452
 50
299.93668549640881
 51
359.69344971419355
  0
ARC
  8
_0-2_決定
  6
CONTINUOUS
 62
    7
 10
864.8899482138936
 20
535.19201079803906
 40
4.7697624694139469
 50
270.20611202546229
 51
294.22532624280518
  0
ARC
  8
_0-2_決定
  6
CONTINUOUS
 62
    7
 10
864.97751893037298
 20
535.49771722220555
 40
5.075926428312397
 50
228.3943888032899
 51
269.20517788543907
  0
ARC
  8
_0-2_決定
  6
CONTINUOUS
 62
    7
 10
866.78751135102652
 20
537.64334010909749
 40
7.8824360566123444
 50
178.69921749046952
 51
228.9126695464484
  0
ARC
  8
_0-2_決定
  6
CONTINUOUS
 62
    7
 10
866.67539405236334
 20
537.79618403733423
 40
7.7683312784572376
 50
118.51309433179803
 51
179.80753331412595
  0
ARC
  8
_0-2_決定
  6
CONTINUOUS
 62
    7
 10
864.92224151583832
 20
540.04437486396682
 40
4.9779273350968598
 50
90.17420261535716
 51
113.12639625971835
  0
ARC
  8
_0-2_決定
  6
CONTINUOUS
 62
    7
 10
864.76202154948487
 20
539.40768136212625
 40
5.616472064512025
 50
30.784839527694078
 51
88.519767224964227
  0
ARC
  8
_0-2_決定
  6
CONTINUOUS
 62
    7
 10
862.92585953886623
 20
537.88545270551276
 40
7.9814970771680471
 50
359.54649941933303
 51
33.427228213468993
  0
ARC
  8
_0-2_決定
  6
CONTINUOUS
 62
    7
 10
773.76621959886825
 20
553.68510172252002
 40
0.9429819855974453
 50
308.0253971719734
 51
356.18006076604331
  0
ARC
  8
_0-2_決定
  6
CONTINUOUS
 62
    7
 10
772.47706742022024
 20
555.33235463051051
 40
3.0347169806282874
 50
285.08990436571793
 51
308.04028287119507
  0
ARC
  8
_0-2_決定
  6
CONTINUOUS
 62
    7
 10
770.4405123753495
 20
562.57871097930865
 40
10.561695421620147
 50
268.19102878010187
 51
285.5231158880992
  0
ARC
  8
_0-2_決定
  6
CONTINUOUS
 62
    7
 10
769.91395443105239
 20
564.04827636670916
 40
12.027548237573901
 50
255.91594022891178
 51
270.92017046072982
  0
ARC
  8
_0-2_決定
  6
CONTINUOUS
 62
    7
 10
767.63483688936299
 20
555.58675580819818
 40
3.2692846807500837
 50
231.66662430091927
 51
258.57264198073278
  0
ARC
  8
_0-2_決定
  6
CONTINUOUS
 62
    7
 10
766.12380486549364
 20
553.65562732209264
 40
0.8173768304207944
 50
182.33825767887319
 51
230.79184467526107
  0
ARC
  8
_0-2_決定
  6
CONTINUOUS
 62
    7
 10
766.21035717223458
 20
553.55777997133941
 40
0.9055485227287207
 50
126.86352765859313
 51
175.91555300957327
  0
ARC
  8
_0-2_決定
  6
CONTINUOUS
 62
    7
 10
767.61598345814855
 20
551.64132116349697
 40
3.2821901991142939
 50
104.26716361650458
 51
126.42518826737773
  0
ARC
  8
_0-2_決定
  6
CONTINUOUS
 62
    7
 10
769.81562743633526
 20
543.81449881644585
 40
11.411503596894057
 50
88.536349127133803
 51
105.28610511090375
  0
ARC
  8
_0-2_決定
  6
CONTINUOUS
 62
    7
 10
770.36251914785089
 20
544.07060752715688
 40
11.154596157723882
 50
75.756100378562024
 51
91.312035423573178
  0
ARC
  8
_0-2_決定
  6
CONTINUOUS
 62
    7
 10
772.46547940790629
 20
551.9386634557909
 40
3.0127332473961008
 50
49.873776912884651
 51
77.703397191762988
  0
ARC
  8
_0-2_決定
  6
CONTINUOUS
 62
    7
 10
773.84499812668969
 20
553.58771057327715
 40
0.8628012600675344
 50
2.2962022305505827
 51
49.345781717863666
  0
ARC
  8
_0-2_決定
  6
CONTINUOUS
 62
    7
 10
977.01780711158813
 20
582.22499341558887
 40
6.0339779766646817
 50
325.44200763358623
 51
38.999760462864273
  0
ARC
  8
_0-2_決定
  6
CONTINUOUS
 62
    7
 10
971.26485758084095
 20
585.52053835666413
 40
12.653125599010888
 50
304.25550893345354
 51
327.92989613787648
  0
ARC
  8
_0-2_決定
  6
CONTINUOUS
 62
    7
 10
964.46308213872976
 20
594.71260098617768
 40
24.083470436093602
 50
277.26130374355483
 51
305.32100669589482
  0
ARC
  8
_0-2_決定
  6
CONTINUOUS
 62
    7
 10
956.69343776800156
 20
595.39689363053924
 40
26.848595219819398
 50
268.1508957469814
 51
293.75112840261357
  0
ARC
  8
_0-2_決定
  6
CONTINUOUS
 62
    7
 10
956.63034564245913
 20
582.35747535940482
 40
13.818561194834178
 50
244.52665435933974
 51
266.66765032586744
  0
ARC
  8
_0-2_決定
  6
CONTINUOUS
 62
    7
 10
953.53181197152117
 20
575.4326345621547
 40
6.2368906323202449
 50
176.41816056859685
 51
242.86363209205606
  0
ARC
  8
_0-2_決定
  6
CONTINUOUS
 62
    7
 10
952.34674896400611
 20
579.59947351296501
 40
6.2980324095287719
 50
145.32804854316146
 51
216.85141936141929
  0
ARC
  8
_0-2_決定
  6
CONTINUOUS
 62
    7
 10
957.91568734094858
 20
576.36242861177175
 40
12.729587298666846
 50
123.94728738966806
 51
147.60534874257297
  0
ARC
  8
_0-2_決定
  6
CONTINUOUS
 62
    7
 10
964.27259347848371
 20
567.66280876600581
 40
23.499927482878068
 50
96.267476324823932
 51
124.9597814715712
  0
ARC
  8
_0-2_決定
  6
CONTINUOUS
 62
    7
 10
972.34727877370938
 20
567.27634713524503
 40
26.020810816967767
 50
88.062323363935022
 51
114.13639174316606
  0
ARC
  8
_0-2_決定
  6
CONTINUOUS
 62
    7
 10
972.47068015288482
 20
579.7716530177081
 40
13.531784713780219
 50
63.695841347468551
 51
86.795505352750368
  0
ARC
  8
_0-2_決定
  6
CONTINUOUS
 62
    7
 10
975.53125173679837
 20
586.45191128497686
 40
6.1907788170900186
 50
356.02054786923168
 51
61.690774570192836
  0
ARC
  8
_0-2_決定
  6
CONTINUOUS
 62
    7
 10
1031.9477177370263
 20
647.68341991717818
 40
32.258499016424487
 50
284.28454787291844
 51
300.26725750940199
  0
ARC
  8
_0-2_決定
  6
CONTINUOUS
 62
    7
 10
1044.9373776776097
 20
625.26831773915717
 40
6.3521993795446026
 50
300.98001275802289
 51
319.49270386051262
  0
ARC
  8
_0-2_決定
  6
CONTINUOUS
 62
    7
 10
1048.7578291158045
 20
622.05353195539203
 40
1.3597847524254028
 50
317.92175373806566
 51
7.1286977494321171
  0
ARC
  8
_0-2_決定
  6
CONTINUOUS
 62
    7
 10
1048.6844112384247
 20
621.67369698907407
 40
1.5247928223802236
 50
21.086373178661205
 51
59.115441913765927
  0
ARC
  8
_0-2_決定
  6
CONTINUOUS
 62
    7
 10
1047.3345174493104
 20
619.2507441664992
 40
4.2979382355076625
 50
60.251884480313478
 51
79.915303532089837
  0
ARC
  8
_0-2_決定
  6
CONTINUOUS
 62
    7
 10
1045.8069334193069
 20
611.86673566480692
 40
11.837230373391176
 50
78.893872124435759
 51
90.967287610340506
  0
ARC
  8
_0-2_決定
  6
CONTINUOUS
 62
    7
 10
1045.9878632397088
 20
595.91733725946767
 40
27.787550751991073
 50
90.785123540818191
 51
106.04606230873146
  0
ARC
  8
_0-2_決定
  6
CONTINUOUS
 62
    7
 10
1046.2664904691176
 20
591.36113134141829
 40
32.258505672622789
 50
104.28454303001777
 51
120.26725266650134
  0
ARC
  8
_0-2_決定
  6
CONTINUOUS
 62
    7
 10
1033.2768295285346
 20
613.77624064260681
 40
6.3521993795446026
 50
120.98001275802287
 51
139.49270386051262
  0
ARC
  8
_0-2_決定
  6
CONTINUOUS
 62
    7
 10
1029.4563721425161
 20
616.99102829883509
 40
1.359779082951287
 50
137.92164434835843
 51
187.12880713913074
  0
ARC
  8
_0-2_決定
  6
CONTINUOUS
 62
    7
 10
1029.5297959677193
 20
617.37086139269024
 40
1.5247928223802236
 50
201.0863731786612
 51
239.11544191376589
  0
ARC
  8
_0-2_決定
  6
CONTINUOUS
 62
    7
 10
1030.8796897568343
 20
619.79381421526318
 40
4.2979382355063809
 50
240.25188448029547
 51
259.91530353207185
  0
ARC
  8
_0-2_決定
  6
CONTINUOUS
 62
    7
 10
1032.4072737868366
 20
627.17782271696001
 40
11.837230373393869
 50
258.89387212443694
 51
270.96728761034166
  0
ARC
  8
_0-2_決定
  6
CONTINUOUS
 62
    7
 10
1032.2263449664356
 20
643.12722858666575
 40
27.787558201956998
 50
270.78512126819442
 51
286.04606003610769
  0
ARC
  8
_0-2_決定
  6
CONTINUOUS
 62
    7
 10
903.2949722445594
 20
675.61107095800799
 40
10.918617151514576
 50
156.17103578339561
 51
171.83236306438013
  0
ARC
  8
_0-2_決定
  6
CONTINUOUS
 62
    7
 10
895.81135381836566
 20
676.57513230747611
 40
3.3757012104890505
 50
169.98344517514116
 51
196.04212983321204
  0
ARC
  8
_0-2_決定
  6
CONTINUOUS
 62
    7
 10
893.51193134099367
 20
675.92002776907179
 40
0.9848041272628205
 50
196.38177911800011
 51
245.72784842391997
  0
ARC
  8
_0-2_決定
  6
CONTINUOUS
 62
    7
 10
893.36782030310906
 20
675.73621074056314
 40
0.760047858195585
 50
249.93885679701094
 51
303.48081681856956
  0
ARC
  8
_0-2_決定
  6
CONTINUOUS
 62
    7
 10
891.96991590719927
 20
677.9229765547509
 40
3.3553728446321918
 50
302.7910148170107
 51
324.6629251428277
  0
ARC
  8
_0-2_決定
  6
CONTINUOUS
 62
    7
 10
885.12453520587746
 20
683.25161318929986
 40
12.027839392020386
 50
322.81605607513308
 51
338.39183821499364
  0
ARC
  8
_0-2_決定
  6
CONTINUOUS
 62
    7
 10
885.31381963273725
 20
683.56555152481405
 40
11.972928205708994
 50
336.66124781364539
 51
351.2407426012872
  0
ARC
  8
_0-2_決定
  6
CONTINUOUS
 62
    7
 10
893.37210089356654
 20
682.47069168577298
 40
3.8446398769151022
 50
349.07859093829165
 51
13.715771116274951
  0
ARC
  8
_0-2_決定
  6
CONTINUOUS
 62
    7
 10
896.52522768142353
 20
683.2551145348375
 40
0.5956118035696199
 50
12.327494780849486
 51
72.219883231352711
  0
ARC
  8
_0-2_決定
  6
CONTINUOUS
 62
    7
 10
896.41903467415295
 20
683.06978302827019
 40
0.80574989978034
 50
69.052014259141572
 51
120.74617064843524
  0
ARC
  8
_0-2_決定
  6
CONTINUOUS
 62
    7
 10
897.67955313380276
 20
680.88233829861849
 40
3.3303341305827541
 50
120.14471745536196
 51
142.22713287605728
  0
ARC
  8
_0-2_決定
  6
CONTINUOUS
 62
    7
 10
904.86811066731798
 20
675.05767475233347
 40
12.581895419465086
 50
141.31245828966814
 51
156.76002864617817
  0
ARC
  8
_0-2_決定
  6
CONTINUOUS
 62
    7
 10
1118.7462816098887
 20
602.85397815150441
 40
8.968386617863926
 50
2.3536040399256812
 51
90.250301305227836
  0
ARC
  8
_0-2_決定
  6
CONTINUOUS
 62
    7
 10
1118.9646010304657
 20
602.5435017668658
 40
9.2823496984625802
 50
91.589626173232759
 51
175.80646848161007
  0
ARC
  8
_0-2_決定
  6
CONTINUOUS
 62
    7
 10
1118.7200923744253
 20
603.64517546322872
 40
9.0229056226742639
 50
182.68639089511416
 51
269.91751445004678
  0
ARC
  8
_0-2_決定
  6
CONTINUOUS
 62
    7
 10
1118.4132762173156
 20
603.93907424574365
 40
9.321427146057653
 50
271.8063544034768
 51
355.58974025136587
  0
ARC
  8
_0-2_決定
  6
CONTINUOUS
 62
    7
 10
975.73630502367769
 20
690.74034506120938
 40
33.596956024848758
 50
148.44483864592232
 51
157.45396733990077
  0
ARC
  8
_0-2_決定
  6
CONTINUOUS
 62
    7
 10
953.94735630434275
 20
704.45995138349849
 40
7.8553551147684022
 50
133.02905242393015
 51
150.54889672494309
  0
ARC
  8
_0-2_決定
  6
CONTINUOUS
 62
    7
 10
949.11975837127807
 20
709.74722849493423
 40
0.7005635963052691
 50
74.489072100519294
 51
139.49257448346449
  0
ARC
  8
_0-2_決定
  6
CONTINUOUS
 62
    7
 10
948.83586350070823
 20
709.81094558621089
 40
0.7718772618922997
 50
2.3263569743246784
 51
52.373394585866997
  0
ARC
  8
_0-2_決定
  6
CONTINUOUS
 62
    7
 10
943.93827754420249
 20
709.44774586190931
 40
5.6825395020986837
 50
347.54603611081194
 51
3.9811742910703818
  0
ARC
  8
_0-2_決定
  6
CONTINUOUS
 62
    7
 10
921.47960854825874
 20
713.64454322149663
 40
28.527544657175284
 50
336.83480337413494
 51
349.04305779016033
  0
ARC
  8
_0-2_決定
  6
CONTINUOUS
 62
    7
 10
919.73725725376448
 20
714.19849909874245
 40
30.347846104241544
 50
327.83440939870434
 51
337.1673131391953
  0
ARC
  8
_0-2_決定
  6
CONTINUOUS
 62
    7
 10
937.03234287101827
 20
703.03953895780774
 40
9.7695777649359421
 50
313.57951402123592
 51
329.23536654384634
  0
ARC
  8
_0-2_決定
  6
CONTINUOUS
 62
    7
 10
943.04734787110101
 20
696.52519127763185
 40
0.913740675617868
 50
261.17119906072224
 51
321.97141532176482
  0
ARC
  8
_0-2_決定
  6
CONTINUOUS
 62
    7
 10
943.37401875061255
 20
696.23137071547239
 40
0.7674657926392359
 50
182.17252116278181
 51
232.52723039740988
  0
ARC
  8
_0-2_決定
  6
CONTINUOUS
 62
    7
 10
948.10734645091861
 20
696.54299703119136
 40
5.5107849163605032
 50
166.57683469171062
 51
183.54473422403035
  0
ARC
  8
_0-2_決定
  6
CONTINUOUS
 62
    7
 10
967.54247778294962
 20
692.67432349561454
 40
25.324137860508241
 50
154.385562057025
 51
168.27102415332294
  0
ARC
  8
_0-2_決定
  6
CONTINUOUS
 62
    7
 10
1077.9881412912757
 20
606.74671453547353
 40
8.325285316431307
 50
270.81873627165663
 51
357.76662499125609
  0
ARC
  8
_0-2_決定
  6
CONTINUOUS
 62
    7
 10
1078.4153375187182
 20
606.73051410652783
 40
8.3139506960759473
 50
182.12469482833885
 51
267.87530517166113
  0
ARC
  8
_0-2_決定
  6
CONTINUOUS
 62
    7
 10
1078.4153375187182
 20
606.11404427523644
 40
8.3139506960759473
 50
92.12469482833886
 51
177.87530517166113
  0
ARC
  8
_0-2_決定
  6
CONTINUOUS
 62
    7
 10
1077.8493248557991
 20
605.95555699992724
 40
8.4706454314768198
 50
3.1585268180129327
 51
88.256111919074272
  0
ARC
  8
_0-2_決定
  6
CONTINUOUS
 62
    7
 10
980.31661469250048
 20
634.59663689017952
 40
9.1742416776043676
 50
317.1914964984918
 51
16.630424407976093
  0
ARC
  8
_0-2_決定
  6
CONTINUOUS
 62
    7
 10
977.52565872785249
 20
636.49308404347971
 40
12.520699625250742
 50
288.5413570554694
 51
319.50444761504383
  0
ARC
  8
_0-2_決定
  6
CONTINUOUS
 62
    7
 10
977.5532629628517
 20
636.4882376208177
 40
12.507351165490563
 50
239.4032005863285
 51
288.42852631111816
  0
ARC
  8
_0-2_決定
  6
CONTINUOUS
 62
    7
 10
976.00792612328314
 20
633.04598116651221
 40
8.7679490622141056
 50
198.78683501452375
 51
236.64511767664607
  0
ARC
  8
_0-2_決定
  6
CONTINUOUS
 62
    7
 10
976.27745043656751
 20
632.85947623897073
 40
8.9669189790117585
 50
151.90523275735859
 51
197.10375228432244
  0
ARC
  8
_0-2_決定
  6
CONTINUOUS
 62
    7
 10
979.09832211390358
 20
631.56863448967533
 40
12.064796192059022
 50
108.31481911197831
 51
152.80613289023779
  0
ARC
  8
_0-2_決定
  6
CONTINUOUS
 62
    7
 10
979.02795180064822
 20
630.77244918995029
 40
12.802462220973002
 50
58.448102552462025
 51
106.8959931564366
  0
ARC
  8
_0-2_決定
  6
CONTINUOUS
 62
    7
 10
980.46881996634147
 20
634.18653881596072
 40
9.1561826701467304
 50
19.362934339983148
 51
54.950223510119464
  0
ARC
  8
_0-2_決定
  6
CONTINUOUS
 62
    7
 10
1004.807829074231
 20
541.40233186477212
 40
3.8268972656549129
 50
345.16146832348517
 51
33.280179757774619
  0
ARC
  8
_0-2_決定
  6
CONTINUOUS
 62
    7
 10
1001.1453467130721
 20
539.46497246569129
 40
7.9613797129801736
 50
30.471614986395124
 51
44.875571693276761
  0
ARC
  8
_0-2_決定
  6
CONTINUOUS
 62
    7
 10
996.17846821044373
 20
534.46611848479529
 40
15.008198900882633
 50
45.020311684717214
 51
66.815459036151509
  0
ARC
  8
_0-2_決定
  6
CONTINUOUS
 62
    7
 10
991.54329915338417
 20
525.58736388984187
 40
25.006471507795599
 50
65.061635016151882
 51
75.730188682180327
  0
ARC
  8
_0-2_決定
  6
CONTINUOUS
 62
    7
 10
991.57190894526161
 20
527.13304972844639
 40
23.504079632239844
 50
74.869000024770045
 51
93.915069599751831
  0
ARC
  8
_0-2_決定
  6
CONTINUOUS
 62
    7
 10
990.75725061688013
 20
539.51352949248303
 40
11.096916265744563
 50
94.083150066498561
 51
119.17875734695271
  0
ARC
  8
_0-2_決定
  6
CONTINUOUS
 62
    7
 10
987.41768459065406
 20
545.9377144295803
 40
3.8658355585445476
 50
122.38528613276242
 51
163.70689588211766
  0
ARC
  8
_0-2_決定
  6
CONTINUOUS
 62
    7
 10
987.69758775076434
 20
546.00672968270942
 40
4.1176809681627473
 50
165.72173384719937
 51
212.03958445384549
  0
ARC
  8
_0-2_決定
  6
CONTINUOUS
 62
    7
 10
991.150035713732
 20
547.78152360755143
 40
7.9924907731132802
 50
209.69418668912721
 51
224.27162716355676
  0
ARC
  8
_0-2_決定
  6
CONTINUOUS
 62
    7
 10
995.96110125619271
 20
552.53786436779956
 40
14.757689739159289
 50
224.45529346041545
 51
246.71412288951382
  0
ARC
  8
_0-2_決定
  6
CONTINUOUS
 62
    7
 10
1000.6028444651449
 20
561.46608726516297
 40
24.804490544635623
 50
245.01807094451047
 51
255.77375275382832
  0
ARC
  8
_0-2_決定
  6
CONTINUOUS
 62
    7
 10
1000.0252904218426
 20
557.54849700317891
 40
20.868996577662667
 50
254.66749168841784
 51
282.85158272588069
  0
ARC
  8
_0-2_決定
  6
CONTINUOUS
 62
    7
 10
1002.8392138286486
 20
543.8342822763027
 40
6.8792913594535783
 50
285.40909584691445
 51
317.45003538275364
  0
ARC
  8
_0-2_決定
  6
CONTINUOUS
 62
    7
 10
1005.3462244574312
 20
541.18657603554539
 40
3.251970627460572
 50
321.9511568668251
 51
346.40685918484576
  0
ARC
  8
_0-2_決定
  6
CONTINUOUS
 62
    7
 10
1111.3189100959821
 20
574.17165992722346
 40
3.9885137311359973
 50
0.727175140330972
 51
46.446885909911266
  0
ARC
  8
_0-2_決定
  6
CONTINUOUS
 62
    7
 10
1109.4914479770264
 20
572.37379122436187
 40
6.5512239061916375
 50
45.697803870180074
 51
79.83969383529903
  0
ARC
  8
_0-2_決定
  6
CONTINUOUS
 62
    7
 10
1108.7312056330361
 20
569.74707858152692
 40
9.2752319270103918
 50
78.079132806970435
 51
90.148891526981259
  0
ARC
  8
_0-2_決定
  6
CONTINUOUS
 62
    7
 10
1108.6500845617682
 20
571.5140376532355
 40
7.5084580337560345
 50
89.564900741631519
 51
137.13043631454923
  0
ARC
  8
_0-2_決定
  6
CONTINUOUS
 62
    7
 10
1106.3044047144469
 20
574.17022345190071
 40
3.997641050615278
 50
142.16601217693972
 51
179.25389538468281
  0
ARC
  8
_0-2_決定
  6
CONTINUOUS
 62
    7
 10
1106.2401858739586
 20
574.30866666278143
 40
3.9340318772262757
 50
181.25826011787561
 51
227.19723051804823
  0
ARC
  8
_0-2_決定
  6
CONTINUOUS
 62
    7
 10
1108.5056232192735
 20
576.5093771745203
 40
7.0899613378199486
 50
225.84904815288161
 51
271.62842533197625
  0
ARC
  8
_0-2_決定
  6
CONTINUOUS
 62
    7
 10
1108.7498643954937
 20
577.24662449717187
 40
7.8244621567842483
 50
269.68686890196625
 51
316.51674548675965
  0
ARC
  8
_0-2_決定
  6
CONTINUOUS
 62
    7
 10
1111.4028002645264
 20
574.33405294423835
 40
3.9059019602019598
 50
320.74074079814767
 51
358.36016398025157
  0
ARC
  8
_0-2_決定
  6
CONTINUOUS
 62
    7
 10
1057.2844165472075
 20
533.89065075919098
 40
1.4243280116969839
 50
318.25336126801312
 51
357.24859141750738
  0
ARC
  8
_0-2_決定
  6
CONTINUOUS
 62
    7
 10
1055.8616703247972
 20
535.13553678554786
 40
3.3147778939843162
 50
296.23734841208659
 51
318.57336485074592
  0
ARC
  8
_0-2_決定
  6
CONTINUOUS
 62
    7
 10
1053.9129780152346
 20
539.06176627428579
 40
7.6979977081920641
 50
281.64731921641061
 51
296.32792895931914
  0
ARC
  8
_0-2_決定
  6
CONTINUOUS
 62
    7
 10
1052.7316575667644
 20
543.84237352489777
 40
12.620118222334604
 50
269.88851953297387
 51
282.51837627042397
  0
ARC
  8
_0-2_決定
  6
CONTINUOUS
 62
    7
 10
1052.5597008980433
 20
541.68941221312366
 40
10.468170851106297
 50
242.99908975327594
 51
270.80680520233551
  0
ARC
  8
_0-2_決定
  6
CONTINUOUS
 62
    7
 10
1048.7736599070124
 20
534.23489085823439
 40
2.1073460746883428
 50
191.29127555303396
 51
242.69926673238149
  0
ARC
  8
_0-2_決定
  6
CONTINUOUS
 62
    7
 10
1048.3189577553637
 20
533.76533350877196
 40
1.6128607635754733
 50
140.91128665067302
 51
177.97662291010059
  0
ARC
  8
_0-2_決定
  6
CONTINUOUS
 62
    7
 10
1049.6211325932118
 20
532.68736456876036
 40
3.3032917619416806
 50
118.06343983142618
 51
140.64006542109863
  0
ARC
  8
_0-2_決定
  6
CONTINUOUS
 62
    7
 10
1051.5855960232327
 20
529.12195362932016
 40
7.3739009575356729
 50
103.15735931075581
 51
118.49975226967599
  0
ARC
  8
_0-2_決定
  6
CONTINUOUS
 62
    7
 10
1052.6311016441766
 20
524.87728758120716
 40
11.745237505350287
 50
89.629248487275092
 51
103.41035501603035
  0
ARC
  8
_0-2_決定
  6
CONTINUOUS
 62
    7
 10
1052.9761374867824
 20
526.60307404133675
 40
10.022816550118257
 50
62.609869734559382
 51
91.538132016026921
  0
ARC
  8
_0-2_決定
  6
CONTINUOUS
 62
    7
 10
1056.4343622262422
 20
533.52045227299504
 40
2.292694552013772
 50
7.564790592886502
 51
59.815344459117796
  0
ARC
  8
_0-2_決定
  6
CONTINUOUS
 62
    7
 10
1091.1408162366629
 20
559.48531659365676
 40
3.1692472461363086
 50
310.69106530537942
 51
2.4768731781793099
  0
ARC
  8
_0-2_決定
  6
CONTINUOUS
 62
    7
 10
1092.3206759637933
 20
558.46298678838821
 40
1.640763741869979
 50
269.52601027561559
 51
302.70082619049765
  0
ARC
  8
_0-2_決定
  6
CONTINUOUS
 62
    7
 10
1092.3732129625014
 20
558.40212290717227
 40
1.5812263429138622
 50
230.48465566657089
 51
267.6037908722214
  0
ARC
  8
_0-2_決定
  6
CONTINUOUS
 62
    7
 10
1093.3080786813011
 20
559.47573601175179
 40
3.0045519342245255
 50
177.20436244913881
 51
229.75841891606959
  0
ARC
  8
_0-2_決定
  6
CONTINUOUS
 62
    7
 10
1093.2364929563605
 20
559.61258661956526
 40
2.9294063883115218
 50
126.66837745326958
 51
179.81042424001424
  0
ARC
  8
_0-2_決定
  6
CONTINUOUS
 62
    7
 10
1092.3337417645566
 20
560.71518645081619
 40
1.5073281567342094
 50
91.012646769377923
 51
124.17220235498793
  0
ARC
  8
_0-2_決定
  6
CONTINUOUS
 62
    7
 10
1092.2367959375472
 20
560.32988465695439
 40
1.8937001080572631
 50
20.79768397803268
 51
87.872312948255228
  0
ARC
  8
_0-2_決定
  6
CONTINUOUS
 62
    7
 10
1091.0025194048271
 20
559.62650023474248
 40
3.3045858940771327
 50
359.92681441128747
 51
24.602733044474796
  0
ARC
  8
_0-2_決定
  6
CONTINUOUS
 62
    7
 10
1130.8980938954514
 20
535.77566716155729
 40
3.2093472181834191
 50
310.14184468232088
 51
0.8321837043281104
  0
ARC
  8
_0-2_決定
  6
CONTINUOUS
 62
    7
 10
1132.0631920797846
 20
534.53082269097138
 40
1.5091824361940867
 50
271.66728866386961
 51
306.79405608747254
  0
ARC
  8
_0-2_決定
  6
CONTINUOUS
 62
    7
 10
1132.1667866210144
 20
534.88942663483556
 40
1.8681011106091869
 50
199.61595354184453
 51
268.16914387467148
  0
ARC
  8
_0-2_決定
  6
CONTINUOUS
 62
    7
 10
1133.9381073054144
 20
535.75016471056244
 40
3.8316833804008255
 50
178.92159687541931
 51
202.84945723387418
  0
ARC
  8
_0-2_決定
  6
CONTINUOUS
 62
    7
 10
1132.9937294942883
 20
535.89811727640665
 40
2.887622936657392
 50
127.71924650381999
 51
181.50494091399958
  0
ARC
  8
_0-2_決定
  6
CONTINUOUS
 62
    7
 10
1132.091127458302
 20
536.7475213883705
 40
1.6748339924671782
 50
89.453484789396867
 51
121.05675261671242
  0
ARC
  8
_0-2_決定
  6
CONTINUOUS
 62
    7
 10
1132.0476714766496
 20
536.80379618708969
 40
1.6195737996004125
 50
50.990880964998404
 51
87.897028595834669
  0
ARC
  8
_0-2_決定
  6
CONTINUOUS
 62
    7
 10
1131.2401931050349
 20
535.85264263822205
 40
2.8670702832106043
 50
359.39320290971506
 51
50.416334706471012
  0
ARC
  8
_0-2_決定
  6
CONTINUOUS
 62
    7
 10
905.96059527832131
 20
560.88125347172218
 40
11.347385694956669
 50
345.51139109738148
 51
0.7120923486502507
  0
ARC
  8
_0-2_決定
  6
CONTINUOUS
 62
    7
 10
913.15792861190766
 20
558.85590564021095
 40
3.87554417999123
 50
323.34601383464496
 51
347.88124396172009
  0
ARC
  8
_0-2_決定
  6
CONTINUOUS
 62
    7
 10
915.64808926062733
 20
556.97555604015884
 40
0.7555850860760576
 50
274.47967744759825
 51
325.01008514636135
  0
ARC
  8
_0-2_決定
  6
CONTINUOUS
 62
    7
 10
915.83089082050856
 20
557.08141532367677
 40
0.8680080197216184
 50
213.50398988248256
 51
261.80112311862052
  0
ARC
  8
_0-2_決定
  6
CONTINUOUS
 62
    7
 10
918.22845175897532
 20
558.83406718303206
 40
3.8371455158189742
 50
195.28867940927367
 51
215.56506892988492
  0
ARC
  8
_0-2_決定
  6
CONTINUOUS
 62
    7
 10
924.9330757329833
 20
560.8156254016842
 40
10.827943327071335
 50
178.90643047307816
 51
196.04823014025561
  0
ARC
  8
_0-2_決定
  6
CONTINUOUS
 62
    7
 10
925.41229455344455
 20
561.09122112807711
 40
11.305400161193273
 50
165.49784367135069
 51
180.34939997337614
  0
ARC
  8
_0-2_決定
  6
CONTINUOUS
 62
    7
 10
918.67789736926647
 20
563.015010549208
 40
4.3074252295312325
 50
145.05468807576568
 51
167.84078457845672
  0
ARC
  8
_0-2_決定
  6
CONTINUOUS
 62
    7
 10
915.7729252139095
 20
565.08269230244287
 40
0.7425100122977492
 50
95.085722541352865
 51
147.4417408473534
  0
ARC
  8
_0-2_決定
  6
CONTINUOUS
 62
    7
 10
915.57833774170354
 20
564.99310871826765
 40
0.8391093952770257
 50
32.363872010967704
 51
81.172705853051895
  0
ARC
  8
_0-2_決定
  6
CONTINUOUS
 62
    7
 10
912.84278996077683
 20
563.06413397136112
 40
4.1855558818701946
 50
14.926937484588441
 51
34.623343653078571
  0
ARC
  8
_0-2_決定
  6
CONTINUOUS
 62
    7
 10
906.363016499163
 20
561.1373057922799
 40
10.944692574263733
 50
359.39782135673448
 51
15.935787166883593
  0
ARC
  8
_0-2_決定
  6
CONTINUOUS
 62
    7
 10
934.79887076448472
 20
660.93051310652777
 40
8.3139496568322375
 50
272.12468766636596
 51
357.87529800968821
  0
ARC
  8
_0-2_決定
  6
CONTINUOUS
 62
    7
 10
935.36488126090057
 20
661.08900038183697
 40
8.4706443987862521
 50
183.15853397780299
 51
268.25611907886434
  0
ARC
  8
_0-2_決定
  6
CONTINUOUS
 62
    7
 10
935.38056648827273
 20
660.34881530568123
 40
8.4778734198269579
 50
91.848450592018622
 51
178.15154940798135
  0
ARC
  8
_0-2_決定
  6
CONTINUOUS
 62
    7
 10
934.78266925848084
 20
660.50331587908545
 40
8.325285316431307
 50
0.8187362716566349
 51
87.766624991256109
  0
ARC
  8
_0-2_決定
  6
CONTINUOUS
 62
    7
 10
1184.8255515609319
 20
529.92390155617727
 40
12.085232991983638
 50
346.30303430090754
 51
1.4147444653203907
  0
ARC
  8
_0-2_決定
  6
CONTINUOUS
 62
    7
 10
1193.5168897619187
 20
527.68934791930087
 40
3.1140008615361232
 50
321.29852512061274
 51
348.38287104736713
  0
ARC
  8
_0-2_決定
  6
CONTINUOUS
 62
    7
 10
1195.2715946539038
 20
526.29329108921979
 40
0.8717352806168461
 50
272.33431407272417
 51
320.79578828135038
  0
ARC
  8
_0-2_決定
  6
CONTINUOUS
 62
    7
 10
1195.4308868205087
 20
526.28141532367727
 40
0.8680080197216184
 50
213.50398988248256
 51
261.80112311862052
  0
ARC
  8
_0-2_決定
  6
CONTINUOUS
 62
    7
 10
1197.8284477589737
 20
528.03406718303222
 40
3.8371455158175167
 50
195.28867940928399
 51
215.56506892989526
  0
ARC
  8
_0-2_決定
  6
CONTINUOUS
 62
    7
 10
1204.5330717329832
 20
530.01562540168402
 40
10.827943327071335
 50
178.90643047307816
 51
196.04823014025561
  0
ARC
  8
_0-2_決定
  6
CONTINUOUS
 62
    7
 10
1205.0122905534445
 20
530.29122112807704
 40
11.305400161193273
 50
165.49784367135069
 51
180.34939997337614
  0
ARC
  8
_0-2_決定
  6
CONTINUOUS
 62
    7
 10
1198.2778933692655
 20
532.21501054920759
 40
4.3074252295305735
 50
145.05468807576185
 51
167.84078457845288
  0
ARC
  8
_0-2_決定
  6
CONTINUOUS
 62
    7
 10
1195.3729212139101
 20
534.28269230244246
 40
0.7425100122979166
 50
95.085722541374139
 51
147.44174084737466
  0
ARC
  8
_0-2_決定
  6
CONTINUOUS
 62
    7
 10
1195.2426013835284
 20
534.1190306217195
 40
0.9055485227284475
 50
36.863527658534352
 51
85.915553009514468
  0
ARC
  8
_0-2_決定
  6
CONTINUOUS
 62
    7
 10
1193.3261425756873
 20
532.7134043358044
 40
3.2821901991139431
 50
14.267163616521776
 51
36.425188267394937
  0
ARC
  8
_0-2_決定
  6
CONTINUOUS
 62
    7
 10
1185.4993202286348
 20
530.51376035761621
 40
11.41150359689526
 50
358.53634912714296
 51
15.286105110912887
  0
LINE
  8
_0-2_決定
  6
CONTINUOUS
 62
    7
 10
1045.3071026030718
 20
851.02227519088217
 11
1659.5070946030719
 21
496.42228119088202
  0
LINE
  8
_0-2_決定
  6
CONTINUOUS
 62
    7
 10
1760.7070926030715
 20
494.22228119088203
 11
1045.3071026030718
 21
907.22227519088187
  0
LINE
  8
_0-2_決定
  6
CONTINUOUS
 62
    7
 10
1045.3071026030718
 20
907.22227519088187
 11
1045.3071026030718
 21
851.02227519088217
  0
LINE
  8
_0-2_決定
  6
CONTINUOUS
 62
    7
 10
1045.3071026030718
 20
851.02227519088217
 11
1661.1070946030723
 21
495.42228119088179
  0
LINE
  8
_0-2_決定
  6
CONTINUOUS
 62
    7
 10
2060.3070886030714
 20
496.82228119088194
 11
1309.9071006030717
 21
931.62227319088231
  0
LINE
  8
_0-2_決定
  6
CONTINUOUS
 62
    7
 10
1194.5071006030721
 20
1018.822273190882
 11
1272.5071006030716
 21
973.82227319088202
  0
LINE
  8
_0-2_決定
  6
CONTINUOUS
 62
    7
 10
1272.5071006030716
 20
973.82227319088202
 11
1308.5071006030719
 21
953.02227319088183
  0
ARC
  8
_0-2_決定
  6
CONTINUOUS
 62
    7
 10
1305.5334912711023
 20
948.48321097694281
 40
5.4263651039335636
 50
36.649051533270779
 51
56.770576555040726
  0
ARC
  8
_0-2_決定
  6
CONTINUOUS
 62
    7
 10
1303.2494472624408
 20
946.80521321290087
 40
8.2605036588249714
 50
1.5057256541594641
 51
36.530414435524264
  0
ARC
  8
_0-2_決定
  6
CONTINUOUS
 62
    7
 10
1308.3857129154253
 20
946.85229886791774
 40
3.1260102177550451
 50
311.25648335897171
 51
3.1169497013759955
  0
ARC
  8
_0-2_決定
  6
CONTINUOUS
 62
    7
 10
1309.5654803512739
 20
945.99107912014142
 40
1.7302593341401766
 50
232.28830662159027
 51
300.63257504129342
  0
LINE
  8
_0-2_決定
  6
CONTINUOUS
 62
    7
 10
1308.5071006030719
 20
944.6222731908822
 11
1295.5071006030719
 21
952.02227319088195
  0
LINE
  8
_0-2_決定
  6
CONTINUOUS
 62
    7
 10
1295.5071006030719
 20
952.02227319088195
 11
1295.5071006030719
 21
955.02227319088183
  0
LINE
  8
_0-2_決定
  6
CONTINUOUS
 62
    7
 10
1295.5071006030719
 20
955.02227319088183
 11
1308.5071006030719
 21
947.6222731908822
  0
ARC
  8
_0-2_決定
  6
CONTINUOUS
 62
    7
 10
1308.7072105185862
 20
948.04967964710522
 40
0.471932470919488
 50
244.91120294538302
 51
316.07175107927151
  0
ARC
  8
_0-2_決定
  6
CONTINUOUS
 62
    7
 10
1308.3255498605674
 20
948.38856346667035
 40
0.9821294240670988
 50
317.28017459972313
 51
1.9669549724884374
  0
ARC
  8
_0-2_決定
  6
CONTINUOUS
 62
    7
 10
1306.9422379738692
 20
948.2398418762798
 40
2.371888791564523
 50
4.4112007812513951
 51
48.71890157292902
  0
LINE
  8
_0-2_決定
  6
CONTINUOUS
 62
    7
 10
1308.5071006030719
 20
950.02227319088183
 11
1272.5071006030716
 21
970.8222731908819
  0
LINE
  8
_0-2_決定
  6
CONTINUOUS
 62
    7
 10
1272.5071006030716
 20
970.8222731908819
 11
1196.7071006030719
 21
1014.4222731908819
  0
LINE
  8
_0-2_決定
  6
CONTINUOUS
 62
    7
 10
1196.7071006030719
 20
1014.4222731908819
 11
1196.7071006030719
 21
994.82227319088202
  0
LINE
  8
_0-2_決定
  6
CONTINUOUS
 62
    7
 10
1196.7071006030719
 20
994.82227319088202
 11
1194.5071006030721
 21
993.42227319088181
  0
LINE
  8
_0-2_決定
  6
CONTINUOUS
 62
    7
 10
1194.5071006030721
 20
993.42227319088181
 11
1194.5071006030721
 21
1018.822273190882
  0
ARC
  8
_0-2_決定
  6
CONTINUOUS
 62
    7
 10
1316.8802599774208
 20
999.31029960805461
 40
13.435957416534638
 50
299.55222634605718
 51
325.3040924382417
  0
ARC
  8
_0-2_決定
  6
CONTINUOUS
 62
    7
 10
1321.8011562617639
 20
995.38901032274134
 40
7.1704769171238967
 50
328.68562246987722
 51
45.945428138912149
  0
ARC
  8
_0-2_決定
  6
CONTINUOUS
 62
    7
 10
1316.9282618314801
 20
990.91219875103229
 40
13.78169061494043
 50
44.327488639507443
 51
61.48683676642321
  0
ARC
  8
_0-2_決定
  6
CONTINUOUS
 62
    7
 10
1311.4165864752115
 20
982.09834022997313
 40
24.165915129920783
 50
59.979315579024238
 51
87.555983098660221
  0
ARC
  8
_0-2_決定
  6
CONTINUOUS
 62
    7
 10
1310.341532512547
 20
977.2952309286552
 40
29.023519157619667
 50
85.839714553652229
 51
117.57316183473679
  0
ARC
  8
_0-2_決定
  6
CONTINUOUS
 62
    7
 10
1303.0979158611151
 20
991.57334208037867
 40
13.015537527596431
 50
118.40155395445842
 51
144.00767131333959
  0
ARC
  8
_0-2_決定
  6
CONTINUOUS
 62
    7
 10
1298.6261617439229
 20
995.35834454167025
 40
7.1862484311889681
 50
147.47390292053356
 51
227.23881188887387
  0
ARC
  8
_0-2_決定
  6
CONTINUOUS
 62
    7
 10
1304.1119643564027
 20
1000.1368949228038
 40
14.440423082345477
 50
224.12954756451634
 51
240.07029172475023
  0
ARC
  8
_0-2_決定
  6
CONTINUOUS
 62
    7
 10
1308.2677740523613
 20
1008.1492949660014
 40
23.461106627301316
 50
241.03767947237557
 51
260.03299243081824
  0
ARC
  8
_0-2_決定
  6
CONTINUOUS
 62
    7
 10
1310.1515029713348
 20
1016.2336351418085
 40
31.75274759559418
 50
259.21004663859901
 51
288.72905805765629
  0
ARC
  8
_0-2_決定
  6
CONTINUOUS
 62
    7
 10
1313.0902306932373
 20
1006.0186448313414
 40
21.14089937975244
 50
290.07573930107571
 51
299.52052560580785
  0
LINE
  8
_0-2_決定
  6
CONTINUOUS
 62
    7
 10
1307.107100603072
 20
995.42227319088192
 11
1302.3071006030718
 21
992.6222731908822
  0
ARC
  8
_0-2_決定
  6
CONTINUOUS
 62
    7
 10
1302.5413868982159
 20
991.48864887414311
 40
1.1575811676053198
 50
101.67692863298865
 51
164.28034148633711
  0
ARC
  8
_0-2_決定
  6
CONTINUOUS
 62
    7
 10
1301.8459566018644
 20
991.86191930753409
 40
0.4230815606427247
 50
188.10456928258384
 51
250.84035041399636
  0
ARC
  8
_0-2_決定
  6
CONTINUOUS
 62
    7
 10
1302.9037167214781
 20
994.24484035091132
 40
3.0289552877030168
 50
246.73034473911514
 51
266.27818869931417
  0
ARC
  8
_0-2_決定
  6
CONTINUOUS
 62
    7
 10
1303.8824748295995
 20
991.60430765287913
 40
1.2359024648162282
 50
198.00582987841898
 51
278.59131078257673
  0
ARC
  8
_0-2_決定
  6
CONTINUOUS
 62
    7
 10
1303.571206944325
 20
993.74706441098829
 40
3.4011366446658631
 50
278.38374328761506
 51
300.68956658862066
  0
LINE
  8
_0-2_決定
  6
CONTINUOUS
 62
    7
 10
1305.3071006030721
 20
990.8222731908819
 11
1310.1071006030716
 21
993.82227319088202
  0
LINE
  8
_0-2_決定
  6
CONTINUOUS
 62
    7
 10
1310.1071006030716
 20
993.82227319088202
 11
1315.3070986030721
 21
990.8222731908819
  0
ARC
  8
_0-2_決定
  6
CONTINUOUS
 62
    7
 10
1316.668796661123
 20
992.70896255477032
 40
2.3267613451125606
 50
234.18053163138191
 51
270.45068431551005
  0
ARC
  8
_0-2_決定
  6
CONTINUOUS
 62
    7
 10
1316.6069347449948
 20
991.51890073283334
 40
1.1394509262201411
 50
274.03426599613374
 51
344.91065370053826
  0
ARC
  8
_0-2_決定
  6
CONTINUOUS
 62
    7
 10
1317.7945359116129
 20
993.1162737743756
 40
1.8960177987558602
 50
267.3567937041023
 51
308.97511935436887
  0
ARC
  8
_0-2_決定
  6
CONTINUOUS
 62
    7
 10
1318.7303675791393
 20
991.84227319088222
 40
0.3254394239320292
 50
322.08050197765363
 51
37.91949802234641
  0
ARC
  8
_0-2_決定
  6
CONTINUOUS
 62
    7
 10
1317.3561243966278
 20
990.8187172247068
 40
2.0389129614695944
 50
36.877210941649075
 51
62.198334074157728
  0
LINE
  8
_0-2_決定
  6
CONTINUOUS
 62
    7
 10
1318.3070986030716
 20
992.6222731908822
 11
1313.3070986030716
 21
995.42227319088192
  0
LINE
  8
_0-2_決定
  6
CONTINUOUS
 62
    7
 10
1313.3070986030716
 20
995.42227319088192
 11
1318.3070986030716
 21
998.22227319088199
  0
ARC
  8
_0-2_決定
  6
CONTINUOUS
 62
    7
 10
1317.8408178138282
 20
999.38691030179916
 40
1.2545108108515215
 50
291.8194717690746
 51
347.82206038711445
  0
ARC
  8
_0-2_決定
  6
CONTINUOUS
 62
    7
 10
1318.5875496574338
 20
999.08458892893486
 40
0.4810273327591987
 50
4.4932246304508663
 51
65.490815766753911
  0
ARC
  8
_0-2_決定
  6
CONTINUOUS
 62
    7
 10
1317.5608322105486
 20
997.20171417780023
 40
2.6246377652213266
 50
62.146424874840974
 51
86.805353131634973
  0
ARC
  8
_0-2_決定
  6
CONTINUOUS
 62
    7
 10
1316.6903886932957
 20
999.41634931728686
 40
1.0947480220545944
 50
21.764473925507549
 51
107.17613009343614
  0
ARC
  8
_0-2_決定
  6
CONTINUOUS
 62
    7
 10
1317.1645864148823
 20
997.04423437152229
 40
3.5098399081203842
 50
103.13315464150999
 51
121.9529673586181
  0
LINE
  8
_0-2_決定
  6
CONTINUOUS
 62
    7
 10
1315.3070986030721
 20
1000.0222731908818
 11
1310.3071006030721
 21
997.22227319088211
  0
LINE
  8
_0-2_決定
  6
CONTINUOUS
 62
    7
 10
1310.3071006030721
 20
997.22227319088211
 11
1305.3071006030721
 21
1000.0222731908818
  0
ARC
  8
_0-2_決定
  6
CONTINUOUS
 62
    7
 10
1303.6644612456316
 20
997.45566863930753
 40
3.04724842813535
 50
57.380559849089273
 51
88.822142762836208
  0
ARC
  8
_0-2_決定
  6
CONTINUOUS
 62
    7
 10
1303.7237080340244
 20
999.40236204445205
 40
1.0999163784422357
 50
89.823277296236625
 51
157.5568577556935
  0
ARC
  8
_0-2_決定
  6
CONTINUOUS
 62
    7
 10
1302.6413867253088
 20
998.08574141306303
 40
1.7377747060840818
 50
87.832845792212112
 51
130.74724664618228
  0
ARC
  8
_0-2_決定
  6
CONTINUOUS
 62
    7
 10
1301.8094133267746
 20
999.16807715798632
 40
0.382414388767709
 50
142.23572334010598
 51
212.5591522548709
  0
ARC
  8
_0-2_決定
  6
CONTINUOUS
 62
    7
 10
1303.3715395153852
 20
1000.2261109045266
 40
2.2690076643044286
 50
213.84859411505028
 51
242.02275277780006
  0
LINE
  8
_0-2_決定
  6
CONTINUOUS
 62
    7
 10
1302.3071006030718
 20
998.22227319088199
 11
1307.107100603072
 21
995.42227319088192
  0
LINE
  8
_0-2_決定
  6
CONTINUOUS
 62
    7
 10
1194.5071006030721
 20
1018.822273190882
 11
1823.7070926030717
 21
1382.4222671908822
  0
LINE
  8
_0-2_決定
  6
CONTINUOUS
 62
    7
 10
1824.5070926030721
 20
1251.4222691908819
 11
1315.5070986030719
 21
957.22227319088211
  0
LINE
  8
_0-2_決定
  6
CONTINUOUS
 62
    7
 10
1309.3071006030723
 20
943.82227319088202
 11
1833.907092603072
 21
1247.2222691908821
  0
LINE
  8
_0-2_決定
  6
CONTINUOUS
 62
    7
 10
1144.5071026030714
 20
855.22227519088176
 11
1142.5071026030716
 21
854.02227519088206
  0
LINE
  8
_0-2_決定
  6
CONTINUOUS
 62
    7
 10
1724.7070926030719
 20
691.2222771908821
 11
1573.7070966030719
 21
603.82227919088223
  0
LINE
  8
_0-2_決定
  6
CONTINUOUS
 62
    7
 10
1573.7070966030719
 20
603.82227919088223
 11
1573.7070966030719
 21
547.22227919088198
  0
LINE
  8
_0-2_決定
  6
CONTINUOUS
 62
    7
 10
1910.5070906030719
 20
1325.2222671908819
 11
1983.5070886030721
 21
1367.2222671908819
  0
LINE
  8
_0-2_決定
  6
CONTINUOUS
 62
    7
 10
1979.7070906030719
 20
1375.2222671908819
 11
1983.5070886030721
 21
1373.0222671908818
  0
LINE
  8
_0-2_決定
  6
CONTINUOUS
 62
    7
 10
1983.5070886030721
 20
1373.0222671908818
 11
1983.9070886030722
 21
1366.2222671908819
  0
LINE
  8
_0-2_決定
  6
CONTINUOUS
 62
    7
 10
1983.9070886030722
 20
1366.2222671908819
 11
1992.1070886030716
 21
1361.4222671908824
  0
ARC
  8
_0-2_決定
  6
CONTINUOUS
 62
    7
 10
2016.7568278323024
 20
1384.2684305669404
 40
33.608880152046552
 50
205.83509898083284
 51
222.82533541017
  0
ARC
  8
_0-2_決定
  6
CONTINUOUS
 62
    7
 10
2000.8693764482077
 20
1376.5885536800233
 40
15.962595640913893
 50
194.09096472352633
 51
205.87524832028214
  0
ARC
  8
_0-2_決定
  6
CONTINUOUS
 62
    7
 10
1980.6727272927812
 20
1372.2605018986219
 40
4.7350141644360741
 50
5.3533422628737108
 51
38.719111617406099
  0
ARC
  8
_0-2_決定
  6
CONTINUOUS
 62
    7
 10
1982.52079499244
 20
1373.5649310299636
 40
2.4810407588246726
 50
41.912919868813532
 51
69.070034155826647
  0
ARC
  8
_0-2_決定
  6
CONTINUOUS
 62
    7
 10
1981.4095816836041
 20
1370.3191303680489
 40
5.9108819310562533
 50
70.248752806224317
 51
92.933409313482855
  0
LINE
  8
_0-2_決定
  6
CONTINUOUS
 62
    7
 10
1981.1070906030718
 20
1376.2222671908819
 11
1979.7070906030719
 21
1375.2222671908819
  0
LINE
  8
_0-2_決定
  6
CONTINUOUS
 62
    7
 10
1983.9070886030722
 20
1366.2222671908819
 11
1983.5070886030721
 21
1373.0222671908818
  0
LINE
  8
_0-2_決定
  6
CONTINUOUS
 62
    7
 10
1979.7070906030719
 20
1375.2222671908819
 11
1983.5070886030721
 21
1373.0222671908818
  0
LINE
  8
_0-2_決定
  6
CONTINUOUS
 62
    7
 10
1726.1070926030718
 20
1317.822269190882
 11
1826.3070926030721
 21
1375.6222671908818
  0
LINE
  8
_0-2_決定
  6
CONTINUOUS
 62
    7
 10
1910.3070906030721
 20
1330.8222671908823
 11
1910.5070906030719
 21
1325.2222671908819
  0
LINE
  8
_0-2_決定
  6
CONTINUOUS
 62
    7
 10
1910.5070906030719
 20
1325.2222671908819
 11
1983.5070886030721
 21
1367.2222671908819
  0
LINE
  8
_0-2_決定
  6
CONTINUOUS
 62
    7
 10
1983.5070886030721
 20
1367.2222671908819
 11
1983.3070886030716
 21
1373.2222671908817
  0
LINE
  8
_0-2_決定
  6
CONTINUOUS
 62
    7
 10
1983.3070886030716
 20
1373.2222671908817
 11
1910.3070906030721
 21
1330.8222671908823
  0
LINE
  8
_0-2_決定
  6
CONTINUOUS
 62
    7
 10
1983.9070886030722
 20
1366.2222671908819
 11
1992.1070886030716
 21
1361.4222671908824
  0
LINE
  8
_0-2_決定
  6
CONTINUOUS
 62
    7
 10
1992.1070886030716
 20
1361.4222671908824
 11
2255.1070846030721
 21
1513.2222651908821
  0
LINE
  8
_0-2_決定
  6
CONTINUOUS
 62
    7
 10
1823.7070926030717
 20
1541.822265190882
 11
1823.7070926030717
 21
1387.822267190882
  0
ARC
  8
_0-2_決定
  6
CONTINUOUS
 62
    7
 10
1860.9475246970223
 20
1386.3510687564428
 40
37.269480911030243
 50
177.73768332502877
 51
187.84772140640419
  0
ARC
  8
_0-2_決定
  6
CONTINUOUS
 62
    7
 10
1836.4804676887295
 20
1383.0639547337105
 40
12.58302940575353
 50
188.23212843780431
 51
224.89797391635076
  0
ARC
  8
_0-2_決定
  6
CONTINUOUS
 62
    7
 10
1843.4693709135738
 20
1389.9270104977813
 40
22.378100841331676
 50
224.71479097183473
 51
233.65504127840916
  0
ARC
  8
_0-2_決定
  6
CONTINUOUS
 62
    7
 10
1856.7818258270509
 20
1408.0814486156241
 40
44.890417847131488
 50
233.70156110490177
 51
239.95647755821955
  0
LINE
  8
_0-2_決定
  6
CONTINUOUS
 62
    7
 10
1834.3070926030723
 20
1369.2222671908821
 11
1910.5070906030719
 21
1325.2222671908819
  0
LINE
  8
_0-2_決定
  6
CONTINUOUS
 62
    7
 10
1910.5070906030719
 20
1325.2222671908819
 11
1910.5070906030719
 21
1330.8222671908823
  0
LINE
  8
_0-2_決定
  6
CONTINUOUS
 62
    7
 10
1910.5070906030719
 20
1330.8222671908823
 11
1833.1070926030716
 21
1376.0222671908821
  0
ARC
  8
_0-2_決定
  6
CONTINUOUS
 62
    7
 10
1837.2684116726621
 20
1383.0644163836425
 40
8.1797580436119226
 50
191.29540807795573
 51
239.42047708134871
  0
ARC
  8
_0-2_決定
  6
CONTINUOUS
 62
    7
 10
1849.1957001956816
 20
1386.1792164632732
 40
20.498696429827753
 50
178.2023179602418
 51
193.30353143864698
  0
LINE
  8
_0-2_決定
  6
CONTINUOUS
 62
    7
 10
1828.7070926030717
 20
1386.8222671908823
 11
1828.907092603072
 21
1541.822265190882
  0
LINE
  8
_0-2_決定
  6
CONTINUOUS
 62
    7
 10
2255.1070846030721
 20
1002.6222731908822
 11
1880.7070906030722
 21
1220.4222691908819
  0
LINE
  8
_0-2_決定
  6
CONTINUOUS
 62
    7
 10
1880.7070906030722
 20
1220.4222691908819
 11
1850.7070906030722
 21
1237.822269190882
  0
ARC
  8
_0-2_決定
  6
CONTINUOUS
 62
    7
 10
1854.0025302444533
 20
1243.0924693811066
 40
6.2157004814444967
 50
219.22016896084318
 51
237.98238727361388
  0
ARC
  8
_0-2_決定
  6
CONTINUOUS
 62
    7
 10
1857.2922899814077
 20
1245.5670361508674
 40
10.330309616574482
 50
205.48435610360457
 51
218.31595773186936
  0
ARC
  8
_0-2_決定
  6
CONTINUOUS
 62
    7
 10
1671.4570181630538
 20
1162.1882845291818
 40
193.35557816456657
 50
24.093836415196929
 51
26.387195327232796
  0
ARC
  8
_0-2_決定
  6
CONTINUOUS
 62
    7
 10
1836.7959457231857
 20
1242.8368746025544
 40
9.4810521124539768
 50
33.88095649784433
 51
57.378240718970446
  0
LINE
  8
_0-2_決定
  6
CONTINUOUS
 62
    7
 10
1841.9070926030722
 20
1250.822269190882
 11
1726.1070926030718
 21
1317.822269190882
  0
LINE
  8
_0-2_決定
  6
CONTINUOUS
 62
    7
 10
1726.1070926030718
 20
1317.822269190882
 11
1726.1070926030718
 21
1312.0222691908818
  0
LINE
  8
_0-2_決定
  6
CONTINUOUS
 62
    7
 10
1726.1070926030718
 20
1312.0222691908818
 11
1838.1070926030716
 21
1247.2222691908821
  0
ARC
  8
_0-2_決定
  6
CONTINUOUS
 62
    7
 10
1833.0598636272746
 20
1238.7723267254078
 40
9.8425630810250055
 50
29.25438403599183
 51
59.149736430619775
  0
ARC
  8
_0-2_決定
  6
CONTINUOUS
 62
    7
 10
1813.9635974317239
 20
1227.0577027229428
 40
32.240303997564943
 50
23.866334548977377
 51
30.83341701116429
  0
ARC
  8
_0-2_決定
  6
CONTINUOUS
 62
    7
 10
1860.0969988619274
 20
1246.4368863489192
 40
17.814228946759393
 50
200.82979938521225
 51
217.62172761250793
  0
ARC
  8
_0-2_決定
  6
CONTINUOUS
 62
    7
 10
1851.347108455602
 20
1239.8182561949839
 40
6.844208889159983
 50
218.45045642942299
 51
237.87020060460668
  0
LINE
  8
_0-2_決定
  6
CONTINUOUS
 62
    7
 10
1847.7070906030722
 20
1234.0222691908818
 11
1880.7070906030722
 21
1214.6222691908822
  0
LINE
  8
_0-2_決定
  6
CONTINUOUS
 62
    7
 10
1880.7070906030722
 20
1214.6222691908822
 11
2255.1070846030721
 21
996.42227319088192
  0
LINE
  8
_0-2_決定
  6
CONTINUOUS
 62
    7
 10
2255.1070846030721
 20
1534.2222651908821
 11
1979.7070906030719
 21
1375.2222671908819
  0
LINE
  8
_0-2_決定
  6
CONTINUOUS
 62
    7
 10
1631.3070946030721
 20
511.02228119088238
 11
1690.107094603072
 21
530.02227919088205
  0
LINE
  8
_0-2_決定
  6
CONTINUOUS
 62
    7
 10
1593.907094603072
 20
532.82227919088223
 11
1652.3070946030716
 21
552.42227919088214
  0
LINE
  8
_0-2_決定
  6
CONTINUOUS
 62
    7
 10
1556.3070966030718
 20
554.82227919088223
 11
1614.1070946030723
 21
575.02227919088205
  0
LINE
  8
_0-2_決定
  6
CONTINUOUS
 62
    7
 10
1518.5070966030721
 20
577.02227919088216
 11
1575.7070966030719
 21
597.62227919088195
  0
LINE
  8
_0-2_決定
  6
CONTINUOUS
 62
    7
 10
1480.5070966030721
 20
599.22227919088186
 11
1537.1070966030718
 21
620.42227919088214
  0
LINE
  8
_0-2_決定
  6
CONTINUOUS
 62
    7
 10
1442.3070986030721
 20
621.62227919088195
 11
1498.3070966030718
 21
643.22227919088186
  0
LINE
  8
_0-2_決定
  6
CONTINUOUS
 62
    7
 10
1403.7070986030719
 20
644.22227919088186
 11
1459.1070966030716
 21
666.42227719088191
  0
LINE
  8
_0-2_決定
  6
CONTINUOUS
 62
    7
 10
1365.1070986030722
 20
666.82227719088189
 11
1419.907098603072
 21
689.62227719088219
  0
LINE
  8
_0-2_決定
  6
CONTINUOUS
 62
    7
 10
1326.107098603072
 20
689.62227719088219
 11
1380.3070986030721
 21
712.82227719088212
  0
LINE
  8
_0-2_決定
  6
CONTINUOUS
 62
    7
 10
1286.9071006030722
 20
712.6222771908823
 11
1340.5070986030719
 21
736.2222771908821
  0
LINE
  8
_0-2_決定
  6
CONTINUOUS
 62
    7
 10
1247.5071006030716
 20
735.62227719088219
 11
1300.5071006030719
 21
759.82227719088201
  0
LINE
  8
_0-2_決定
  6
CONTINUOUS
 62
    7
 10
1206.7071006030719
 20
758.2222771908821
 11
1260.1071006030716
 21
783.62227719088219
  0
LINE
  8
_0-2_決定
  6
CONTINUOUS
 62
    7
 10
1166.7071026030717
 20
781.42227719088191
 11
1218.9071006030722
 21
807.02227519088206
  0
LINE
  8
_0-2_決定
  6
CONTINUOUS
 62
    7
 10
1126.1071026030722
 20
804.82227519088212
 11
1177.5071006030716
 21
830.82227519088235
  0
LINE
  8
_0-2_決定
  6
CONTINUOUS
 62
    7
 10
1085.7071026030721
 20
828.22227519088187
 11
1135.907102603072
 21
854.62227519088196
  0
LINE
  8
_0-2_決定
  6
CONTINUOUS
 62
    7
 10
1094.1071026030718
 20
878.62227519088208
 11
1047.107102603072
 21
853.02227519088206
  0
LINE
  8
_0-2_決定
  6
CONTINUOUS
 62
    7
 10
1045.7071026030721
 20
907.22227519088187
 11
1083.7071026030721
 21
828.22227519088187
  0
LINE
  8
_0-2_決定
  6
CONTINUOUS
 62
    7
 10
1087.7071026030719
 20
882.02227519088206
 11
1123.7071026030721
 21
805.42227519088215
  0
LINE
  8
_0-2_決定
  6
CONTINUOUS
 62
    7
 10
1127.9071026030717
 20
858.82227519088224
 11
1162.9071026030717
 21
783.02227719088194
  0
LINE
  8
_0-2_決定
  6
CONTINUOUS
 62
    7
 10
1169.3071026030716
 20
835.22227519088176
 11
1202.5071006030716
 21
760.22227719088221
  0
LINE
  8
_0-2_決定
  6
CONTINUOUS
 62
    7
 10
1209.3071006030723
 20
812.62227519088185
 11
1242.5071006030716
 21
737.02227719088171
  0
LINE
  8
_0-2_決定
  6
CONTINUOUS
 62
    7
 10
1249.107100603072
 20
790.22227519088176
 11
1281.1071006030718
 21
716.02227719088182
  0
LINE
  8
_0-2_決定
  6
CONTINUOUS
 62
    7
 10
1289.5071006030721
 20
766.42227719088191
 11
1320.3070986030721
 21
693.02227719088194
  0
LINE
  8
_0-2_決定
  6
CONTINUOUS
 62
    7
 10
1329.7070986030722
 20
742.6222771908823
 11
1359.107098603072
 21
670.42227719088203
  0
LINE
  8
_0-2_決定
  6
CONTINUOUS
 62
    7
 10
1369.5070986030717
 20
719.22227719088198
 11
1397.907098603072
 21
647.62227919088195
  0
LINE
  8
_0-2_決定
  6
CONTINUOUS
 62
    7
 10
1409.107098603072
 20
695.82227719088201
 11
1436.5070986030717
 21
625.02227919088205
  0
LINE
  8
_0-2_決定
  6
CONTINUOUS
 62
    7
 10
1447.3070966030716
 20
675.62227719088219
 11
1474.7070966030717
 21
602.62227919088195
  0
LINE
  8
_0-2_決定
  6
CONTINUOUS
 62
    7
 10
1487.7070966030717
 20
649.62227919088207
 11
1512.9070966030722
 21
580.42227919088214
  0
LINE
  8
_0-2_決定
  6
CONTINUOUS
 62
    7
 10
1526.5070966030717
 20
626.62227919088195
 11
1550.7070966030719
 21
558.22227919088186
  0
LINE
  8
_0-2_決定
  6
CONTINUOUS
 62
    7
 10
1565.1070966030718
 20
603.82227919088223
 11
1588.3070946030718
 21
536.22227919088175
  0
LINE
  8
_0-2_決定
  6
CONTINUOUS
 62
    7
 10
1603.7070946030722
 20
581.22227919088175
 11
1625.7070946030719
 21
514.22228119088209
  0
LINE
  8
_0-2_決定
  6
CONTINUOUS
 62
    7
 10
1692.7070946030719
 20
495.62228119088218
 11
1728.5070926030719
 21
507.22228119088214
  0
LINE
  8
_0-2_決定
  6
CONTINUOUS
 62
    7
 10
1641.907094603072
 20
558.62227919088184
 11
1662.9070946030718
 21
492.42228119088196
  0
LINE
  8
_0-2_決定
  6
CONTINUOUS
 62
    7
 10
1679.9070946030715
 20
536.22227919088175
 11
1692.7070946030719
 21
494.62228119088223
  0
LINE
  8
_0-2_決定
  6
CONTINUOUS
 62
    7
 10
1714.1070926030718
 20
517.22228119088209
 11
1721.3070926030721
 21
494.22228119088203
  0
LINE
  8
_0-0_文字
  6
CONTINUOUS
 62
    7
 10
1349.907098603072
 20
1041.6222731908824
 11
1495.1070966030718
 21
1293.2222691908823
  0
LINE
  8
_0-0_文字
  6
CONTINUOUS
 62
    7
 10
1495.1070966030718
 20
1293.2222691908823
 11
1514.5070966030719
 21
1293.2222691908823
  0
LINE
  8
_0-0_文字
  6
CONTINUOUS
 62
    7
 10
1932.5070906030717
 20
1220.2222691908821
 11
1967.3070906030719
 21
1280.6222691908824
  0
LINE
  8
_0-0_文字
  6
CONTINUOUS
 62
    7
 10
1967.3070906030719
 20
1280.6222691908824
 11
1986.107088603072
 21
1280.6222691908824
  0
LINE
  8
_0-0_文字
  6
CONTINUOUS
 62
    7
 10
1192.3071006030718
 20
1242.4222691908817
 11
1277.7071006030721
 21
1391.8222671908825
  0
LINE
  8
_0-0_文字
  6
CONTINUOUS
 62
    7
 10
1277.7071006030721
 20
1391.8222671908825
 11
1296.5071006030721
 21
1391.8222671908825
  0
LINE
  8
_0-0_文字
  6
CONTINUOUS
 62
    7
 10
1852.107090603072
 20
1045.4222731908817
 11
1903.1070906030723
 21
1134.622271190882
  0
LINE
  8
_0-0_文字
  6
CONTINUOUS
 62
    7
 10
1903.1070906030723
 20
1134.622271190882
 11
1921.9070906030722
 21
1134.622271190882
  0
LINE
  8
_0-0_文字
  6
CONTINUOUS
 62
    7
 10
1897.107090603072
 20
517.4222811908819
 11
1952.907090603072
 21
614.22227919088186
  0
LINE
  8
_0-0_文字
  6
CONTINUOUS
 62
    7
 10
1952.907090603072
 20
614.22227919088186
 11
1992.1070886030723
 21
614.22227919088186
  0
LINE
  8
_0-0_文字
  6
CONTINUOUS
 62
    7
 10
1910.5070906030719
 20
823.82227519088246
 11
1966.1070906030718
 21
920.42227519088215
  0
LINE
  8
_0-0_文字
  6
CONTINUOUS
 62
    7
 10
1966.1070906030718
 20
920.42227519088215
 11
2005.3070886030721
 21
920.42227519088215
  0
LINE
  8
_0-0_文字
  6
CONTINUOUS
 62
    7
 10
1507.1070966030723
 20
969.42227319088204
 11
1542.5070966030719
 21
1030.622273190882
  0
LINE
  8
_0-0_文字
  6
CONTINUOUS
 62
    7
 10
1542.5070966030719
 20
1030.622273190882
 11
1581.7070946030722
 21
1030.622273190882
  0
LINE
  8
_0-0_文字
  6
CONTINUOUS
 62
    7
 10
1614.7070946030717
 20
849.42227519088192
 11
1582.567871988231
 21
793.62227519088208
  0
TEXT
  8
_0-0_文字
 62
    7
 10
2002.5670886030721
 20
597.70227919088211
 40
45.999999999999943
 41
1.0000000000000011
 50
0
  1
断熱材
  0
TEXT
  8
_0-0_文字
 62
    7
 10
1296.5071006030721
 20
1368.8222671908825
 40
45.999999999999943
 41
1.0000000000000011
 50
0
  1
AYボンド580NF
  0
TEXT
  8
_0-0_文字
 62
    7
 10
1514.5070966030719
 20
1270.2222691908823
 40
45.999999999999943
 41
1.0000000000000011
 50
0
  1
FL鋼板
  0
TEXT
  8
_0-0_文字
 62
    7
 10
1986.107088603072
 20
1257.6222691908824
 40
45.999999999999943
 41
1.0000000000000011
 50
0
  1
リベットルーフ
  0
TEXT
  8
_0-0_文字
 62
    7
 10
1921.9070906030722
 20
1111.622271190882
 40
45.999999999999943
 41
1.0000000000000011
 50
0
  1
AYボンド580NF
  0
TEXT
  8
_0-0_文字
 62
    7
 10
1581.7070946030722
 20
1007.622273190882
 40
45.999999999999943
 41
1.0000000000000011
 50
0
  1
テープ
  0
TEXT
  8
_0-0_文字
 62
    7
 10
2005.3070886030721
 20
897.42227519088215
 40
45.999999999999943
 41
1.0000000000000011
 50
0
  1
AYパネルV
  0
LINE
  8
_0-0_文字
  6
CONTINUOUS
 62
    7
 10
1525.5804801117815
 20
793.62227519088208
 11
1582.567871988231
 21
793.62227519088208
  0
TEXT
  8
_0-0_文字
 62
    7
 10
1195.2327300167169
 20
769.32825571370938
 40
45.999999999999943
 41
1.0000000000000011
 50
0
  1
AY固定ディスク
  0
ENDSEC
  0
EOF
