  0
SECTION
  2
HEADER
  9
$ACADVER
  1
AC1009
  9
$INSBASE
 10
0
 20
0
 30
0
  9
$EXTMIN
 10
0
 20
0
  9
$EXTMAX
 10
840
 20
594
  9
$LIMMIN
 10
0
 20
0
  9
$LIMMAX
 10
840
 20
594
  9
$LTSCALE
 40
2
  0
ENDSEC
  0
SECTION
  2
TABLES
  0
TABLE
  2
LTYPE
 70
     9
  0
LTYPE
  2
CONTINUOUS
 70
    64
  3
実線
 72
    65
 73
     0
 40
0.0
  0
LTYPE
  2
DASHED1
 70
    64
  3
--  --  --  --  --  --  --  --  
 72
    65
 73
     2
 40
2.5
 49
1.25
 49
-1.25
  0
LTYPE
  2
DASHED2
 70
    64
  3
----    ----    ----    ----    
 72
    65
 73
     2
 40
5.0
 49
2.5
 49
-2.5
  0
LTYPE
  2
DASHED3
 70
    64
  3
------  ------  ------  ------  
 72
    65
 73
     2
 40
5.0
 49
3.75
 49
-1.25
  0
LTYPE
  2
CENTER1
 70
    64
  3
----- - ----- - ----- - ----- - 
 72
    65
 73
     4
 40
10.0
 49
6.25
 49
-1.25
 49
1.25
 49
-1.25
  0
LTYPE
  2
CENTER2
 70
    64
  3
----------  --  ----------  --  
 72
    65
 73
     4
 40
20.0
 49
12.5
 49
-2.5
 49
2.5
 49
-2.5
  0
LTYPE
  2
PHANTOM1
 70
    64
  3
--- - - --- - - --- - - --- - - 
 72
    65
 73
     6
 40
10.0
 49
3.25
 49
-1.25
 49
1.25
 49
-1.25
 49
1.25
 49
-1.25
  0
LTYPE
  2
PHANTOM2
 70
    64
  3
--------  -  -  --------  -  -  
 72
    65
 73
     6
 40
20.0
 49
10.0
 49
-2.5
 49
1.25
 49
-2.5
 49
1.25
 49
-2.5
  0
LTYPE
  2
DOT
 70
    64
  3
-   -   -   -   -   -   -   -   
 72
    65
 73
     2
 40
2.5
 49
0.625
 49
-1.875
  0
LTYPE
  2
DUMMY
 70
    64
  3
ダミー
 72
    65
 73
     0
 40
0.0
  0
LTYPE
  2
RAND1
 70
    64
  3
ランダム線1
 72
    65
 73
     4
 40
10.0
 49
1.0
 49
-2.0
 49
3.0
 49
-4.0
  0
LTYPE
  2
RAND2
 70
    64
  3
ランダム線2
 72
    65
 73
     4
 40
14.0
 49
2.0
 49
-3.0
 49
4.0
 49
-5.0
  0
LTYPE
  2
RAND3
 70
    64
  3
ランダム線3
 72
    65
 73
     4
 40
18.0
 49
3.0
 49
-4.0
 49
5.0
 49
-6.0
  0
LTYPE
  2
RAND4
 70
    64
  3
ランダム線4
 72
    65
 73
     4
 40
22.0
 49
4.0
 49
-5.0
 49
6.0
 49
-7.0
  0
LTYPE
  2
RAND5
 70
    64
  3
ランダム線5
 72
    65
 73
     4
 40
26.0
 49
5.0
 49
-6.0
 49
7.0
 49
-8.0
  0
LTYPE
  2
LONG1
 70
    64
  3
----------  --  ----------  --  
 72
    65
 73
     4
 40
40.0
 49
32.5
 49
-2.5
 49
2.5
 49
-2.5
  0
LTYPE
  2
LONG2
 70
    64
  3
--------  -  -  --------  -  -  
 72
    65
 73
     6
 40
40.0
 49
30.0
 49
-2.5
 49
1.25
 49
-2.5
 49
1.25
 49
-2.5
  0
LTYPE
  2
LONG3
 70
    64
  3
+++++++++++++++..+++++++++++++++
 72
    65
 73
     2
 40
40.0
 49
37.5
 49
-2.5
  0
LTYPE
  2
LONG4
 70
    64
  3
+++++++++++++++..+++++++++++++++
 72
    65
 73
     2
 40
80.0
 49
75.0
 49
-5.0
  0
LTYPE
  2
LONG5
 70
    64
  3
----------  --  ----------  --  
 72
    65
 73
     4
 40
60.0
 49
37.5
 49
-7.5
 49
7.5
 49
-7.5
  0
LTYPE
  2
dashed
 70
   64
  3
-------   -------------   ------
 72
   65
 73
    2
 40
7.5
 49
6
 49
-1.5
  0
LTYPE
  2
dashed_spaced
 70
   64
  3
----        --------        ----
 72
   65
 73
    2
 40
12
 49
6
 49
-6
  0
LTYPE
  2
long_dashed_dotted
 70
   64
  3
------------- --- --------------
 72
   65
 73
    4
 40
15.25
 49
12
 49
-1.5
 49
0.25
 49
-1.5
  0
LTYPE
  2
long_dashed_double-dotted
 70
   64
  3
----------- --- --- ------------
 72
   65
 73
    6
 40
17
 49
12
 49
-1.5
 49
0.25
 49
-1.5
 49
0.25
 49
-1.5
  0
LTYPE
  2
long_dashed_triplicate-dotted
 70
   64
  3
--------- --- --- --- ----------
 72
   65
 73
    8
 40
18.75
 49
12
 49
-1.5
 49
0.25
 49
-1.5
 49
0.25
 49
-1.5
 49
0.25
 49
-1.5
  0
LTYPE
  2
dotted
 70
   64
  3
   -       -       -       -    
 72
   65
 73
    2
 40
1.75
 49
0.25
 49
-1.5
  0
LTYPE
  2
chain
 70
   64
  3
-------------- -- --------------
 72
   65
 73
    4
 40
18.5
 49
12
 49
-1.5
 49
3.5
 49
-1.5
  0
LTYPE
  2
chain_double_dash
 70
   64
  3
------------ -- -- -------------
 72
   65
 73
    6
 40
23.5
 49
12
 49
-1.5
 49
3.5
 49
-1.5
 49
3.5
 49
-1.5
  0
LTYPE
  2
dashed_dotted
 70
   64
  3
-----------     -     ----------
 72
   65
 73
    4
 40
9.25
 49
6
 49
-1.5
 49
0.25
 49
-1.5
  0
LTYPE
  2
double-dashed_dotted
 70
   64
  3
------   -----------   -   -----
 72
   65
 73
    6
 40
16.75
 49
6
 49
-1.5
 49
6
 49
-1.5
 49
0.25
 49
-1.5
  0
LTYPE
  2
dashed_double-dotted
 70
   64
  3
---------    -    -    ---------
 72
   65
 73
    6
 40
11
 49
6
 49
-1.5
 49
0.25
 49
-1.5
 49
0.25
 49
-1.5
  0
LTYPE
  2
double-dashed_double-dotted
 70
   64
  3
-----   ---------   -   -   ----
 72
   65
 73
    8
 40
18.5
 49
6
 49
-1.5
 49
6
 49
-1.5
 49
0.25
 49
-1.5
 49
0.25
 49
-1.5
  0
LTYPE
  2
dashed_triplicate-dotted
 70
   64
  3
-------    -    -    -    ------
 72
   65
 73
    8
 40
12.75
 49
6
 49
-1.5
 49
0.25
 49
-1.5
 49
0.25
 49
-1.5
 49
0.25
 49
-1.5
  0
LTYPE
  2
double-dashed_triplicate-dotted
 70
   64
  3
-----  ---------  -  -  -  -----
 72
   65
 73
   10
 40
20.25
 49
6
 49
-1.5
 49
6
 49
-1.5
 49
0.25
 49
-1.5
 49
0.25
 49
-1.5
 49
0.25
 49
-1.5
  0
LTYPE
  2
undefined
 70
   64
  3
--------------------------------
 72
   65
 73
    0
 40
0
  0
ENDTAB
  0
TABLE
  2
STYLE
  5
3
100
AcDbSymbolTable
 70
     1
  0
STYLE
  5
10
100
AcDbSymbolTableRecord
100
AcDbTextStyleTableRecord
  2
STANDARD
 70
     0
 40
0.0
 41
1.0
 50
0.0
 71
     0
 42
0.2
  3
txt
  4
bigfont.shx
  0
STYLE
  5
26
100
AcDbSymbolTableRecord
100
AcDbTextStyleTableRecord
  2
TATEGAKI
 70
    68
 40
0.0
 41
1.0
 50
0.0
 71
     0
 42
1.0
  3
txt
  4
bigfont.shx
  0
ENDTAB
  0
TABLE
  2
LAYER
 70
    2
  0
LAYER
  2
_0-0_レイヤ___1
 70
   64
 62
    7
  6
CONTINUOUS
  0
LAYER
  2
ADD_LINE
 70
   64
 62
    7
  6
CONTINUOUS
  0
ENDTAB
  0
ENDSEC
  0
SECTION
  2
BLOCKS
  0
ENDSEC
  0
SECTION
  2
ENTITIES
  0
TEXT
  8
_0-0_レイヤ___1
 62
    7
 10
679.4649965000001
 20
288.42750050000006
 40
15.855
 41
0.5
 50
0
  1
アクシスコート（クロス補強）
  0
TEXT
  8
_0-0_レイヤ___1
 62
    7
 10
756.9449955
 20
248.63250049999999
 40
15.855
 41
0.5
 50
0
  1
アクシスコート（クロス補強）
  0
TEXT
  8
_0-0_レイヤ___1
 62
    7
 10
581.89499750000004
 20
19.397504500000025
 40
15.855
 41
0.5
 50
0
  1
ウレタンシール
  0
LINE
  8
_0-0_レイヤ___1
  6
CONTINUOUS
 62
    7
 10
537.23999849999996
 20
-48.117494499999964
 11
561.78999849999991
 21
-61.867494499999964
  0
LINE
  8
_0-0_レイヤ___1
  6
CONTINUOUS
 62
    7
 10
945.53999249999993
 20
52.432503500000053
 11
1020.8899915
 21
9.0325045000000159
  0
LINE
  8
_0-0_レイヤ___1
  6
CONTINUOUS
 62
    7
 10
1020.8899915
 20
9.0325045000000159
 11
1003.9399915000001
 21
-0.2674954999999386
  0
LINE
  8
_0-0_レイヤ___1
  6
CONTINUOUS
 62
    7
 10
595.63999749999994
 20
203.98250150000001
 11
596.28999750000003
 21
202.68250150000006
  0
ARC
  8
_0-0_レイヤ___1
  6
CONTINUOUS
 62
    7
 10
608.70499749999999
 20
208.84750150000002
 40
13.949999999999999
 50
207.13446099999999
 51
230.810509
  0
ARC
  8
_0-0_レイヤ___1
  6
CONTINUOUS
 62
    7
 10
609.65999749999992
 20
209.73750150000001
 40
15.035
 50
228.47528
 51
247.45387700000003
  0
ARC
  8
_0-0_レイヤ___1
  6
CONTINUOUS
 62
    7
 10
616.58999749999998
 20
224.40750150000008
 40
31.25
 50
246.02713799999998
 51
249.78222599999998
  0
ARC
  8
_0-0_レイヤ___1
  6
CONTINUOUS
 62
    7
 10
616.31499749999989
 20
229.21250150000003
 40
35.644998999999999
 50
253.24401599999999
 51
268.43131199999999
  0
ARC
  8
_0-0_レイヤ___1
  6
CONTINUOUS
 62
    7
 10
615.53499749999992
 20
193.71250150000003
 40
0.2349999999999999
 50
213.54795999999999
 51
30.462818999999989
  0
LINE
  8
_0-0_レイヤ___1
  6
CONTINUOUS
 62
    7
 10
616.18999749999989
 20
193.58250150000003
 11
616.38999749999994
 21
193.58250150000003
  0
ARC
  8
_0-0_レイヤ___1
  6
CONTINUOUS
 62
    7
 10
616.39499750000004
 20
227.46750150000003
 40
33.884999000000001
 50
269.992839
 51
285.92223000000001
  0
ARC
  8
_0-0_レイヤ___1
  6
CONTINUOUS
 62
    7
 10
619.4449975
 20
219.16250150000008
 40
25.07
 50
284.42200800000001
 51
308.46273100000002
  0
ARC
  8
_0-0_レイヤ___1
  6
CONTINUOUS
 62
    7
 10
624.51499749999994
 20
211.88750149999998
 40
16.07
 50
309.75429200000008
 51
329.71259300000003
  0
LINE
  8
_0-0_レイヤ___1
  6
CONTINUOUS
 62
    7
 10
638.38999650000005
 20
203.78250150000008
 11
638.38999650000005
 21
206.93250150000006
  0
ARC
  8
_0-0_レイヤ___1
  6
CONTINUOUS
 62
    7
 10
620.56499749999989
 20
171.98750250000001
 40
39.224998999999997
 50
51.486190999999998
 51
63.624390000000005
  0
ARC
  8
_0-0_レイヤ___1
  6
CONTINUOUS
 62
    7
 10
638.54499650000002
 20
195.28750150000008
 40
9.8100000000000005
 50
26.953133999999999
 51
48.931164000000003
  0
ARC
  8
_0-0_レイヤ___1
  6
CONTINUOUS
 62
    7
 10
639.2149965000001
 20
195.23750150000001
 40
9.4199999999999999
 50
5.4657310000000008
 51
28.515912000000004
  0
ARC
  8
_0-0_レイヤ___1
  6
CONTINUOUS
 62
    7
 10
639.31999649999989
 20
196.83750150000003
 40
9.0350000000000001
 50
334.73349800000005
 51
356.79194400000006
  0
LINE
  8
_0-0_レイヤ___1
  6
CONTINUOUS
 62
    7
 10
648.3399965000001
 20
196.33250150000003
 11
648.3399965000001
 21
196.58250150000003
  0
ARC
  8
_0-0_レイヤ___1
  6
CONTINUOUS
 62
    7
 10
633.12999650000006
 20
199.17250150000007
 40
16.050000000000001
 50
315.30228599999998
 51
337.31758600000001
  0
ARC
  8
_0-0_レイヤ___1
  6
CONTINUOUS
 62
    7
 10
632.27499650000004
 20
199.01250149999998
 40
16.414999999999999
 50
292.813154
 51
317.30571300000003
  0
ARC
  8
_0-0_レイヤ___1
  6
CONTINUOUS
 62
    7
 10
621.16999749999991
 20
220.54750150000007
 40
40.734999000000002
 50
281.859824
 51
295.01008899999999
  0
ARC
  8
_0-0_レイヤ___1
  6
CONTINUOUS
 62
    7
 10
618.84499750000009
 20
230.98750150000001
 40
51.234999000000002
 50
273.18574100000001
 51
282.05137000000002
  0
LINE
  8
_0-0_レイヤ___1
  6
CONTINUOUS
 62
    7
 10
621.88999749999994
 20
179.63250149999999
 11
616.18999749999989
 21
179.43250150000006
  0
ARC
  8
_0-0_レイヤ___1
  6
CONTINUOUS
 62
    7
 10
616.91499750000003
 20
244.08250050000004
 40
64.464999000000006
 50
257.57139000000001
 51
268.95660900000001
  0
ARC
  8
_0-0_レイヤ___1
  6
CONTINUOUS
 62
    7
 10
615.21499749999998
 20
224.50750149999999
 40
45.289999000000002
 50
243.19355200000004
 51
254.40604000000002
  0
ARC
  8
_0-0_レイヤ___1
  6
CONTINUOUS
 62
    7
 10
604.51499749999994
 20
200.67750150000006
 40
19.309999999999999
 50
213.63652200000001
 51
240.43816899999999
  0
ARC
  8
_0-0_レイヤ___1
  6
CONTINUOUS
 62
    7
 10
596.88499750000005
 20
195.85750150000001
 40
10.145
 50
180.69757200000004
 51
213.65427100000002
  0
ARC
  8
_0-0_レイヤ___1
  6
CONTINUOUS
 62
    7
 10
596.15999749999992
 20
195.60750150000001
 40
9.4199999999999999
 50
149.53199500000002
 51
179.229185
  0
ARC
  8
_0-0_レイヤ___1
  6
CONTINUOUS
 62
    7
 10
596.32499749999988
 20
195.25750149999999
 40
9.7400000000000002
 50
126.061913
 51
148.26021600000001
  0
ARC
  8
_0-0_レイヤ___1
  6
CONTINUOUS
 62
    7
 10
603.01499749999994
 20
190.84250150000003
 40
17.614999999999998
 50
114.02938099999999
 51
134.84857099999999
  0
LINE
  8
_0-0_レイヤ___1
  6
CONTINUOUS
 62
    7
 10
595.83999749999998
 20
203.53250150000008
 11
595.83999749999998
 21
206.53250150000008
  0
LINE
  8
_0-0_レイヤ___1
  6
CONTINUOUS
 62
    7
 10
623.38999749999994
 20
194.23250150000001
 11
623.38999749999994
 21
265.58250050000004
  0
ARC
  8
_0-0_レイヤ___1
  6
CONTINUOUS
 62
    7
 10
615.15999749999992
 20
188.25750149999999
 40
10.130000000000001
 50
0.427647
 51
37.565657000000002
  0
ARC
  8
_0-0_レイヤ___1
  6
CONTINUOUS
 62
    7
 10
616.76499749999994
 20
188.30250150000006
 40
8.5350000000000001
 50
305.24382500000002
 51
357.16817900000001
  0
LINE
  8
_0-0_レイヤ___1
  6
CONTINUOUS
 62
    7
 10
625.28999750000003
 20
187.88250149999999
 11
625.28999750000003
 21
188.08250150000003
  0
ARC
  8
_0-0_レイヤ___1
  6
CONTINUOUS
 62
    7
 10
616.52999750000004
 20
188.38250149999999
 40
8.8550000000000004
 50
278.81910699999997
 51
307.23189200000002
  0
LINE
  8
_0-0_レイヤ___1
  6
CONTINUOUS
 62
    7
 10
618.28999750000003
 20
179.43250150000006
 11
607.93999749999989
 21
163.53250250000008
  0
LINE
  8
_0-0_レイヤ___1
  6
CONTINUOUS
 62
    7
 10
607.93999749999989
 20
163.53250250000008
 11
597.53999750000003
 21
147.68250250000006
  0
LINE
  8
_0-0_レイヤ___1
  6
CONTINUOUS
 62
    7
 10
597.53999750000003
 20
147.68250250000006
 11
587.18999749999989
 21
131.58250250000003
  0
LINE
  8
_0-0_レイヤ___1
  6
CONTINUOUS
 62
    7
 10
587.18999749999989
 20
131.58250250000003
 11
577.03999750000003
 21
115.93250250000006
  0
LINE
  8
_0-0_レイヤ___1
  6
CONTINUOUS
 62
    7
 10
577.03999750000003
 20
115.93250250000006
 11
570.23999750000007
 21
105.53250350000002
  0
LINE
  8
_0-0_レイヤ___1
  6
CONTINUOUS
 62
    7
 10
570.43999749999989
 20
105.73250350000001
 11
569.83999749999998
 21
105.13250350000004
  0
ARC
  8
_0-0_レイヤ___1
  6
CONTINUOUS
 62
    7
 10
573.86499750000007
 20
102.15750350000002
 40
5.2050000000000001
 50
145.15515400000001
 51
161.96943099999996
  0
ARC
  8
_0-0_レイヤ___1
  6
CONTINUOUS
 62
    7
 10
586.18999749999989
 20
98.392503500000032
 40
18.094999999999999
 50
162.70576699999998
 51
167.25297699999996
  0
ARC
  8
_0-0_レイヤ___1
  6
CONTINUOUS
 62
    7
 10
577.63999749999994
 20
100.19250350000004
 40
9.1199999999999992
 50
166.09603300000001
 51
183.51511099999999
  0
LINE
  8
_0-0_レイヤ___1
  6
CONTINUOUS
 62
    7
 10
568.33999749999998
 20
-54.267494499999941
 11
568.33999749999998
 21
99.432503500000053
  0
ARC
  8
_0-0_レイヤ___1
  6
CONTINUOUS
 62
    7
 10
569.02499749999993
 20
-54.762494499999946
 40
0.6899999999999999
 50
134.583079
 51
172.28678500000001
  0
ARC
  8
_0-0_レイヤ___1
  6
CONTINUOUS
 62
    7
 10
568.37999749999994
 20
-54.227494499999978
 40
0.165
 50
345.68200100000001
 51
104.31798900000001
  0
ARC
  8
_0-0_レイヤ___1
  6
CONTINUOUS
 62
    7
 10
567.27999750000004
 20
-54.247494499999959
 40
1.0900000000000001
 50
281.08675699999992
 51
322.12825999999995
  0
ARC
  8
_0-0_レイヤ___1
  6
CONTINUOUS
 62
    7
 10
579.18999749999989
 20
-79.142494499999941
 40
26.725000000000001
 50
115.96385400000001
 51
118.98498300000001
  0
ARC
  8
_0-0_レイヤ___1
  6
CONTINUOUS
 62
    7
 10
568.47999750000008
 20
-61.317494499999952
 40
5.8499999999999996
 50
108.323098
 51
164.614473
  0
ARC
  8
_0-0_レイヤ___1
  6
CONTINUOUS
 62
    7
 10
569.18499750000001
 20
-62.917494499999975
 40
6.9950000000000001
 50
155.05047500000001
 51
178.35234700000001
  0
LINE
  8
_0-0_レイヤ___1
  6
CONTINUOUS
 62
    7
 10
562.1899985
 20
-62.717494499999987
 11
562.1899985
 21
-95.117493499999966
  0
ARC
  8
_0-0_レイヤ___1
  6
CONTINUOUS
 62
    7
 10
567.48499749999996
 20
-97.212493499999937
 40
5.5599999999999996
 50
162.25440599999999
 51
171.26451799999998
  0
ARC
  8
_0-0_レイヤ___1
  6
CONTINUOUS
 62
    7
 10
561.50499850000006
 20
-95.612493499999971
 40
0.6899999999999999
 50
7.7131959999999999
 51
45.416901000000003
  0
LINE
  8
_0-0_レイヤ___1
  6
CONTINUOUS
 62
    7
 10
561.98999849999996
 20
-96.617493499999966
 11
561.13999850000005
 21
-97.017493499999944
  0
LINE
  8
_0-0_レイヤ___1
  6
CONTINUOUS
 62
    7
 10
561.13999850000005
 20
-97.017493499999944
 11
529.38999850000005
 21
-115.41749349999998
  0
ARC
  8
_0-0_レイヤ___1
  6
CONTINUOUS
 62
    7
 10
532.37999850000006
 20
-120.84749349999998
 40
6.375
 50
117.987511
 51
132.950311
  0
ARC
  8
_0-0_レイヤ___1
  6
CONTINUOUS
 62
    7
 10
538.49999849999995
 20
-127.14249349999994
 40
15.154999999999999
 50
133.65697700000001
 51
142.72874899999999
  0
ARC
  8
_0-0_レイヤ___1
  6
CONTINUOUS
 62
    7
 10
519.04499850000002
 20
-113.47249349999998
 40
8.6549999999999994
 50
307.72643799999997
 51
328.70453900000001
  0
LINE
  8
_0-0_レイヤ___1
  6
CONTINUOUS
 62
    7
 10
524.53999849999991
 20
-120.51749349999994
 11
483.03999949999996
 21
-144.66749349999998
  0
LINE
  8
_0-0_レイヤ___1
  6
CONTINUOUS
 62
    7
 10
616.18999749999989
 20
179.43250150000006
 11
618.48999750000007
 21
179.43250150000006
  0
ARC
  8
_0-0_レイヤ___1
  6
CONTINUOUS
 62
    7
 10
616.91499750000003
 20
244.08250050000004
 40
64.464999000000006
 50
257.57139000000001
 51
268.95660900000001
  0
ARC
  8
_0-0_レイヤ___1
  6
CONTINUOUS
 62
    7
 10
615.21499749999998
 20
224.50750149999999
 40
45.289999000000002
 50
243.19355200000004
 51
254.40604000000002
  0
ARC
  8
_0-0_レイヤ___1
  6
CONTINUOUS
 62
    7
 10
604.51499749999994
 20
200.67750150000006
 40
19.309999999999999
 50
213.63652200000001
 51
240.43816899999999
  0
ARC
  8
_0-0_レイヤ___1
  6
CONTINUOUS
 62
    7
 10
596.88499750000005
 20
195.85750150000001
 40
10.145
 50
180.69757200000004
 51
213.65427100000002
  0
ARC
  8
_0-0_レイヤ___1
  6
CONTINUOUS
 62
    7
 10
596.15999749999992
 20
195.60750150000001
 40
9.4199999999999999
 50
149.53199500000002
 51
179.229185
  0
ARC
  8
_0-0_レイヤ___1
  6
CONTINUOUS
 62
    7
 10
596.32499749999988
 20
195.25750149999999
 40
9.7400000000000002
 50
126.061913
 51
148.26021600000001
  0
ARC
  8
_0-0_レイヤ___1
  6
CONTINUOUS
 62
    7
 10
603.01499749999994
 20
190.84250150000003
 40
17.614999999999998
 50
114.02938099999999
 51
134.84857099999999
  0
LINE
  8
_0-0_レイヤ___1
  6
CONTINUOUS
 62
    7
 10
595.83999749999998
 20
203.53250150000008
 11
595.83999749999998
 21
206.53250150000008
  0
LINE
  8
_0-0_レイヤ___1
  6
CONTINUOUS
 62
    7
 10
595.63999749999994
 20
203.98250150000001
 11
596.28999750000003
 21
202.68250150000006
  0
ARC
  8
_0-0_レイヤ___1
  6
CONTINUOUS
 62
    7
 10
608.70499749999999
 20
208.84750150000002
 40
13.949999999999999
 50
207.13446099999999
 51
230.810509
  0
ARC
  8
_0-0_レイヤ___1
  6
CONTINUOUS
 62
    7
 10
609.65999749999992
 20
209.73750150000001
 40
15.035
 50
228.47528
 51
247.45387700000003
  0
ARC
  8
_0-0_レイヤ___1
  6
CONTINUOUS
 62
    7
 10
616.58999749999998
 20
224.40750150000008
 40
31.25
 50
246.02713799999998
 51
249.78222599999998
  0
ARC
  8
_0-0_レイヤ___1
  6
CONTINUOUS
 62
    7
 10
616.31499749999989
 20
229.21250150000003
 40
35.644998999999999
 50
253.24401599999999
 51
268.43131199999999
  0
ARC
  8
_0-0_レイヤ___1
  6
CONTINUOUS
 62
    7
 10
615.53499749999992
 20
193.71250150000003
 40
0.2349999999999999
 50
213.54795999999999
 51
30.462818999999989
  0
LINE
  8
_0-0_レイヤ___1
  6
CONTINUOUS
 62
    7
 10
616.18999749999989
 20
193.58250150000003
 11
616.38999749999994
 21
193.58250150000003
  0
ARC
  8
_0-0_レイヤ___1
  6
CONTINUOUS
 62
    7
 10
616.10499750000008
 20
220.81250150000005
 40
27.23
 50
270.59714600000001
 51
277.71700900000002
  0
ARC
  8
_0-0_レイヤ___1
  6
CONTINUOUS
 62
    7
 10
605.78999750000003
 20
294.64250049999998
 40
101.77999800000001
 50
277.88996600000007
 51
280.071417
  0
ARC
  8
_0-0_レイヤ___1
  6
CONTINUOUS
 62
    7
 10
620.56499749999989
 20
171.98750250000001
 40
39.224998999999997
 50
51.486190999999998
 51
63.624390000000005
  0
ARC
  8
_0-0_レイヤ___1
  6
CONTINUOUS
 62
    7
 10
638.54499650000002
 20
195.28750150000008
 40
9.8100000000000005
 50
26.953133999999999
 51
48.931164000000003
  0
ARC
  8
_0-0_レイヤ___1
  6
CONTINUOUS
 62
    7
 10
639.2149965000001
 20
195.23750150000001
 40
9.4199999999999999
 50
5.4657310000000008
 51
28.515912000000004
  0
ARC
  8
_0-0_レイヤ___1
  6
CONTINUOUS
 62
    7
 10
639.45999649999999
 20
196.39250149999998
 40
8.8800000000000008
 50
338.81616700000001
 51
359.61523999999997
  0
LINE
  8
_0-0_レイヤ___1
  6
CONTINUOUS
 62
    7
 10
648.3399965000001
 20
196.33250150000003
 11
648.3399965000001
 21
196.58250150000003
  0
ARC
  8
_0-0_レイヤ___1
  6
CONTINUOUS
 62
    7
 10
634.26499650000005
 20
198.08750150000003
 40
14.34
 50
314.63809900000001
 51
340.00079799999997
  0
ARC
  8
_0-0_レイヤ___1
  6
CONTINUOUS
 62
    7
 10
627.22499749999997
 20
206.88750149999998
 40
25.710000000000001
 50
295.24775299999999
 51
312.34036400000002
  0
ARC
  8
_0-0_レイヤ___1
  6
CONTINUOUS
 62
    7
 10
621.90999749999992
 20
218.34250150000003
 40
38.339998999999999
 50
280.79461500000002
 51
295.12828200000001
  0
LINE
  8
_0-0_レイヤ___1
  6
CONTINUOUS
 62
    7
 10
629.28999750000003
 20
180.68250150000006
 11
624.23999750000007
 21
179.83250150000003
  0
ARC
  8
_0-0_レイヤ___1
  6
CONTINUOUS
 62
    7
 10
621.43499750000001
 20
214.67750150000006
 40
20.100000000000001
 50
287.23790300000002
 51
311.51600999999999
  0
ARC
  8
_0-0_レイヤ___1
  6
CONTINUOUS
 62
    7
 10
615.60499750000008
 20
222.07750150000004
 40
29.510000000000002
 50
310.46919400000002
 51
315.05475799999999
  0
ARC
  8
_0-0_レイヤ___1
  6
CONTINUOUS
 62
    7
 10
623.61999749999995
 20
213.08250150000003
 40
17.350000000000001
 50
316.91032899999999
 51
328.35634099999999
  0
LINE
  8
_0-0_レイヤ___1
  6
CONTINUOUS
 62
    7
 10
588.43999749999989
 20
194.43250150000006
 11
588.43999749999989
 21
194.23250150000001
  0
ARC
  8
_0-0_レイヤ___1
  6
CONTINUOUS
 62
    7
 10
603.00499749999994
 20
194.34750150000002
 40
14.565
 50
180.45630700000001
 51
204.39561599999999
  0
ARC
  8
_0-0_レイヤ___1
  6
CONTINUOUS
 62
    7
 10
605.3049974999999
 20
191.04250150000007
 40
13.664999999999999
 50
179.82963599999999
 51
204.69990799999999
  0
ARC
  8
_0-0_レイヤ___1
  6
CONTINUOUS
 62
    7
 10
613.98499749999996
 20
190.8725015
 40
19.535
 50
186.87481
 51
201.747309
  0
ARC
  8
_0-0_レイヤ___1
  6
CONTINUOUS
 62
    7
 10
616.81499749999989
 20
189.2475015
 40
18.754999999999999
 50
186.77961899999997
 51
202.12527399999999
  0
ARC
  8
_0-0_レイヤ___1
  6
CONTINUOUS
 62
    7
 10
640.75999649999994
 20
188.68750150000005
 40
12.949999999999999
 50
88.324973999999983
 51
113.291466
  0
ARC
  8
_0-0_レイヤ___1
  6
CONTINUOUS
 62
    7
 10
637.39999650000004
 20
186.19750150000004
 40
12.890000000000001
 50
88.262718000000021
 51
113.35372100000001
  0
ARC
  8
_0-0_レイヤ___1
  6
CONTINUOUS
 62
    7
 10
631.50999750000005
 20
189.26750149999998
 40
7.335
 50
85.848842000000005
 51
105.572323
  0
ARC
  8
_0-0_レイヤ___1
  6
CONTINUOUS
 62
    7
 10
453.04999949999996
 20
-54.417494499999975
 40
2.9199999999999999
 50
83.335883999999993
 51
112.370721
  0
ARC
  8
_0-0_レイヤ___1
  6
CONTINUOUS
 62
    7
 10
485.77499949999998
 20
-93.222493499999985
 40
53.394998999999999
 50
129.32261299999999
 51
131.15007500000002
  0
ARC
  8
_0-0_レイヤ___1
  6
CONTINUOUS
 62
    7
 10
450.27499949999998
 20
-55.422494499999971
 40
3.7799999999999998
 50
39.494550000000004
 51
67.997763000000006
  0
ARC
  8
_0-0_レイヤ___1
  6
CONTINUOUS
 62
    7
 10
450.67499949999996
 20
-54.25749449999995
 40
2.5550000000000002
 50
66.553803000000002
 51
95.265626000000012
  0
ARC
  8
_0-0_レイヤ___1
  6
CONTINUOUS
 62
    7
 10
451.05999949999995
 20
-51.38249449999995
 40
4.1399999999999997
 50
232.49029300000001
 51
273.15792399999998
  0
ARC
  8
_0-0_レイヤ___1
  6
CONTINUOUS
 62
    7
 10
449.84499950000003
 20
-60.767494499999941
 40
5.5049999999999999
 50
65.334936999999996
 51
72.590026000000009
  0
ARC
  8
_0-0_レイヤ___1
  6
CONTINUOUS
 62
    7
 10
452.03999949999996
 20
-50.737494499999968
 40
5.0300000000000002
 50
271.13261599999998
 51
287.724445
  0
ARC
  8
_0-0_レイヤ___1
  6
CONTINUOUS
 62
    7
 10
449.98999950000001
 20
-44.457494499999939
 40
11.640000000000001
 50
287.93605100000002
 51
295.99754100000007
  0
ARC
  8
_0-0_レイヤ___1
  6
CONTINUOUS
 62
    7
 10
454.54499949999996
 20
-52.797494499999971
 40
1.9450000000000001
 50
286.26712500000002
 51
341.48627900000002
  0
LINE
  8
_0-0_レイヤ___1
  6
CONTINUOUS
 62
    7
 10
456.58999950000003
 20
-53.217494499999987
 11
456.78999949999996
 21
-53.017494499999941
  0
ARC
  8
_0-0_レイヤ___1
  6
CONTINUOUS
 62
    7
 10
453.14999949999998
 20
-53.427494499999966
 40
3.665
 50
6.3969470000000008
 51
20.08409
  0
ARC
  8
_0-0_レイヤ___1
  6
CONTINUOUS
 62
    7
 10
452.64999949999998
 20
-55.267494499999941
 40
4.8600000000000003
 50
39.672812999999998
 51
59.854459000000006
  0
ARC
  8
_0-0_レイヤ___1
  6
CONTINUOUS
 62
    7
 10
452.43499949999995
 20
-56.642494499999941
 40
6.1749999999999998
 50
64.523157999999995
 51
90.860793000000001
  0
LINE
  8
_0-0_レイヤ___1
  6
CONTINUOUS
 62
    7
 10
452.33999950000003
 20
-50.467494499999987
 11
452.13999949999999
 21
-50.467494499999987
  0
ARC
  8
_0-0_レイヤ___1
  6
CONTINUOUS
 62
    7
 10
452.05999949999995
 20
-59.937494499999957
 40
9.4700000000000006
 50
89.503241000000003
 51
110.51269599999999
  0
ARC
  8
_0-0_レイヤ___1
  6
CONTINUOUS
 62
    7
 10
450.27499949999998
 20
-53.417494499999975
 40
2.9750000000000001
 50
121.03746099999999
 51
159.35136600000001
  0
LINE
  8
_0-0_レイヤ___1
  6
CONTINUOUS
 62
    7
 10
447.48999950000001
 20
-52.367494499999964
 11
447.48999950000001
 21
-53.017494499999941
  0
ARC
  8
_0-0_レイヤ___1
  6
CONTINUOUS
 62
    7
 10
450.51999949999998
 20
-52.737494499999968
 40
3.04
 50
185.28689800000004
 51
210.20248100000001
  0
LINE
  8
_0-0_レイヤ___1
  6
CONTINUOUS
 62
    7
 10
448.13999949999999
 20
-54.267494499999941
 11
448.53999949999996
 21
-54.667494499999975
  0
ARC
  8
_0-0_レイヤ___1
  6
CONTINUOUS
 62
    7
 10
451.92499949999996
 20
-49.907494499999984
 40
4.6600000000000001
 50
237.06215500000002
 51
253.90344200000004
  0
ARC
  8
_0-0_レイヤ___1
  6
CONTINUOUS
 62
    7
 10
459.3799995
 20
-23.842495499999984
 40
31.77
 50
254.01220899999998
 51
255.98732199999998
  0
LINE
  8
_0-0_レイヤ___1
  6
CONTINUOUS
 62
    7
 10
451.93999949999994
 20
-54.667494499999975
 11
452.13999949999999
 21
-54.667494499999975
  0
ARC
  8
_0-0_レイヤ___1
  6
CONTINUOUS
 62
    7
 10
452.19499949999994
 20
-49.982494499999973
 40
4.6849999999999996
 50
269.32532300000003
 51
299.320134
  0
ARC
  8
_0-0_レイヤ___1
  6
CONTINUOUS
 62
    7
 10
453.86999950000001
 20
-52.542494499999975
 40
1.4199999999999999
 50
295.82299699999999
 51
358.93852399999997
  0
ARC
  8
_0-0_レイヤ___1
  6
CONTINUOUS
 62
    7
 10
454.56499949999994
 20
-52.567494499999952
 40
1.175
 50
359.98953799999998
 51
63.529415000000057
  0
ARC
  8
_0-0_レイヤ___1
  6
CONTINUOUS
 62
    7
 10
454.47999950000002
 20
-51.887494499999946
 40
0.89
 50
24.517567999999997
 51
65.651359999999997
  0
ARC
  8
_0-0_レイヤ___1
  6
CONTINUOUS
 62
    7
 10
449.53499949999997
 20
-59.75749449999995
 40
10.175000000000001
 50
58.527952000000006
 51
60.861856000000003
  0
ARC
  8
_0-0_レイヤ___1
  6
CONTINUOUS
 62
    7
 10
453.1299995
 20
-53.227494499999978
 40
2.7250000000000001
 50
60.069983000000001
 51
82.534630000000007
  0
ARC
  8
_0-0_レイヤ___1
  6
CONTINUOUS
 62
    7
 10
452.49499950000001
 20
-58.492494499999964
 40
8.0250000000000004
 50
82.904661000000004
 51
91.100258999999994
  0
LINE
  8
_0-0_レイヤ___1
  6
CONTINUOUS
 62
    7
 10
452.33999950000003
 20
-50.467494499999987
 11
452.13999949999999
 21
-50.467494499999987
  0
ARC
  8
_0-0_レイヤ___1
  6
CONTINUOUS
 62
    7
 10
452.30499949999995
 20
-61.112494499999968
 40
10.65
 50
91.953784999999982
 51
105.87604699999999
  0
ARC
  8
_0-0_レイヤ___1
  6
CONTINUOUS
 62
    7
 10
449.94999950000005
 20
-52.517494499999941
 40
1.325
 50
114.89355500000002
 51
148.03747500000003
  0
ARC
  8
_0-0_レイヤ___1
  6
CONTINUOUS
 62
    7
 10
452.79999949999996
 20
-54.217494499999987
 40
4.6449999999999996
 50
148.892719
 51
156.52490299999999
  0
LINE
  8
_0-0_レイヤ___1
  6
CONTINUOUS
 62
    7
 10
448.53999949999996
 20
-52.167494499999975
 11
448.53999949999996
 21
-52.567494499999952
  0
ARC
  8
_0-0_レイヤ___1
  6
CONTINUOUS
 62
    7
 10
449.30499949999995
 20
-52.687494499999957
 40
0.775
 50
170.997105
 51
223.20835
  0
ARC
  8
_0-0_レイヤ___1
  6
CONTINUOUS
 62
    7
 10
449.39999949999998
 20
-53.152494499999989
 40
0.665
 50
185.58474200000001
 51
268.99650700000001
  0
ARC
  8
_0-0_レイヤ___1
  6
CONTINUOUS
 62
    7
 10
468.52499949999998
 20
-21.407495499999982
 40
3.0350000000000001
 50
181.08562599999999
 51
209.75873300000001
  0
ARC
  8
_0-0_レイヤ___1
  6
CONTINUOUS
 62
    7
 10
468.7499995
 20
-21.682495499999959
 40
3.1150000000000002
 50
203.379167
 51
234.47595100000001
  0
ARC
  8
_0-0_レイヤ___1
  6
CONTINUOUS
 62
    7
 10
467.44999950000005
 20
-23.017495499999939
 40
1.4450000000000001
 50
110.73132
 51
141.46533199999999
  0
ARC
  8
_0-0_レイヤ___1
  6
CONTINUOUS
 62
    7
 10
459.10999950000001
 20
-17.072495499999945
 40
8.8000000000000007
 50
318.37810000000002
 51
325.00725199999999
  0
LINE
  8
_0-0_レイヤ___1
  6
CONTINUOUS
 62
    7
 10
465.88999949999999
 20
-23.167495499999973
 11
465.23999950000001
 21
-24.417495499999973
  0
ARC
  8
_0-0_レイヤ___1
  6
CONTINUOUS
 62
    7
 10
456.66999949999996
 20
-21.272495499999991
 40
12.994999999999999
 50
337.14138800000006
 51
350.71146700000008
  0
ARC
  8
_0-0_レイヤ___1
  6
CONTINUOUS
 62
    7
 10
469.28999949999996
 20
-23.167495499999973
 40
0.2
 50
270.57635800000003
 51
359.423652
  0
ARC
  8
_0-0_レイヤ___1
  6
CONTINUOUS
 62
    7
 10
462.94499949999994
 20
-23.187495499999955
 40
6.5449999999999999
 50
0.1909349999999999
 51
15.159125
  0
ARC
  8
_0-0_レイヤ___1
  6
CONTINUOUS
 62
    7
 10
457.2499995
 20
-24.877494499999955
 40
12.484999999999999
 50
15.808543999999999
 51
24.170916000000002
  0
ARC
  8
_0-0_レイヤ___1
  6
CONTINUOUS
 62
    7
 10
465.56499949999994
 20
-21.712495499999989
 40
3.8100000000000001
 50
30.702845999999997
 51
64.74976599999998
  0
LINE
  8
_0-0_レイヤ___1
  6
CONTINUOUS
 62
    7
 10
467.18999949999994
 20
-18.717495499999984
 11
466.93999949999994
 21
-18.717495499999984
  0
ARC
  8
_0-0_レイヤ___1
  6
CONTINUOUS
 62
    7
 10
466.88999949999999
 20
-21.022495499999991
 40
2.3050000000000002
 50
88.768034
 51
115.42851399999999
  0
ARC
  8
_0-0_レイヤ___1
  6
CONTINUOUS
 62
    7
 10
466.26499949999999
 20
-19.747495499999957
 40
0.885
 50
114.24368599999998
 51
150.90517399999999
  0
ARC
  8
_0-0_レイヤ___1
  6
CONTINUOUS
 62
    7
 10
465.97499950000002
 20
-19.932495499999959
 40
0.9499999999999999
 50
120.750553
 51
169.85910799999999
  0
ARC
  8
_0-0_レイヤ___1
  6
CONTINUOUS
 62
    7
 10
471.18499949999995
 20
-22.717495499999984
 40
6.9950000000000001
 50
155.05047500000001
 51
178.35234700000001
  0
LINE
  8
_0-0_レイヤ___1
  6
CONTINUOUS
 62
    7
 10
464.18999949999994
 20
-22.517495499999939
 11
464.18999949999994
 21
-23.167495499999973
  0
ARC
  8
_0-0_レイヤ___1
  6
CONTINUOUS
 62
    7
 10
471.31999949999994
 20
-23.142495499999939
 40
7.1299999999999999
 50
180.19303299999999
 51
204.65888899999999
  0
ARC
  8
_0-0_レイヤ___1
  6
CONTINUOUS
 62
    7
 10
467.48499950000001
 20
-24.522494499999993
 40
3.1699999999999999
 50
206.13327100000001
 51
243.866759
  0
ARC
  8
_0-0_レイヤ___1
  6
CONTINUOUS
 62
    7
 10
462.3749995
 20
-40.50749449999995
 40
13.484999999999999
 50
70.22146699999999
 51
72.908618999999987
  0
ARC
  8
_0-0_レイヤ___1
  6
CONTINUOUS
 62
    7
 10
466.27999949999997
 20
-25.732494499999973
 40
2.1850000000000001
 50
287.49821700000001
 51
300.42677600000002
  0
ARC
  8
_0-0_レイヤ___1
  6
CONTINUOUS
 62
    7
 10
466.49499950000001
 20
-25.222494499999982
 40
2.4100000000000001
 50
297.04231600000003
 51
332.957694
  0
ARC
  8
_0-0_レイヤ___1
  6
CONTINUOUS
 62
    7
 10
464.72499950000002
 20
-23.10749549999997
 40
3.915
 50
326.489351
 51
359.11356999999998
  0
ARC
  8
_0-0_レイヤ___1
  6
CONTINUOUS
 62
    7
 10
464.11999950000001
 20
-22.962495499999989
 40
4.5250000000000004
 50
357.39711
 51
31.203441999999978
  0
ARC
  8
_0-0_レイヤ___1
  6
CONTINUOUS
 62
    7
 10
466.49499950000001
 20
-21.052495499999964
 40
1.7350000000000001
 50
30.663365999999996
 51
88.578368999999995
  0
ARC
  8
_0-0_レイヤ___1
  6
CONTINUOUS
 62
    7
 10
466.21999950000003
 20
-20.737495499999966
 40
1.21
 50
74.606756000000004
 51
126.961817
  0
ARC
  8
_0-0_レイヤ___1
  6
CONTINUOUS
 62
    7
 10
465.97499950000002
 20
-20.782495499999982
 40
0.9499999999999999
 50
120.750553
 51
169.85910799999999
  0
ARC
  8
_0-0_レイヤ___1
  6
CONTINUOUS
 62
    7
 10
468.78999949999996
 20
-22.332495499999993
 40
4.125
 50
155.420331
 51
174.139681
  0
ARC
  8
_0-0_レイヤ___1
  6
CONTINUOUS
 62
    7
 10
476.76999949999998
 20
-22.997495499999957
 40
12.130000000000001
 50
174.855884
 51
180.79175699999999
  0
ARC
  8
_0-0_レイヤ___1
  6
CONTINUOUS
 62
    7
 10
468.43499949999995
 20
-23.532495499999982
 40
3.8149999999999999
 50
174.511019
 51
207.05757399999996
  0
ARC
  8
_0-0_レイヤ___1
  6
CONTINUOUS
 62
    7
 10
466.32499950000005
 20
-24.782494499999984
 40
1.5649999999999999
 50
198.14935699999998
 51
228.41581499999998
  0
ARC
  8
_0-0_レイヤ___1
  6
CONTINUOUS
 62
    7
 10
467.07499950000005
 20
-23.897495499999991
 40
2.7250000000000001
 50
228.97041900000002
 51
254.33322400000003
  0
ARC
  8
_0-0_レイヤ___1
  6
CONTINUOUS
 62
    7
 10
466.57999950000004
 20
-25.822494499999948
 40
0.6949999999999999
 50
225.328033
 51
266.74701499999998
  0
ARC
  8
_0-0_レイヤ___1
  6
CONTINUOUS
 62
    7
 10
466.30499949999995
 20
-24.91249449999998
 40
1.625
 50
278.39842299999998
 51
312.00383900000003
  0
ARC
  8
_0-0_レイヤ___1
  6
CONTINUOUS
 62
    7
 10
466.84999950000002
 20
-25.337494499999991
 40
0.9449999999999999
 50
304.61193200000002
 51
352.17307
  0
ARC
  8
_0-0_レイヤ___1
  6
CONTINUOUS
 62
    7
 10
389.3150005
 20
22.757504500000039
 40
3.835
 50
94.106466999999981
 51
116.737832
  0
ARC
  8
_0-0_レイヤ___1
  6
CONTINUOUS
 62
    7
 10
366.40500049999997
 20
51.08250350000003
 40
32.695
 50
307.46310899999997
 51
310.39199000000002
  0
ARC
  8
_0-0_レイヤ___1
  6
CONTINUOUS
 62
    7
 10
382.80500050000001
 20
18.52750450000002
 40
9.0950000000000006
 50
48.442204000000004
 51
59.738338000000006
  0
ARC
  8
_0-0_レイヤ___1
  6
CONTINUOUS
 62
    7
 10
411.41500049999996
 20
106.77250350000003
 40
83.904999000000004
 50
252.43287699999996
 51
253.36168900000001
  0
ARC
  8
_0-0_レイヤ___1
  6
CONTINUOUS
 62
    7
 10
386.71000049999998
 20
26.717504500000018
 40
4.1399999999999997
 50
232.49029300000001
 51
273.15792399999998
  0
ARC
  8
_0-0_レイヤ___1
  6
CONTINUOUS
 62
    7
 10
382.33500049999998
 20
6.4675045000000182
 40
16.760000000000002
 50
71.734797
 51
74.059729000000004
  0
ARC
  8
_0-0_レイヤ___1
  6
CONTINUOUS
 62
    7
 10
387.5000005
 20
27.872504500000048
 40
5.4900000000000002
 50
270.96460999999999
 51
286.88851899999997
  0
ARC
  8
_0-0_レイヤ___1
  6
CONTINUOUS
 62
    7
 10
386.11000050000001
 20
32.412504500000011
 40
10.24
 50
286.94342600000004
 51
295.64100000000008
  0
ARC
  8
_0-0_レイヤ___1
  6
CONTINUOUS
 62
    7
 10
390.19500049999999
 20
25.302504500000055
 40
1.9450000000000001
 50
286.26712500000002
 51
341.48627900000002
  0
LINE
  8
_0-0_レイヤ___1
  6
CONTINUOUS
 62
    7
 10
392.04000049999996
 20
24.882504500000039
 11
392.24000050000001
 21
25.132504500000039
  0
ARC
  8
_0-0_レイヤ___1
  6
CONTINUOUS
 62
    7
 10
390.58500049999998
 20
25.072504500000036
 40
1.655
 50
2.0135399999999999
 51
30.845935999999995
  0
ARC
  8
_0-0_レイヤ___1
  6
CONTINUOUS
 62
    7
 10
389.74000050000001
 20
24.587504500000023
 40
2.6299999999999999
 50
30.533688999999995
 51
56.581836000000003
  0
ARC
  8
_0-0_レイヤ___1
  6
CONTINUOUS
 62
    7
 10
390.79500050000001
 20
26.412504500000011
 40
0.62
 50
16.057759999999998
 51
57.479340000000001
  0
ARC
  8
_0-0_レイヤ___1
  6
CONTINUOUS
 62
    7
 10
388.83000049999998
 20
24.357504500000061
 40
3.4500000000000002
 50
48.313048999999999
 51
56.438130999999998
  0
ARC
  8
_0-0_レイヤ___1
  6
CONTINUOUS
 62
    7
 10
387.96000049999998
 20
21.607504500000061
 40
6.2750000000000004
 50
63.684201000000002
 51
89.718641000000019
  0
LINE
  8
_0-0_レイヤ___1
  6
CONTINUOUS
 62
    7
 10
387.99000050000001
 20
27.882504500000039
 11
387.79000049999996
 21
27.882504500000039
  0
ARC
  8
_0-0_レイヤ___1
  6
CONTINUOUS
 62
    7
 10
387.80500050000001
 20
18.587504500000023
 40
9.2949999999999999
 50
90.090711999999982
 51
111.555288
  0
ARC
  8
_0-0_レイヤ___1
  6
CONTINUOUS
 62
    7
 10
385.13000049999999
 20
25.072504500000036
 40
2.0950000000000002
 50
110.63807799999999
 51
161.608497
  0
LINE
  8
_0-0_レイヤ___1
  6
CONTINUOUS
 62
    7
 10
383.14000049999999
 20
25.732504500000061
 11
383.14000049999999
 21
25.132504500000039
  0
ARC
  8
_0-0_レイヤ___1
  6
CONTINUOUS
 62
    7
 10
386.17500050000001
 20
25.352504500000009
 40
3.0449999999999999
 50
184.19065599999999
 51
210.01483800000003
  0
LINE
  8
_0-0_レイヤ___1
  6
CONTINUOUS
 62
    7
 10
383.54000049999996
 20
23.832504500000027
 11
383.99000050000001
 21
23.43250450000005
  0
ARC
  8
_0-0_レイヤ___1
  6
CONTINUOUS
 62
    7
 10
387.53000049999997
 20
28.117504500000052
 40
4.5750000000000002
 50
237.01990899999998
 51
254.03951699999996
  0
ARC
  8
_0-0_レイヤ___1
  6
CONTINUOUS
 62
    7
 10
392.74000050000001
 20
46.412503500000014
 40
23.594999999999999
 50
254.09009899999998
 51
256.89461099999994
  0
LINE
  8
_0-0_レイヤ___1
  6
CONTINUOUS
 62
    7
 10
387.59000049999997
 20
23.43250450000005
 11
387.79000049999996
 21
23.43250450000005
  0
ARC
  8
_0-0_レイヤ___1
  6
CONTINUOUS
 62
    7
 10
387.84500049999997
 20
28.117504500000052
 40
4.6849999999999996
 50
269.32532300000003
 51
299.320134
  0
ARC
  8
_0-0_レイヤ___1
  6
CONTINUOUS
 62
    7
 10
389.52000049999998
 20
25.617504500000052
 40
1.47
 50
294.86602099999999
 51
356.70258200000001
  0
ARC
  8
_0-0_レイヤ___1
  6
CONTINUOUS
 62
    7
 10
390.26500049999999
 20
25.562504500000045
 40
1.125
 50
358.54715700000003
 51
64.971795999999983
  0
ARC
  8
_0-0_レイヤ___1
  6
CONTINUOUS
 62
    7
 10
390.0650005
 20
26.052504500000055
 40
1.0649999999999999
 50
29.852564999999998
 51
67.031525000000002
  0
ARC
  8
_0-0_レイヤ___1
  6
CONTINUOUS
 62
    7
 10
526.15999850000003
 20
260.26750049999998
 40
269.82999599999999
 50
239.728498
 51
239.81226000000004
  0
ARC
  8
_0-0_レイヤ___1
  6
CONTINUOUS
 62
    7
 10
388.63000049999999
 20
25.187504500000045
 40
2.4049999999999998
 50
58.330448000000004
 51
82.007517000000021
  0
ARC
  8
_0-0_レイヤ___1
  6
CONTINUOUS
 62
    7
 10
387.96000049999998
 20
20.107504500000061
 40
7.5250000000000004
 50
82.331614999999999
 51
91.279755999999992
  0
LINE
  8
_0-0_レイヤ___1
  6
CONTINUOUS
 62
    7
 10
387.79000049999996
 20
27.632504500000039
 11
387.59000049999997
 21
27.632504500000039
  0
ARC
  8
_0-0_レイヤ___1
  6
CONTINUOUS
 62
    7
 10
387.75500049999999
 20
16.987504500000057
 40
10.65
 50
91.953784999999982
 51
105.87604699999999
  0
ARC
  8
_0-0_レイヤ___1
  6
CONTINUOUS
 62
    7
 10
385.99000050000001
 20
25.14250450000003
 40
1.895
 50
120.11194599999999
 51
161.906035
  0
LINE
  8
_0-0_レイヤ___1
  6
CONTINUOUS
 62
    7
 10
383.99000050000001
 20
25.982504500000061
 11
383.99000050000001
 21
25.532504500000016
  0
ARC
  8
_0-0_レイヤ___1
  6
CONTINUOUS
 62
    7
 10
384.88000049999999
 20
25.447504500000036
 40
0.89
 50
174.68690799999999
 51
219.51854599999999
  0
ARC
  8
_0-0_レイヤ___1
  6
CONTINUOUS
 62
    7
 10
384.85000049999996
 20
24.947504500000036
 40
0.665
 50
185.58474200000001
 51
268.99650700000001
  0
ARC
  8
_0-0_レイヤ___1
  6
CONTINUOUS
 62
    7
 10
405.51500049999999
 20
16.942504500000041
 40
2.9249999999999998
 50
182.20273299999999
 51
212.28022200000001
  0
ARC
  8
_0-0_レイヤ___1
  6
CONTINUOUS
 62
    7
 10
406.15000049999998
 20
16.822504500000036
 40
3.4249999999999998
 50
204.81145000000001
 51
233.04366800000003
  0
ARC
  8
_0-0_レイヤ___1
  6
CONTINUOUS
 62
    7
 10
339.27500149999997
 20
71.242503500000055
 40
84.749999000000003
 50
318.58927399999993
 51
319.88352499999996
  0
ARC
  8
_0-0_レイヤ___1
  6
CONTINUOUS
 62
    7
 10
404.80500050000001
 20
13.842504500000018
 40
2.2149999999999999
 50
142.823579
 51
178.98940099999999
  0
ARC
  8
_0-0_レイヤ___1
  6
CONTINUOUS
 62
    7
 10
398.09500049999997
 20
16.127504500000043
 40
8.8249999999999993
 50
333.43909600000001
 51
352.20909999999998
  0
ARC
  8
_0-0_レイヤ___1
  6
CONTINUOUS
 62
    7
 10
406.61000050000001
 20
15.162504500000011
 40
0.23
 50
277.58207199999998
 51
5.0983200000000117
  0
ARC
  8
_0-0_レイヤ___1
  6
CONTINUOUS
 62
    7
 10
400.51000049999999
 20
15.147504500000025
 40
6.3300000000000001
 50
0.3272419999999999
 51
15.414148000000001
  0
ARC
  8
_0-0_レイヤ___1
  6
CONTINUOUS
 62
    7
 10
394.35000049999996
 20
13.312504500000045
 40
12.755000000000001
 50
15.994436
 51
24.146954000000004
  0
ARC
  8
_0-0_レイヤ___1
  6
CONTINUOUS
 62
    7
 10
404.02500049999998
 20
17.927504500000055
 40
1.865
 50
18.932442000000002
 51
46.129528999999998
  0
ARC
  8
_0-0_レイヤ___1
  6
CONTINUOUS
 62
    7
 10
401.6200005
 20
15.347504500000014
 40
5.3949999999999996
 50
46.694854000000007
 51
60.316799000000003
  0
LINE
  8
_0-0_レイヤ___1
  6
CONTINUOUS
 62
    7
 10
404.29000049999996
 20
19.832504500000027
 11
404.09000049999997
 21
19.832504500000027
  0
LINE
  8
_0-0_レイヤ___1
  6
CONTINUOUS
 62
    7
 10
404.09000049999997
 20
19.832504500000027
 11
403.24000050000001
 21
19.832504500000027
  0
ARC
  8
_0-0_レイヤ___1
  6
CONTINUOUS
 62
    7
 10
404.65500049999997
 20
17.227504500000009
 40
2.79
 50
120.51347699999999
 51
152.15093200000001
  0
ARC
  8
_0-0_レイヤ___1
  6
CONTINUOUS
 62
    7
 10
406.90500049999997
 20
15.917504500000007
 40
5.5650000000000004
 50
151.99654799999999
 51
181.40631400000001
  0
LINE
  8
_0-0_レイヤ___1
  6
CONTINUOUS
 62
    7
 10
401.54000049999996
 20
15.782504500000016
 11
401.54000049999996
 21
15.18250450000005
  0
ARC
  8
_0-0_レイヤ___1
  6
CONTINUOUS
 62
    7
 10
408.22500049999996
 20
15.062504500000045
 40
6.6900000000000004
 50
178.95732699999999
 51
205.49291600000001
  0
ARC
  8
_0-0_レイヤ___1
  6
CONTINUOUS
 62
    7
 10
404.17500050000001
 20
12.802504500000055
 40
2.27
 50
195.82447399999998
 51
245.70276799999999
  0
ARC
  8
_0-0_レイヤ___1
  6
CONTINUOUS
 62
    7
 10
401.94500049999999
 20
4.9225045000000591
 40
6.1950000000000003
 50
69.750934999999998
 51
76.043591000000006
  0
ARC
  8
_0-0_レイヤ___1
  6
CONTINUOUS
 62
    7
 10
403.91000049999997
 20
12.342504500000018
 40
1.6200000000000001
 50
276.36421300000001
 51
332.067204
  0
ARC
  8
_0-0_レイヤ___1
  6
CONTINUOUS
 62
    7
 10
404.98500050000001
 20
12.062504500000045
 40
0.81
 50
296.125969
 51
354.48373100000003
  0
ARC
  8
_0-0_レイヤ___1
  6
CONTINUOUS
 62
    7
 10
401.0650005
 20
15.377504500000043
 40
4.5300000000000002
 50
328.82083999999998
 51
357.53634399999999
  0
ARC
  8
_0-0_レイヤ___1
  6
CONTINUOUS
 62
    7
 10
400.88500049999999
 20
15.292504500000007
 40
4.71
 50
358.65038299999998
 51
30.498046000000006
  0
ARC
  8
_0-0_レイヤ___1
  6
CONTINUOUS
 62
    7
 10
403.41500049999996
 20
16.987504500000057
 40
1.7949999999999999
 50
31.728225999999999
 51
89.194197000000003
  0
ARC
  8
_0-0_レイヤ___1
  6
CONTINUOUS
 62
    7
 10
403.38000049999999
 20
17.122504500000048
 40
1.4450000000000001
 50
77.508588000000003
 51
123.10108200000001
  0
ARC
  8
_0-0_レイヤ___1
  6
CONTINUOUS
 62
    7
 10
403.02000049999998
 20
17.617504500000052
 40
0.8349999999999999
 50
121.19553800000001
 51
175.58942500000001
  0
ARC
  8
_0-0_レイヤ___1
  6
CONTINUOUS
 62
    7
 10
408.39500049999998
 20
15.257504500000039
 40
6.6600000000000001
 50
158.62798000000001
 51
177.182469
  0
LINE
  8
_0-0_レイヤ___1
  6
CONTINUOUS
 62
    7
 10
401.54000049999996
 20
15.382504500000039
 11
401.54000049999996
 21
15.18250450000005
  0
ARC
  8
_0-0_レイヤ___1
  6
CONTINUOUS
 62
    7
 10
406.16500049999996
 20
14.852504500000009
 40
4.6399999999999997
 50
175.89050900000001
 51
205.79009899999997
  0
ARC
  8
_0-0_レイヤ___1
  6
CONTINUOUS
 62
    7
 10
403.48500050000001
 20
13.442504500000041
 40
1.3600000000000001
 50
197.479309
 51
231.21785
  0
ARC
  8
_0-0_レイヤ___1
  6
CONTINUOUS
 62
    7
 10
404.13500049999999
 20
14.397504500000025
 40
2.5150000000000001
 50
233.38326599999999
 51
253.95374099999998
  0
ARC
  8
_0-0_レイヤ___1
  6
CONTINUOUS
 62
    7
 10
403.71500049999997
 20
12.252504500000043
 40
0.67
 50
224.42764
 51
267.64740699999999
  0
ARC
  8
_0-0_レイヤ___1
  6
CONTINUOUS
 62
    7
 10
403.46000049999998
 20
13.042504500000007
 40
1.4750000000000001
 50
278.93357400000002
 51
314.19654200000002
  0
ARC
  8
_0-0_レイヤ___1
  6
CONTINUOUS
 62
    7
 10
382.1250005
 20
34.997504500000048
 40
32.090000000000003
 50
314.17939000000001
 51
315.82062000000002
  0
ARC
  8
_0-0_レイヤ___1
  6
CONTINUOUS
 62
    7
 10
444.09499950000003
 20
-7.2574954999999477
 40
2.7549999999999999
 50
180.19229199999998
 51
213.206233
  0
ARC
  8
_0-0_レイヤ___1
  6
CONTINUOUS
 62
    7
 10
444.34999950000002
 20
-7.4824954999999704
 40
2.7799999999999998
 50
202.96901399999999
 51
237.09153600000002
  0
ARC
  8
_0-0_レイヤ___1
  6
CONTINUOUS
 62
    7
 10
443.63999949999999
 20
-8.94249549999995
 40
1.5900000000000001
 50
112.08629000000001
 51
142.15469899999999
  0
ARC
  8
_0-0_レイヤ___1
  6
CONTINUOUS
 62
    7
 10
431.98499950000001
 20
-0.9124954999999772
 40
12.565
 50
321.294196
 51
325.84090500000002
  0
ARC
  8
_0-0_レイヤ___1
  6
CONTINUOUS
 62
    7
 10
465.16499949999996
 20
-21.917495499999973
 40
26.725000000000001
 50
151.01498699999999
 51
154.03611599999999
  0
ARC
  8
_0-0_レイヤ___1
  6
CONTINUOUS
 62
    7
 10
423.66000049999997
 20
-4.4474954999999454
 40
22.43
 50
340.00270999999998
 51
347.850145
  0
ARC
  8
_0-0_レイヤ___1
  6
CONTINUOUS
 62
    7
 10
445.13999949999999
 20
-8.9674954999999841
 40
0.2
 50
270.57635800000003
 51
359.423652
  0
ARC
  8
_0-0_レイヤ___1
  6
CONTINUOUS
 62
    7
 10
438.44499949999999
 20
-9.0374954999999773
 40
6.8949999999999996
 50
0.562284
 51
15.049115000000002
  0
ARC
  8
_0-0_レイヤ___1
  6
CONTINUOUS
 62
    7
 10
429.03500049999997
 20
-11.712495499999989
 40
16.68
 50
15.535720000000001
 51
21.619467
  0
ARC
  8
_0-0_レイヤ___1
  6
CONTINUOUS
 62
    7
 10
441.41499949999996
 20
-7.7424954999999613
 40
3.9750000000000001
 50
33.207306000000003
 51
65.868228999999999
  0
LINE
  8
_0-0_レイヤ___1
  6
CONTINUOUS
 62
    7
 10
443.03999949999996
 20
-4.31749549999995
 11
442.83999950000003
 21
-4.31749549999995
  0
ARC
  8
_0-0_レイヤ___1
  6
CONTINUOUS
 62
    7
 10
442.76499949999999
 20
-6.6224954999999568
 40
2.3050000000000002
 50
88.145674
 51
115.06437399999999
  0
ARC
  8
_0-0_レイヤ___1
  6
CONTINUOUS
 62
    7
 10
442.16999949999996
 20
-5.3774954999999522
 40
0.93
 50
114.44869799999998
 51
153.732506
  0
ARC
  8
_0-0_レイヤ___1
  6
CONTINUOUS
 62
    7
 10
441.68999949999994
 20
-5.6374954999999431
 40
0.755
 50
117.77351699999998
 51
174.846316
  0
ARC
  8
_0-0_レイヤ___1
  6
CONTINUOUS
 62
    7
 10
446.84999950000002
 20
-8.352495499999975
 40
6.7599999999999998
 50
155.677402
 51
179.70652899999999
  0
LINE
  8
_0-0_レイヤ___1
  6
CONTINUOUS
 62
    7
 10
440.08999950000003
 20
-8.31749549999995
 11
440.08999950000003
 21
-8.9674954999999841
  0
ARC
  8
_0-0_レイヤ___1
  6
CONTINUOUS
 62
    7
 10
447.32499950000005
 20
-9.0324954999999818
 40
7.2350000000000003
 50
179.48716899999999
 51
203.505954
  0
ARC
  8
_0-0_レイヤ___1
  6
CONTINUOUS
 62
    7
 10
443.64999949999998
 20
-10.257495499999948
 40
3.2999999999999998
 50
206.24437800000001
 51
243.755652
  0
ARC
  8
_0-0_レイヤ___1
  6
CONTINUOUS
 62
    7
 10
452.77999949999997
 20
19.847504500000014
 40
34.909998999999999
 50
252.33920599999999
 51
253.45536000000004
  0
ARC
  8
_0-0_レイヤ___1
  6
CONTINUOUS
 62
    7
 10
441.25999949999999
 20
-9.9574954999999932
 40
3.9849999999999999
 50
293.34926399999995
 51
299.78085199999992
  0
ARC
  8
_0-0_レイヤ___1
  6
CONTINUOUS
 62
    7
 10
441.9999995
 20
-10.677495499999964
 40
2.9199999999999999
 50
299.55889200000001
 51
330.44111800000002
  0
ARC
  8
_0-0_レイヤ___1
  6
CONTINUOUS
 62
    7
 10
440.31499949999994
 20
-8.9674954999999841
 40
3.9750000000000001
 50
328.11425200000002
 51
359.99495899999999
  0
ARC
  8
_0-0_レイヤ___1
  6
CONTINUOUS
 62
    7
 10
439.25999949999999
 20
-8.8074954999999591
 40
5.0300000000000002
 50
358.14971200000002
 51
28.331325000000017
  0
ARC
  8
_0-0_レイヤ___1
  6
CONTINUOUS
 62
    7
 10
442.16499949999996
 20
-6.9624954999999886
 40
1.7949999999999999
 50
31.767769000000005
 51
89.154652999999996
  0
ARC
  8
_0-0_レイヤ___1
  6
CONTINUOUS
 62
    7
 10
442.07499950000005
 20
-6.5824954999999932
 40
1.2549999999999999
 50
75.544382000000013
 51
126.024191
  0
ARC
  8
_0-0_レイヤ___1
  6
CONTINUOUS
 62
    7
 10
441.69999950000005
 20
-6.4374954999999545
 40
0.76
 50
118.288296
 51
178.49666700000003
  0
ARC
  8
_0-0_レイヤ___1
  6
CONTINUOUS
 62
    7
 10
444.2549995
 20
-8.1374954999999431
 40
3.7349999999999999
 50
152.565596
 51
172.53002099999998
  0
ARC
  8
_0-0_レイヤ___1
  6
CONTINUOUS
 62
    7
 10
450.16499949999996
 20
-8.7624954999999431
 40
9.6750000000000007
 50
173.41410900000002
 51
181.21341500000003
  0
ARC
  8
_0-0_レイヤ___1
  6
CONTINUOUS
 62
    7
 10
443.80999949999995
 20
-9.352495499999975
 40
3.3450000000000002
 50
173.36233799999999
 51
210.82717299999999
  0
ARC
  8
_0-0_レイヤ___1
  6
CONTINUOUS
 62
    7
 10
442.45999950000004
 20
-10.362495499999966
 40
1.905
 50
201.74850000000001
 51
229.299294
  0
ARC
  8
_0-0_レイヤ___1
  6
CONTINUOUS
 62
    7
 10
443.26999949999998
 20
-9.3674954999999613
 40
3.1899999999999999
 50
229.87626199999997
 51
250.15617299999997
  0
ARC
  8
_0-0_レイヤ___1
  6
CONTINUOUS
 62
    7
 10
442.44499949999994
 20
-11.837495499999989
 40
0.535
 50
211.82241400000001
 51
264.16684700000002
  0
ARC
  8
_0-0_レイヤ___1
  6
CONTINUOUS
 62
    7
 10
442.07499950000005
 20
-10.742495499999961
 40
1.655
 50
281.01676400000002
 51
314.77779199999998
  0
ARC
  8
_0-0_レイヤ___1
  6
CONTINUOUS
 62
    7
 10
443.01499949999999
 20
-11.282495499999982
 40
0.675
 50
289.33716199999998
 51
356.92305099999999
  0
ARC
  8
_0-0_レイヤ___1
  6
CONTINUOUS
 62
    7
 10
429.04500050000001
 20
-39.75749449999995
 40
2.25
 50
83.78458599999999
 51
117.98644599999999
  0
ARC
  8
_0-0_レイヤ___1
  6
CONTINUOUS
 62
    7
 10
374.03000049999997
 20
22.312504500000045
 40
80.434999000000005
 50
310.75474199999996
 51
311.94082299999997
  0
ARC
  8
_0-0_レイヤ___1
  6
CONTINUOUS
 62
    7
 10
426.11500050000001
 20
-41.102494499999978
 40
3.875
 50
39.863354999999999
 51
67.628957999999997
  0
ARC
  8
_0-0_レイヤ___1
  6
CONTINUOUS
 62
    7
 10
426.51000049999999
 20
-40.202494499999943
 40
2.895
 50
68.125788999999997
 51
94.381868999999995
  0
ARC
  8
_0-0_レイヤ___1
  6
CONTINUOUS
 62
    7
 10
427.25500049999999
 20
-36.937494499999957
 40
4.4349999999999996
 50
233.879591
 51
271.76862599999998
  0
ARC
  8
_0-0_レイヤ___1
  6
CONTINUOUS
 62
    7
 10
423.42500050000001
 20
-54.25749449999995
 40
13.484999999999999
 50
70.22146699999999
 51
72.908618999999987
  0
ARC
  8
_0-0_レイヤ___1
  6
CONTINUOUS
 62
    7
 10
427.90500049999997
 20
-36.357494499999973
 40
5.21
 50
270.92560099999997
 51
287.40147899999999
  0
ARC
  8
_0-0_レイヤ___1
  6
CONTINUOUS
 62
    7
 10
426.04500050000001
 20
-30.597494499999982
 40
11.265000000000001
 50
287.68038999999999
 51
296.04894899999999
  0
ARC
  8
_0-0_レイヤ___1
  6
CONTINUOUS
 62
    7
 10
430.36999950000001
 20
-38.667494499999975
 40
1.95
 50
288.57083999999998
 51
343.67577499999999
  0
LINE
  8
_0-0_レイヤ___1
  6
CONTINUOUS
 62
    7
 10
432.4399995
 20
-39.017494499999941
 11
432.6899995
 21
-38.817494499999952
  0
ARC
  8
_0-0_レイヤ___1
  6
CONTINUOUS
 62
    7
 10
430.15000049999998
 20
-39.102494499999978
 40
2.5600000000000001
 50
6.4151899999999999
 51
26.363886999999998
  0
ARC
  8
_0-0_レイヤ___1
  6
CONTINUOUS
 62
    7
 10
428.84500049999997
 20
-40.742494499999964
 40
4.3849999999999998
 50
39.24313200000001
 51
60.696339000000002
  0
ARC
  8
_0-0_レイヤ___1
  6
CONTINUOUS
 62
    7
 10
428.3750005
 20
-41.63249449999995
 40
5.5650000000000004
 50
61.996577000000002
 51
91.406265000000005
  0
LINE
  8
_0-0_レイヤ___1
  6
CONTINUOUS
 62
    7
 10
428.24000050000001
 20
-36.267494499999941
 11
427.99000050000001
 21
-36.267494499999941
  0
ARC
  8
_0-0_レイヤ___1
  6
CONTINUOUS
 62
    7
 10
427.8700005
 20
-44.602494499999978
 40
8.3350000000000009
 50
89.167664999999985
 51
112.793612
  0
ARC
  8
_0-0_レイヤ___1
  6
CONTINUOUS
 62
    7
 10
425.85500050000002
 20
-39.117494499999964
 40
2.6899999999999999
 50
116.896298
 51
159.34793199999999
  0
LINE
  8
_0-0_レイヤ___1
  6
CONTINUOUS
 62
    7
 10
423.54000049999996
 20
-38.167494499999975
 11
423.54000049999996
 21
-38.817494499999952
  0
ARC
  8
_0-0_レイヤ___1
  6
CONTINUOUS
 62
    7
 10
426.32500049999999
 20
-38.522494499999993
 40
2.7999999999999998
 50
186.07835
 51
213.51943900000001
  0
LINE
  8
_0-0_レイヤ___1
  6
CONTINUOUS
 62
    7
 10
423.99000050000001
 20
-40.067494499999952
 11
424.39000049999999
 21
-40.517494499999941
  0
ARC
  8
_0-0_レイヤ___1
  6
CONTINUOUS
 62
    7
 10
427.27000049999998
 20
-37.397494499999993
 40
3.0449999999999999
 50
234.23629000000003
 51
255.62317800000002
  0
ARC
  8
_0-0_レイヤ___1
  6
CONTINUOUS
 62
    7
 10
427.90000049999998
 20
-34.857494499999973
 40
5.6600000000000001
 50
255.82679999999999
 51
270.92443300000002
  0
ARC
  8
_0-0_レイヤ___1
  6
CONTINUOUS
 62
    7
 10
427.94500049999999
 20
-36.492494499999964
 40
4.0250000000000004
 50
270.62455299999999
 51
303.01828300000005
  0
ARC
  8
_0-0_レイヤ___1
  6
CONTINUOUS
 62
    7
 10
429.22500049999996
 20
-38.002494499999955
 40
2.1749999999999998
 50
300.93259399999999
 51
355.66455300000001
  0
LINE
  8
_0-0_レイヤ___1
  6
CONTINUOUS
 62
    7
 10
431.1899995
 20
-38.367494499999964
 11
431.38999949999999
 21
-38.367494499999964
  0
ARC
  8
_0-0_レイヤ___1
  6
CONTINUOUS
 62
    7
 10
430.21500049999997
 20
-38.367494499999964
 40
1.175
 50
359.98953799999998
 51
63.529415000000057
  0
ARC
  8
_0-0_レイヤ___1
  6
CONTINUOUS
 62
    7
 10
430.32499949999999
 20
-37.422494499999971
 40
0.4299999999999999
 50
14.447939999999999
 51
66.319022000000004
  0
ARC
  8
_0-0_レイヤ___1
  6
CONTINUOUS
 62
    7
 10
430.11000050000001
 20
-37.627494499999955
 40
0.7149999999999999
 50
56.953806999999998
 51
87.470803000000004
  0
ARC
  8
_0-0_レイヤ___1
  6
CONTINUOUS
 62
    7
 10
428.78000049999997
 20
-38.982494499999973
 40
2.4750000000000001
 50
56.669525999999998
 51
80.519124000000005
  0
ARC
  8
_0-0_レイヤ___1
  6
CONTINUOUS
 62
    7
 10
428.17000050000001
 20
-43.017494499999941
 40
6.5499999999999998
 50
81.074333999999993
 51
91.589528999999999
  0
ARC
  8
_0-0_レイヤ___1
  6
CONTINUOUS
 62
    7
 10
427.53500049999997
 20
-41.102494499999978
 40
4.6600000000000001
 50
84.381241000000003
 51
116.026685
  0
ARC
  8
_0-0_レイヤ___1
  6
CONTINUOUS
 62
    7
 10
425.7450005
 20
-38.407494499999984
 40
1.5700000000000001
 50
108.69
 51
171.24945099999999
  0
LINE
  8
_0-0_レイヤ___1
  6
CONTINUOUS
 62
    7
 10
424.39000049999999
 20
-37.967494499999987
 11
424.39000049999999
 21
-38.367494499999964
  0
ARC
  8
_0-0_レイヤ___1
  6
CONTINUOUS
 62
    7
 10
425.05500050000001
 20
-38.482494499999973
 40
0.675
 50
170.012497
 51
232.06252000000001
  0
ARC
  8
_0-0_レイヤ___1
  6
CONTINUOUS
 62
    7
 10
425.43000050000001
 20
-38.937494499999957
 40
0.5949999999999999
 50
187.61592800000003
 51
233.22742099999999
  0
ARC
  8
_0-0_レイヤ___1
  6
CONTINUOUS
 62
    7
 10
426.22500049999996
 20
-37.977494499999978
 40
1.8400000000000001
 50
231.27403000000001
 51
246.43997100000001
  0
ARC
  8
_0-0_レイヤ___1
  6
CONTINUOUS
 62
    7
 10
390.8750005
 20
-17.69249549999995
 40
4.29
 50
94.502520000000004
 51
115.360291
  0
ARC
  8
_0-0_レイヤ___1
  6
CONTINUOUS
 62
    7
 10
377.64000049999999
 20
-1.3124954999999545
 40
16.774999999999999
 50
307.24128200000001
 51
312.81924700000002
  0
LINE
  8
_0-0_レイヤ___1
  6
CONTINUOUS
 62
    7
 10
390.34000049999997
 20
-14.667495499999973
 11
388.84000049999997
 21
-13.417495499999973
  0
ARC
  8
_0-0_レイヤ___1
  6
CONTINUOUS
 62
    7
 10
387.4400005
 20
-15.832495499999993
 40
2.6200000000000001
 50
57.741922999999993
 51
86.768717999999993
  0
ARC
  8
_0-0_レイヤ___1
  6
CONTINUOUS
 62
    7
 10
388.21000049999998
 20
-13.082495499999993
 40
4.1399999999999997
 50
232.49029300000001
 51
273.15792399999998
  0
ARC
  8
_0-0_レイヤ___1
  6
CONTINUOUS
 62
    7
 10
399.23000050000002
 20
16.047504500000059
 40
34.909998999999999
 50
252.33920599999999
 51
253.45536000000004
  0
ARC
  8
_0-0_レイヤ___1
  6
CONTINUOUS
 62
    7
 10
389.1900005
 20
-11.85749549999997
 40
5.5599999999999996
 50
271.030214
 51
286.73816599999998
  0
ARC
  8
_0-0_レイヤ___1
  6
CONTINUOUS
 62
    7
 10
386.5650005
 20
-3.3374954999999886
 40
14.475
 50
286.98044099999993
 51
293.95100999999994
  0
ARC
  8
_0-0_レイヤ___1
  6
CONTINUOUS
 62
    7
 10
391.83500049999998
 20
-14.437495499999955
 40
2.02
 50
287.38135299999999
 51
340.372052
  0
LINE
  8
_0-0_レイヤ___1
  6
CONTINUOUS
 62
    7
 10
393.74000050000001
 20
-14.917495499999973
 11
393.9400005
 21
-14.667495499999973
  0
ARC
  8
_0-0_レイヤ___1
  6
CONTINUOUS
 62
    7
 10
392.25500049999999
 20
-14.73249549999997
 40
1.6899999999999999
 50
2.138112
 51
30.557623
  0
ARC
  8
_0-0_レイヤ___1
  6
CONTINUOUS
 62
    7
 10
391.11500050000001
 20
-15.392495499999939
 40
3.0049999999999999
 50
30.371199000000001
 51
53.775961000000002
  0
ARC
  8
_0-0_レイヤ___1
  6
CONTINUOUS
 62
    7
 10
392.3750005
 20
-13.332495499999993
 40
0.53
 50
12.516233999999999
 51
58.916327999999993
  0
ARC
  8
_0-0_レイヤ___1
  6
CONTINUOUS
 62
    7
 10
389.95500049999998
 20
-15.97249549999998
 40
4.0999999999999996
 50
48.976756999999999
 51
56.134597000000007
  0
ARC
  8
_0-0_レイヤ___1
  6
CONTINUOUS
 62
    7
 10
389.46000049999998
 20
-18.392495499999939
 40
6.2750000000000004
 50
63.684201000000002
 51
89.718641000000019
  0
LINE
  8
_0-0_レイヤ___1
  6
CONTINUOUS
 62
    7
 10
389.49000050000001
 20
-11.917495499999973
 11
389.29000049999996
 21
-11.917495499999973
  0
ARC
  8
_0-0_レイヤ___1
  6
CONTINUOUS
 62
    7
 10
389.14000049999999
 20
-20.362495499999966
 40
8.4450000000000003
 50
88.996639000000002
 51
112.64936100000001
  0
ARC
  8
_0-0_レイヤ___1
  6
CONTINUOUS
 62
    7
 10
386.42500050000001
 20
-14.532495499999982
 40
1.845
 50
106.902101
 51
165.34447399999996
  0
LINE
  8
_0-0_レイヤ___1
  6
CONTINUOUS
 62
    7
 10
384.64000049999999
 20
-14.06749549999995
 11
384.64000049999999
 21
-14.667495499999973
  0
ARC
  8
_0-0_レイヤ___1
  6
CONTINUOUS
 62
    7
 10
387.67500050000001
 20
-14.447495499999945
 40
3.0449999999999999
 50
184.19065599999999
 51
210.01483800000003
  0
LINE
  8
_0-0_レイヤ___1
  6
CONTINUOUS
 62
    7
 10
385.04000049999996
 20
-15.967495499999984
 11
385.4400005
 21
-16.367495499999961
  0
ARC
  8
_0-0_レイヤ___1
  6
CONTINUOUS
 62
    7
 10
388.66500049999996
 20
-12.897495499999991
 40
3.415
 50
235.72282099999998
 51
256.49846099999996
  0
ARC
  8
_0-0_レイヤ___1
  6
CONTINUOUS
 62
    7
 10
389.19500049999999
 20
-10.492495499999961
 40
5.875
 50
256.93621300000001
 51
270.933786
  0
ARC
  8
_0-0_レイヤ___1
  6
CONTINUOUS
 62
    7
 10
389.21000049999998
 20
-12.397495499999991
 40
3.9700000000000002
 50
271.12448699999999
 51
303.27261099999998
  0
ARC
  8
_0-0_レイヤ___1
  6
CONTINUOUS
 62
    7
 10
390.36500050000001
 20
-14.037495499999977
 40
2.2850000000000001
 50
302.39158200000008
 51
354.20556500000004
  0
LINE
  8
_0-0_レイヤ___1
  6
CONTINUOUS
 62
    7
 10
392.4400005
 20
-14.267495499999939
 11
392.64000049999999
 21
-14.267495499999939
  0
ARC
  8
_0-0_レイヤ___1
  6
CONTINUOUS
 62
    7
 10
391.47500049999996
 20
-14.237495499999966
 40
1.165
 50
358.52987899999999
 51
60.959878000000003
  0
ARC
  8
_0-0_レイヤ___1
  6
CONTINUOUS
 62
    7
 10
391.61000050000001
 20
-13.297495499999968
 40
0.44
 50
10.841362999999999
 51
63.813372000000001
  0
ARC
  8
_0-0_レイヤ___1
  6
CONTINUOUS
 62
    7
 10
391.33000049999998
 20
-13.622495499999957
 40
0.8549999999999999
 50
56.672431000000003
 51
86.119906
  0
ARC
  8
_0-0_レイヤ___1
  6
CONTINUOUS
 62
    7
 10
390.03000049999997
 20
-15.132495499999948
 40
2.73
 50
60.054916000000006
 51
82.370515999999995
  0
ARC
  8
_0-0_レイヤ___1
  6
CONTINUOUS
 62
    7
 10
389.42500050000001
 20
-19.97249549999998
 40
7.6050000000000004
 50
82.725999999999999
 51
91.035056999999995
  0
ARC
  8
_0-0_レイヤ___1
  6
CONTINUOUS
 62
    7
 10
388.83000049999998
 20
-17.757495499999948
 40
5.4100000000000001
 50
85.112637000000007
 51
112.717195
  0
ARC
  8
_0-0_レイヤ___1
  6
CONTINUOUS
 62
    7
 10
386.88500049999999
 20
-14.017495499999939
 40
1.3
 50
105.42997300000002
 51
140.78621900000002
  0
ARC
  8
_0-0_レイヤ___1
  6
CONTINUOUS
 62
    7
 10
388.32500049999999
 20
-14.977495499999975
 40
3.0249999999999999
 50
143.932368
 51
162.459765
  0
LINE
  8
_0-0_レイヤ___1
  6
CONTINUOUS
 62
    7
 10
385.6900005
 20
-13.81749549999995
 11
385.6900005
 21
-14.267495499999939
  0
ARC
  8
_0-0_レイヤ___1
  6
CONTINUOUS
 62
    7
 10
386.58000049999998
 20
-14.352495499999975
 40
0.89
 50
174.68690799999999
 51
219.51854599999999
  0
ARC
  8
_0-0_レイヤ___1
  6
CONTINUOUS
 62
    7
 10
386.60500050000002
 20
-15.047495499999968
 40
0.52
 50
187.876935
 51
237.38758000000001
  0
ARC
  8
_0-0_レイヤ___1
  6
CONTINUOUS
 62
    7
 10
387.69500049999999
 20
-13.537495499999977
 40
2.3799999999999999
 50
234.83544300000003
 51
246.35685899999999
  0
ARC
  8
_0-0_レイヤ___1
  6
CONTINUOUS
 62
    7
 10
636.26999649999993
 20
-124.63749349999995
 40
65.074999000000005
 50
132.57587899999999
 51
159.940718
  0
LINE
  8
_0-0_レイヤ___1
  6
CONTINUOUS
 62
    7
 10
559.4399985
 20
-133.86749349999997
 11
559.23999849999996
 21
-131.51749349999994
  0
ARC
  8
_0-0_レイヤ___1
  6
CONTINUOUS
 62
    7
 10
589.32499749999988
 20
-131.21249349999994
 40
29.885000000000002
 50
146.72318100000001
 51
180.19717499999999
  0
ARC
  8
_0-0_レイヤ___1
  6
CONTINUOUS
 62
    7
 10
598.67499750000002
 20
-136.57249349999995
 40
40.749999000000003
 50
127.90083899999999
 51
148.06500700000001
  0
ARC
  8
_0-0_レイヤ___1
  6
CONTINUOUS
 62
    7
 10
644.17999650000002
 20
-130.80749349999996
 40
33.115000000000002
 50
321.06634000000003
 51
347.33589999999998
  0
ARC
  8
_0-0_レイヤ___1
  6
CONTINUOUS
 62
    7
 10
624.72499749999997
 20
-112.72249349999998
 40
59.644998999999999
 50
306.00877700000001
 51
315.52365500000002
  0
ARC
  8
_0-0_レイヤ___1
  6
CONTINUOUS
 62
    7
 10
640.7149965000001
 20
-128.97749349999998
 40
36.844999000000001
 50
316.13820399999997
 51
322.47811100000001
  0
ARC
  8
_0-0_レイヤ___1
  6
CONTINUOUS
 62
    7
 10
623.88499750000005
 20
-107.65249349999999
 40
64.389999000000003
 50
285.77543200000002
 51
304.10650299999998
  0
ARC
  8
_0-0_レイヤ___1
  6
CONTINUOUS
 62
    7
 10
617.88499750000005
 20
-172.86249249999997
 40
0.2099999999999999
 50
12.317208000000003
 51
225.38958
  0
ARC
  8
_0-0_レイヤ___1
  6
CONTINUOUS
 62
    7
 10
618.3349975000001
 20
-158.36749349999997
 40
14.654999999999999
 50
267.66663400000004
 51
271.58100999999999
  0
ARC
  8
_0-0_レイヤ___1
  6
CONTINUOUS
 62
    7
 10
618.49499749999995
 20
-95.907493499999987
 40
77.109999000000002
 50
270.18310300000002
 51
287.07851899999997
  0
ARC
  8
_0-0_レイヤ___1
  6
CONTINUOUS
 62
    7
 10
618.73499749999996
 20
-91.637493499999948
 40
81.384998999999993
 50
246.85088400000001
 51
269.54688399999998
  0
ARC
  8
_0-0_レイヤ___1
  6
CONTINUOUS
 62
    7
 10
608.91499750000003
 20
-115.22249349999998
 40
55.839998999999999
 50
229.95379500000001
 51
246.59902600000001
  0
ARC
  8
_0-0_レイヤ___1
  6
CONTINUOUS
 62
    7
 10
602.27999750000004
 20
-123.29249349999998
 40
45.539999000000002
 50
209.49890099999999
 51
229.97633899999997
  0
ARC
  8
_0-0_レイヤ___1
  6
CONTINUOUS
 62
    7
 10
598.1799974999999
 20
-128.88249349999995
 40
39.144998999999999
 50
191.99227800000003
 51
205.46934500000003
  0
ARC
  8
_0-0_レイヤ___1
  6
CONTINUOUS
 62
    7
 10
637.23499650000008
 20
-137.03749349999998
 40
41.839998999999999
 50
32.074325999999999
 51
51.660733999999998
  0
ARC
  8
_0-0_レイヤ___1
  6
CONTINUOUS
 62
    7
 10
645.76499650000005
 20
-131.45249349999995
 40
31.375
 50
0.25105
 51
31.593306999999999
  0
ARC
  8
_0-0_レイヤ___1
  6
CONTINUOUS
 62
    7
 10
659.28499650000003
 20
-131.09249349999999
 40
18.260000000000002
 50
347.91067099999998
 51
358.66965699999997
  0
LINE
  8
_0-0_レイヤ___1
  6
CONTINUOUS
 62
    7
 10
677.53999649999992
 20
-131.51749349999994
 11
677.53999649999992
 21
-131.31749349999996
  0
ARC
  8
_0-0_レイヤ___1
  6
CONTINUOUS
 62
    7
 10
606.14999749999993
 20
-120.93249349999996
 40
58.654998999999997
 50
27.260412999999996
 51
41.356732000000001
  0
ARC
  8
_0-0_レイヤ___1
  6
CONTINUOUS
 62
    7
 10
589.81499749999989
 20
-134.32249349999995
 40
79.764999000000003
 50
40.823115999999999
 51
46.234625999999999
  0
ARC
  8
_0-0_レイヤ___1
  6
CONTINUOUS
 62
    7
 10
623.82999749999999
 20
-116.52749349999999
 40
40.979998999999999
 50
19.992939
 51
25.746984999999999
  0
ARC
  8
_0-0_レイヤ___1
  6
CONTINUOUS
 62
    7
 10
466.13499949999999
 20
-193.84249249999993
 40
216.604997
 50
26.046911999999999
 51
27.486619000000001
  0
LINE
  8
_0-0_レイヤ___1
  6
CONTINUOUS
 62
    7
 10
850.08999349999999
 20
37.18250450000005
 11
839.48999350000008
 21
43.532503500000018
  0
LINE
  8
_0-0_レイヤ___1
  6
CONTINUOUS
 62
    7
 10
533.1899985
 20
-35.867494499999964
 11
512.6899985
 21
-24.417495499999973
  0
ARC
  8
_0-0_レイヤ___1
  6
CONTINUOUS
 62
    7
 10
511.51499849999999
 20
-25.417494499999975
 40
1.365
 50
47.201712000000001
 51
79.379785999999996
  0
ARC
  8
_0-0_レイヤ___1
  6
CONTINUOUS
 62
    7
 10
511.07999850000004
 20
-27.862494499999968
 40
3.8500000000000001
 50
79.778766000000005
 51
91.36215
  0
LINE
  8
_0-0_レイヤ___1
  6
CONTINUOUS
 62
    7
 10
510.98999850000001
 20
-24.017495499999939
 11
510.53999849999997
 21
-24.017495499999939
  0
ARC
  8
_0-0_レイヤ___1
  6
CONTINUOUS
 62
    7
 10
510.26999849999999
 20
-25.902494499999989
 40
1.8899999999999999
 50
87.916956999999996
 51
137.041887
  0
ARC
  8
_0-0_レイヤ___1
  6
CONTINUOUS
 62
    7
 10
508.90499849999998
 20
-25.082494499999939
 40
0.465
 50
91.913003999999987
 51
178.08696599999999
  0
ARC
  8
_0-0_レイヤ___1
  6
CONTINUOUS
 62
    7
 10
510.21999850000003
 20
-26.722494499999982
 40
2.4300000000000002
 50
137.09396999999998
 51
181.05703099999997
  0
LINE
  8
_0-0_レイヤ___1
  6
CONTINUOUS
 62
    7
 10
507.78999849999997
 20
-26.767494499999941
 11
507.78999849999997
 21
-26.967494499999987
  0
ARC
  8
_0-0_レイヤ___1
  6
CONTINUOUS
 62
    7
 10
511.35999850000002
 20
-26.962494499999991
 40
3.5699999999999998
 50
180.10044099999999
 51
230.50235000000001
  0
LINE
  8
_0-0_レイヤ___1
  6
CONTINUOUS
 62
    7
 10
509.28999849999997
 20
-29.917494499999975
 11
528.98999849999996
 21
-40.917494499999975
  0
LINE
  8
_0-0_レイヤ___1
  6
CONTINUOUS
 62
    7
 10
512.6899985
 20
-24.417495499999973
 11
568.13999749999994
 21
-55.117494499999964
  0
LINE
  8
_0-0_レイヤ___1
  6
CONTINUOUS
 62
    7
 10
509.28999849999997
 20
-29.917494499999975
 11
562.83999850000009
 21
-59.767494499999941
  0
LINE
  8
_0-0_レイヤ___1
  6
CONTINUOUS
 62
    7
 10
708.48999550000008
 20
197.63250149999999
 11
741.6899954999999
 21
255.83250050000004
  0
LINE
  8
_0-0_レイヤ___1
  6
CONTINUOUS
 62
    7
 10
614.68999749999989
 20
73.182503500000053
 11
395.1900005
 21
200.38250149999999
  0
LINE
  8
_0-0_レイヤ___1
  6
CONTINUOUS
 62
    7
 10
395.1900005
 20
200.38250149999999
 11
559.23999849999996
 21
295.18250050000006
  0
LINE
  8
_0-0_レイヤ___1
  6
CONTINUOUS
 62
    7
 10
617.23999750000007
 20
-80.067494499999952
 11
617.23999750000007
 21
68.282503500000018
  0
LINE
  8
_0-0_レイヤ___1
  6
CONTINUOUS
 62
    7
 10
394.99000050000001
 20
41.832504500000027
 11
394.99000050000001
 21
200.18250150000006
  0
LINE
  8
_0-0_レイヤ___1
  6
CONTINUOUS
 62
    7
 10
596.28999750000003
 20
235.08250150000003
 11
561.13999850000005
 21
296.03250050000008
  0
LINE
  8
_0-0_レイヤ___1
  6
CONTINUOUS
 62
    7
 10
561.13999850000005
 20
296.03250050000008
 11
559.6899985
 21
295.18250050000006
  0
LINE
  8
_0-0_レイヤ___1
  6
CONTINUOUS
 62
    7
 10
559.6899985
 20
295.18250050000006
 11
561.78999849999991
 21
298.58250050000004
  0
LINE
  8
_0-0_レイヤ___1
  6
CONTINUOUS
 62
    7
 10
561.78999849999991
 20
298.58250050000004
 11
596.68999749999989
 21
237.63250149999999
  0
LINE
  8
_0-0_レイヤ___1
  6
CONTINUOUS
 62
    7
 10
595.43999749999989
 20
317.63249949999999
 11
561.78999849999991
 21
298.38250049999999
  0
LINE
  8
_0-0_レイヤ___1
  6
CONTINUOUS
 62
    7
 10
844.98999350000008
 20
-1.1174954999999613
 11
844.98999350000008
 21
31.032504500000016
  0
ARC
  8
_0-0_レイヤ___1
  6
CONTINUOUS
 62
    7
 10
832.00499450000007
 20
29.497504500000048
 40
13.1
 50
7.6169159999999998
 51
22.134444999999999
  0
ARC
  8
_0-0_レイヤ___1
  6
CONTINUOUS
 62
    7
 10
835.65999349999993
 20
30.047504500000059
 40
9.6349999999999998
 50
25.750482999999999
 51
37.652369999999991
  0
ARC
  8
_0-0_レイヤ___1
  6
CONTINUOUS
 62
    7
 10
855.54499349999992
 20
44.95750350000003
 40
15.220000000000001
 50
203.53152900000001
 51
216.37572
  0
LINE
  8
_0-0_レイヤ___1
  6
CONTINUOUS
 62
    7
 10
841.83999349999999
 20
38.68250450000005
 11
842.4399934999999
 21
198.03250150000008
  0
ARC
  8
_0-0_レイヤ___1
  6
CONTINUOUS
 62
    7
 10
842.4399934999999
 20
198.48250150000001
 40
0.25
 50
270.05407600000001
 51
359.94593400000002
  0
ARC
  8
_0-0_レイヤ___1
  6
CONTINUOUS
 62
    7
 10
838.45999349999988
 20
198.27250150000009
 40
4.2350000000000003
 50
2.8400200000000004
 51
26.812936000000001
  0
ARC
  8
_0-0_レイヤ___1
  6
CONTINUOUS
 62
    7
 10
840.63499350000006
 20
199.42750150000006
 40
1.7749999999999999
 50
25.198333999999996
 51
64.80165599999998
  0
ARC
  8
_0-0_レイヤ___1
  6
CONTINUOUS
 62
    7
 10
838.88999349999995
 20
199.30250150000006
 40
3.04
 50
34.676251999999998
 51
78.642320000000012
  0
LINE
  8
_0-0_レイヤ___1
  6
CONTINUOUS
 62
    7
 10
839.88999349999995
 20
202.08250150000003
 11
637.78999649999992
 21
318.88249949999999
  0
LINE
  8
_0-0_レイヤ___1
  6
CONTINUOUS
 62
    7
 10
637.3399965000001
 20
274.43250050000006
 11
637.3399965000001
 21
388.33249850000004
  0
LINE
  8
_0-0_レイヤ___1
  6
CONTINUOUS
 62
    7
 10
595.83999749999998
 20
203.13250149999999
 11
595.83999749999998
 21
388.1324985
  0
LINE
  8
_0-0_レイヤ___1
  6
CONTINUOUS
 62
    7
 10
838.83999349999999
 20
199.08250150000003
 11
620.83999749999998
 21
73.982503500000007
  0
LINE
  8
_0-0_レイヤ___1
  6
CONTINUOUS
 62
    7
 10
662.0899965000001
 20
-104.61749349999997
 11
622.08999749999998
 21
-126.86749349999997
  0
LINE
  8
_0-0_レイヤ___1
  6
CONTINUOUS
 62
    7
 10
820.23999449999997
 20
-17.017495499999939
 11
664.03999649999992
 21
-103.56749349999996
  0
LINE
  8
_0-0_レイヤ___1
  6
CONTINUOUS
 62
    7
 10
840.98999350000008
 20
-5.56749549999995
 11
822.53999449999992
 21
-15.717495499999984
  0
LINE
  8
_0-0_レイヤ___1
  6
CONTINUOUS
 62
    7
 10
638.18999650000001
 20
235.93250150000006
 11
638.18999650000001
 21
277.43250050000006
  0
LINE
  8
_0-0_レイヤ___1
  6
CONTINUOUS
 62
    7
 10
638.18999650000001
 20
233.18250150000006
 11
638.18999650000001
 21
235.93250150000006
  0
LINE
  8
_0-0_レイヤ___1
  6
CONTINUOUS
 62
    7
 10
638.18999650000001
 20
226.83250150000003
 11
638.18999650000001
 21
233.18250150000006
  0
LINE
  8
_0-0_レイヤ___1
  6
CONTINUOUS
 62
    7
 10
638.18999650000001
 20
226.83250150000003
 11
638.18999650000001
 21
224.08250150000003
  0
LINE
  8
_0-0_レイヤ___1
  6
CONTINUOUS
 62
    7
 10
638.18999650000001
 20
224.08250150000003
 11
638.38999650000005
 21
206.93250150000006
  0
ARC
  8
_0-0_レイヤ___1
  6
CONTINUOUS
 62
    7
 10
616.99499749999995
 20
293.28250050000008
 40
29.045000000000002
 50
280.60049700000002
 51
299.82005700000002
  0
ARC
  8
_0-0_レイヤ___1
  6
CONTINUOUS
 62
    7
 10
625.36499750000007
 20
279.54250050000007
 40
12.845000000000001
 50
299.232281
 51
328.249638
  0
ARC
  8
_0-0_レイヤ___1
  6
CONTINUOUS
 62
    7
 10
617.51999750000004
 20
281.68250050000006
 40
20.954999999999998
 50
334.86480599999993
 51
341.06274499999995
  0
LINE
  8
_0-0_レイヤ___1
  6
CONTINUOUS
 62
    7
 10
637.3399965000001
 20
274.43250050000006
 11
637.53999649999992
 21
274.43250050000006
  0
ARC
  8
_0-0_レイヤ___1
  6
CONTINUOUS
 62
    7
 10
627.23499749999996
 20
277.96250050000003
 40
10.755000000000001
 50
343.35346799999996
 51
359.30018599999994
  0
LINE
  8
_0-0_レイヤ___1
  6
CONTINUOUS
 62
    7
 10
623.38999749999994
 20
264.53250050000008
 11
622.33999749999998
 21
265.58250050000004
  0
LINE
  8
_0-0_レイヤ___1
  6
CONTINUOUS
 62
    7
 10
622.33999749999998
 20
265.58250050000004
 11
622.33999749999998
 21
194.03250150000008
  0
ARC
  8
_0-0_レイヤ___1
  6
CONTINUOUS
 62
    7
 10
617.40499750000004
 20
291.95250050000004
 40
26.745000000000001
 50
279.65605000000005
 51
301.65317399999998
  0
ARC
  8
_0-0_レイヤ___1
  6
CONTINUOUS
 62
    7
 10
622.01999750000004
 20
282.8775005
 40
16.690000000000001
 50
303.33680700000002
 51
319.93028199999998
  0
ARC
  8
_0-0_レイヤ___1
  6
CONTINUOUS
 62
    7
 10
625.26999750000004
 20
280.2475005
 40
12.699999999999999
 50
320.29972900000007
 51
339.18740300000007
  0
ARC
  8
_0-0_レイヤ___1
  6
CONTINUOUS
 62
    7
 10
636.20999649999999
 20
276.28250050000008
 40
0.91
 50
322.93733199999997
 51
358.77822399999997
  0
ARC
  8
_0-0_レイヤ___1
  6
CONTINUOUS
 62
    7
 10
634.31999649999989
 20
276.60750050000001
 40
2.8300000000000001
 50
352.97723999999999
 51
3.5240830000000303
  0
LINE
  8
_0-0_レイヤ___1
  6
CONTINUOUS
 62
    7
 10
637.3399965000001
 20
276.38250049999999
 11
637.78999649999992
 21
278.48250050000001
  0
LINE
  8
_0-0_レイヤ___1
  6
CONTINUOUS
 62
    7
 10
637.78999649999992
 20
278.48250050000001
 11
638.18999650000001
 21
277.43250050000006
  0
ARC
  8
_0-0_レイヤ___1
  6
CONTINUOUS
 62
    7
 10
631.50499749999994
 20
277.99250050000001
 40
6.71
 50
330.43602499999992
 51
355.21217099999996
  0
LINE
  8
_0-0_レイヤ___1
  6
CONTINUOUS
 62
    7
 10
638.18999650000001
 20
277.43250050000006
 11
638.18999650000001
 21
277.63250049999999
  0
ARC
  8
_0-0_レイヤ___1
  6
CONTINUOUS
 62
    7
 10
625.26499749999994
 20
279.99250050000001
 40
13.375
 50
311.85686699999997
 51
336.602913
  0
ARC
  8
_0-0_レイヤ___1
  6
CONTINUOUS
 62
    7
 10
626.32499749999988
 20
277.59750050000002
 40
11
 50
300.09679399999999
 51
310.55127199999998
  0
ARC
  8
_0-0_レイヤ___1
  6
CONTINUOUS
 62
    7
 10
669.26499650000005
 20
222.71750150000003
 40
58.694999000000003
 50
126.69278700000001
 51
127.56773600000001
  0
ARC
  8
_0-0_レイヤ___1
  6
CONTINUOUS
 62
    7
 10
618.1949975
 20
289.66250050000008
 40
25.43
 50
281.329588
 51
301.922099
  0
LINE
  8
_0-0_レイヤ___1
  6
CONTINUOUS
 62
    7
 10
623.38999749999994
 20
264.73250050000001
 11
622.33999749999998
 21
265.58250050000004
  0
LINE
  8
_0-0_レイヤ___1
  6
CONTINUOUS
 62
    7
 10
998.23999150000009
 20
-3.4674954999999841
 11
617.03999750000003
 21
-222.5174925
  0
LINE
  8
_0-0_レイヤ___1
  6
CONTINUOUS
 62
    7
 10
617.03999750000003
 20
-225.06749249999996
 11
617.03999750000003
 21
-222.5174925
  0
LINE
  8
_0-0_レイヤ___1
  6
CONTINUOUS
 62
    7
 10
617.03999750000003
 20
-225.06749249999996
 11
998.23999150000009
 21
-5.7674954999999386
  0
LINE
  8
_0-0_レイヤ___1
  6
CONTINUOUS
 62
    7
 10
998.23999150000009
 20
-5.7674954999999386
 11
998.23999150000009
 21
-3.4674954999999841
  0
LINE
  8
_0-0_レイヤ___1
  6
CONTINUOUS
 62
    7
 10
483.03999949999996
 20
-144.66749349999998
 11
617.03999750000003
 21
-222.5174925
  0
LINE
  8
_0-0_レイヤ___1
  6
CONTINUOUS
 62
    7
 10
617.03999750000003
 20
-225.06749249999996
 11
617.03999750000003
 21
-222.5174925
  0
LINE
  8
_0-0_レイヤ___1
  6
CONTINUOUS
 62
    7
 10
617.03999750000003
 20
-225.06749249999996
 11
483.03999949999996
 21
-147.16749349999998
  0
LINE
  8
_0-0_レイヤ___1
  6
CONTINUOUS
 62
    7
 10
483.03999949999996
 20
-147.16749349999998
 11
483.03999949999996
 21
-144.66749349999998
  0
LINE
  8
_0-0_レイヤ___1
  6
CONTINUOUS
 62
    7
 10
998.63999149999995
 20
-3.4674954999999841
 11
843.28999350000004
 21
85.632503500000041
  0
LINE
  8
_0-0_レイヤ___1
  6
CONTINUOUS
 62
    7
 10
394.79000049999996
 20
45.432503500000053
 11
358.14000149999998
 21
24.282504500000016
  0
LINE
  8
_0-0_レイヤ___1
  6
CONTINUOUS
 62
    7
 10
358.14000149999998
 20
24.282504500000016
 11
359.24000150000001
 21
24.282504500000016
  0
LINE
  8
_0-0_レイヤ___1
  6
CONTINUOUS
 62
    7
 10
359.24000150000001
 20
24.282504500000016
 11
392.24000050000001
 21
5.2325045000000614
  0
LINE
  8
_0-0_レイヤ___1
  6
CONTINUOUS
 62
    7
 10
375.49000050000001
 20
13.482504500000061
 11
392.24000050000001
 21
3.93250450000005
  0
LINE
  8
_0-0_レイヤ___1
  6
CONTINUOUS
 62
    7
 10
392.24000050000001
 20
3.93250450000005
 11
392.4400005
 21
3.93250450000005
  0
ARC
  8
_0-0_レイヤ___1
  6
CONTINUOUS
 62
    7
 10
393.35000049999996
 20
3.7975045000000591
 40
0.92
 50
140.532554
 51
171.54243399999999
  0
ARC
  8
_0-0_レイヤ___1
  6
CONTINUOUS
 62
    7
 10
391.61000050000001
 20
4.4175045000000068
 40
1.03
 50
358.08417200000002
 51
37.96305000000001
  0
ARC
  8
_0-0_レイヤ___1
  6
CONTINUOUS
 62
    7
 10
392.03500049999997
 20
4.7325045000000614
 40
0.5
 50
39.348008999999998
 51
89.635391999999996
  0
LINE
  8
_0-0_レイヤ___1
  6
CONTINUOUS
 62
    7
 10
392.24000050000001
 20
4.9825045000000614
 11
375.49000050000001
 21
14.732504500000061
  0
LINE
  8
_0-0_レイヤ___1
  6
CONTINUOUS
 62
    7
 10
375.49000050000001
 20
14.732504500000061
 11
358.99000150000001
 21
24.282504500000016
  0
ARC
  8
_0-0_レイヤ___1
  6
CONTINUOUS
 62
    7
 10
358.42000150000001
 20
23.882504500000039
 40
0.62
 50
73.950854000000007
 51
140.25458000000003
  0
LINE
  8
_0-0_レイヤ___1
  6
CONTINUOUS
 62
    7
 10
357.94000149999999
 20
24.282504500000016
 11
357.94000149999999
 21
23.632504500000039
  0
LINE
  8
_0-0_レイヤ___1
  6
CONTINUOUS
 62
    7
 10
357.94000149999999
 20
23.632504500000039
 11
357.94000149999999
 21
23.43250450000005
  0
ARC
  8
_0-0_レイヤ___1
  6
CONTINUOUS
 62
    7
 10
361.07500149999998
 20
23.442504500000041
 40
3.1349999999999998
 50
180.19402699999998
 51
217.57818399999996
  0
LINE
  8
_0-0_レイヤ___1
  6
CONTINUOUS
 62
    7
 10
358.99000150000001
 20
21.282504500000016
 11
363.4400005
 21
19.382504500000039
  0
LINE
  8
_0-0_レイヤ___1
  6
CONTINUOUS
 62
    7
 10
363.4400005
 20
19.382504500000039
 11
363.4400005
 21
20.43250450000005
  0
LINE
  8
_0-0_レイヤ___1
  6
CONTINUOUS
 62
    7
 10
363.4400005
 20
20.43250450000005
 11
358.99000150000001
 21
22.382504500000039
  0
LINE
  8
_0-0_レイヤ___1
  6
CONTINUOUS
 62
    7
 10
358.79000150000002
 20
23.18250450000005
 11
358.79000150000002
 21
22.982504500000061
  0
LINE
  8
_0-0_レイヤ___1
  6
CONTINUOUS
 62
    7
 10
358.79000150000002
 20
22.982504500000061
 11
358.79000150000002
 21
22.782504500000016
  0
LINE
  8
_0-0_レイヤ___1
  6
CONTINUOUS
 62
    7
 10
358.79000150000002
 20
22.982504500000061
 11
358.99000150000001
 21
23.18250450000005
  0
LINE
  8
_0-0_レイヤ___1
  6
CONTINUOUS
 62
    7
 10
358.99000150000001
 20
23.18250450000005
 11
375.49000050000001
 21
13.482504500000061
  0
LINE
  8
_0-0_レイヤ___1
  6
CONTINUOUS
 62
    7
 10
416.59000049999997
 20
-51.717494499999987
 11
361.14000149999998
 21
-19.117495499999961
  0
LINE
  8
_0-0_レイヤ___1
  6
CONTINUOUS
 62
    7
 10
493.38999949999999
 20
-97.217493499999989
 11
429.29000049999996
 21
-59.117494499999964
  0
LINE
  8
_0-0_レイヤ___1
  6
CONTINUOUS
 62
    7
 10
553.53999849999991
 20
-132.56749349999996
 11
530.03999849999991
 21
-118.61749349999997
  0
LINE
  8
_0-0_レイヤ___1
  6
CONTINUOUS
 62
    7
 10
613.63999749999994
 20
-81.167494499999975
 11
570.68999749999989
 21
-56.367494499999964
  0
LINE
  8
_0-0_レイヤ___1
  6
CONTINUOUS
 62
    7
 10
428.24000050000001
 20
-61.267494499999941
 11
491.93999949999994
 21
-98.517493499999944
  0
LINE
  8
_0-0_レイヤ___1
  6
CONTINUOUS
 62
    7
 10
415.74000050000001
 20
-53.817494499999952
 11
428.24000050000001
 21
-61.267494499999941
  0
LINE
  8
_0-0_レイヤ___1
  6
CONTINUOUS
 62
    7
 10
452.33999950000003
 20
7.5325045000000159
 11
393.9400005
 21
42.032504500000016
  0
ARC
  8
_0-0_レイヤ___1
  6
CONTINUOUS
 62
    7
 10
393.41500049999996
 20
41.697504500000036
 40
0.54
 50
81.830950000000001
 51
165.54915800000001
  0
LINE
  8
_0-0_レイヤ___1
  6
CONTINUOUS
 62
    7
 10
392.4400005
 20
41.832504500000027
 11
392.4400005
 21
40.782504500000016
  0
LINE
  8
_0-0_レイヤ___1
  6
CONTINUOUS
 62
    7
 10
392.64000049999999
 20
4.5825045000000273
 11
392.64000049999999
 21
40.332504500000027
  0
ARC
  8
_0-0_レイヤ___1
  6
CONTINUOUS
 62
    7
 10
388.29000049999996
 20
4.4375045000000455
 40
4.3499999999999996
 50
329.53909800000008
 51
359.27528300000006
  0
LINE
  8
_0-0_レイヤ___1
  6
CONTINUOUS
 62
    7
 10
392.64000049999999
 20
4.3825045000000387
 11
392.64000049999999
 21
4.5825045000000273
  0
ARC
  8
_0-0_レイヤ___1
  6
CONTINUOUS
 62
    7
 10
386.97500049999996
 20
6.4475045000000364
 40
6.5899999999999999
 50
309.76770299999998
 51
320.23230699999999
  0
LINE
  8
_0-0_レイヤ___1
  6
CONTINUOUS
 62
    7
 10
391.39000049999999
 20
1.3825045000000387
 11
359.64000149999998
 21
-16.81749549999995
  0
ARC
  8
_0-0_レイヤ___1
  6
CONTINUOUS
 62
    7
 10
362.15000149999997
 20
-21.122495499999957
 40
5.0899999999999999
 50
122.199271
 51
145.858656
  0
LINE
  8
_0-0_レイヤ___1
  6
CONTINUOUS
 62
    7
 10
357.94000149999999
 20
-18.267495499999939
 11
357.94000149999999
 21
-19.117495499999961
  0
LINE
  8
_0-0_レイヤ___1
  6
CONTINUOUS
 62
    7
 10
357.94000149999999
 20
-19.117495499999961
 11
357.94000149999999
 21
-19.56749549999995
  0
LINE
  8
_0-0_レイヤ___1
  6
CONTINUOUS
 62
    7
 10
358.14000149999998
 20
-19.967495499999984
 11
415.09000049999997
 21
-53.617494499999964
  0
LINE
  8
_0-0_レイヤ___1
  6
CONTINUOUS
 62
    7
 10
464.83999950000003
 20
0.3325045000000272
 11
453.18999949999994
 21
7.1325045000000387
  0
LINE
  8
_0-0_レイヤ___1
  6
CONTINUOUS
 62
    7
 10
457.23999950000001
 20
5.6325045000000387
 11
456.78999949999996
 21
5.6325045000000387
  0
LINE
  8
_0-0_レイヤ___1
  6
CONTINUOUS
 62
    7
 10
456.78999949999996
 20
5.6325045000000387
 11
456.58999950000003
 21
5.6325045000000387
  0
LINE
  8
_0-0_レイヤ___1
  6
CONTINUOUS
 62
    7
 10
456.58999950000003
 20
5.43250450000005
 11
456.38999949999999
 21
5.43250450000005
  0
ARC
  8
_0-0_レイヤ___1
  6
CONTINUOUS
 62
    7
 10
456.57499950000005
 20
5.0375045000000114
 40
0.44
 50
114.936733
 51
186.95406500000001
  0
LINE
  8
_0-0_レイヤ___1
  6
CONTINUOUS
 62
    7
 10
455.93999949999994
 20
4.9825045000000614
 11
455.93999949999994
 21
3.93250450000005
  0
LINE
  8
_0-0_レイヤ___1
  6
CONTINUOUS
 62
    7
 10
455.93999949999994
 20
3.5325045000000159
 11
456.13999949999999
 21
0.7825045000000159
  0
LINE
  8
_0-0_レイヤ___1
  6
CONTINUOUS
 62
    7
 10
456.13999949999999
 20
-32.867494499999964
 11
456.13999949999999
 21
0.7825045000000159
  0
ARC
  8
_0-0_レイヤ___1
  6
CONTINUOUS
 62
    7
 10
450.18499949999995
 20
-32.792494499999975
 40
5.96
 50
333.88023299999998
 51
356.87802199999999
  0
LINE
  8
_0-0_レイヤ___1
  6
CONTINUOUS
 62
    7
 10
456.13999949999999
 20
-33.117494499999964
 11
456.13999949999999
 21
-32.867494499999964
  0
ARC
  8
_0-0_レイヤ___1
  6
CONTINUOUS
 62
    7
 10
454.42499949999996
 20
-35.222494499999982
 40
0.885
 50
287.36371400000002
 51
347.21751499999999
  0
LINE
  8
_0-0_レイヤ___1
  6
CONTINUOUS
 62
    7
 10
454.88999949999999
 20
-36.267494499999941
 11
447.28999949999996
 21
-40.917494499999975
  0
LINE
  8
_0-0_レイヤ___1
  6
CONTINUOUS
 62
    7
 10
447.28999949999996
 20
-40.917494499999975
 11
439.63999949999999
 21
-45.567494499999952
  0
LINE
  8
_0-0_レイヤ___1
  6
CONTINUOUS
 62
    7
 10
439.63999949999999
 20
-45.567494499999952
 11
431.83999949999998
 21
-50.267494499999941
  0
LINE
  8
_0-0_レイヤ___1
  6
CONTINUOUS
 62
    7
 10
431.83999949999998
 20
-50.267494499999941
 11
425.04000049999996
 21
-54.467494499999987
  0
ARC
  8
_0-0_レイヤ___1
  6
CONTINUOUS
 62
    7
 10
428.5650005
 20
-59.407494499999984
 40
6.3449999999999998
 50
125.93588
 51
142.40211600000001
  0
ARC
  8
_0-0_レイヤ___1
  6
CONTINUOUS
 62
    7
 10
426.0600005
 20
-57.487494499999968
 40
3.1949999999999998
 50
142.273833
 51
167.883454
  0
LINE
  8
_0-0_レイヤ___1
  6
CONTINUOUS
 62
    7
 10
422.9400005
 20
-56.567494499999952
 11
422.9400005
 21
-57.217494499999987
  0
LINE
  8
_0-0_レイヤ___1
  6
CONTINUOUS
 62
    7
 10
684.3399965000001
 20
-132.81749349999996
 11
855.13999349999995
 21
-33.117494499999964
  0
LINE
  8
_0-0_レイヤ___1
  6
CONTINUOUS
 62
    7
 10
451.08999950000003
 20
6.0825045000000273
 11
394.34000049999997
 21
39.282504500000016
  0
LINE
  8
_0-0_レイヤ___1
  6
CONTINUOUS
 62
    7
 10
611.93999749999989
 20
-88.317494499999952
 11
565.38999749999994
 21
-60.817494499999952
  0
LINE
  8
_0-0_レイヤ___1
  6
CONTINUOUS
 62
    7
 10
453.38999949999999
 20
-33.717494499999987
 11
395.39000049999999
 21
0.5825045000000272
  0
LINE
  8
_0-0_レイヤ___1
  6
CONTINUOUS
 62
    7
 10
571.93999749999989
 20
-103.81749349999996
 11
563.88999850000005
 21
-98.917493499999978
  0
LINE
  8
_0-0_レイヤ___1
  6
CONTINUOUS
 62
    7
 10
838.4399934999999
 20
30.18250450000005
 11
623.98999750000007
 21
-88.767494499999941
  0
LINE
  8
_0-0_レイヤ___1
  6
CONTINUOUS
 62
    7
 10
462.73999950000001
 20
-3.2674954999999386
 11
462.73999950000001
 21
-4.1174954999999613
  0
LINE
  8
_0-0_レイヤ___1
  6
CONTINUOUS
 62
    7
 10
463.58999950000003
 20
-2.2174954999999841
 11
462.93999949999994
 21
-3.2674954999999386
  0
LINE
  8
_0-0_レイヤ___1
  6
CONTINUOUS
 62
    7
 10
463.58999950000003
 20
-2.4174954999999727
 11
465.48999950000001
 21
0.1325045000000386
  0
ARC
  8
_0-0_レイヤ___1
  6
CONTINUOUS
 62
    7
 10
465.11999950000001
 20
1.0175045000000296
 40
0.5699999999999999
 50
310.31103299999995
 51
356.55886999999996
  0
LINE
  8
_0-0_レイヤ___1
  6
CONTINUOUS
 62
    7
 10
465.68999949999994
 20
0.9825045000000614
 11
465.68999949999994
 21
1.18250450000005
  0
ARC
  8
_0-0_レイヤ___1
  6
CONTINUOUS
 62
    7
 10
490.31999949999994
 20
0.5175045000000295
 40
24.835000000000001
 50
169.647344
 51
178.93143100000003
  0
LINE
  8
_0-0_レイヤ___1
  6
CONTINUOUS
 62
    7
 10
466.08999950000003
 20
4.7825045000000159
 11
452.98999950000001
 21
12.43250450000005
  0
ARC
  8
_0-0_レイヤ___1
  6
CONTINUOUS
 62
    7
 10
473.81999949999994
 20
8.2675045000000296
 40
21.280000000000001
 50
168.16605299999998
 51
179.153525
  0
ARC
  8
_0-0_レイヤ___1
  6
CONTINUOUS
 62
    7
 10
452.25999949999999
 20
8.6375045000000341
 40
0.535
 50
301.82240400000001
 51
354.16683699999999
  0
LINE
  8
_0-0_レイヤ___1
  6
CONTINUOUS
 62
    7
 10
452.78999949999996
 20
8.5825045000000273
 11
452.78999949999996
 21
8.8325045000000273
  0
ARC
  8
_0-0_レイヤ___1
  6
CONTINUOUS
 62
    7
 10
431.40499949999997
 20
23.972504500000014
 40
26.655000000000001
 50
319.55701699999997
 51
322.461004
  0
ARC
  8
_0-0_レイヤ___1
  6
CONTINUOUS
 62
    7
 10
455.27499949999998
 20
2.6875045000000455
 40
5.5
 50
133.46541500000001
 51
162.07703799999999
  0
ARC
  8
_0-0_レイヤ___1
  6
CONTINUOUS
 62
    7
 10
452.06499949999994
 20
3.5275045000000205
 40
2.2799999999999998
 50
152.47349199999999
 51
184.90664599999999
  0
LINE
  8
_0-0_レイヤ___1
  6
CONTINUOUS
 62
    7
 10
449.78999949999996
 20
3.0825045000000273
 11
449.58999950000003
 21
-7.9174954999999727
  0
LINE
  8
_0-0_レイヤ___1
  6
CONTINUOUS
 62
    7
 10
449.58999950000003
 20
-7.9174954999999727
 11
449.38999949999999
 21
-17.017495499999939
  0
LINE
  8
_0-0_レイヤ___1
  6
CONTINUOUS
 62
    7
 10
449.38999949999999
 20
-17.017495499999939
 11
448.93999949999994
 21
-31.617494499999964
  0
LINE
  8
_0-0_レイヤ___1
  6
CONTINUOUS
 62
    7
 10
448.93999949999994
 20
-31.617494499999964
 11
440.08999950000003
 21
-36.717494499999987
  0
LINE
  8
_0-0_レイヤ___1
  6
CONTINUOUS
 62
    7
 10
440.08999950000003
 20
-36.717494499999987
 11
431.38999949999999
 21
-41.967494499999987
  0
LINE
  8
_0-0_レイヤ___1
  6
CONTINUOUS
 62
    7
 10
431.38999949999999
 20
-41.967494499999987
 11
422.49000050000001
 21
-47.067494499999952
  0
LINE
  8
_0-0_レイヤ___1
  6
CONTINUOUS
 62
    7
 10
422.49000050000001
 20
-47.067494499999952
 11
417.4400005
 21
-50.467494499999987
  0
ARC
  8
_0-0_レイヤ___1
  6
CONTINUOUS
 62
    7
 10
418.4400005
 20
-52.78749449999998
 40
2.5249999999999999
 50
113.330521
 51
137.104637
  0
ARC
  8
_0-0_レイヤ___1
  6
CONTINUOUS
 62
    7
 10
419.22000049999997
 20
-53.482494499999973
 40
3.7200000000000002
 50
139.53793899999999
 51
159.303574
  0
ARC
  8
_0-0_レイヤ___1
  6
CONTINUOUS
 62
    7
 10
412.77000049999998
 20
-51.772494499999993
 40
2.8399999999999999
 50
306.05315500000006
 51
328.29905000000002
  0
ARC
  8
_0-0_レイヤ___1
  6
CONTINUOUS
 62
    7
 10
411.4350005
 20
-50.932494499999962
 40
4.415
 50
328.101652
 51
347.08528100000001
  0
LINE
  8
_0-0_レイヤ___1
  6
CONTINUOUS
 62
    7
 10
414.6900005
 20
-54.067494499999952
 11
411.29000049999996
 21
-56.367494499999964
  0
LINE
  8
_0-0_レイヤ___1
  6
CONTINUOUS
 62
    7
 10
411.29000049999996
 20
-56.367494499999964
 11
424.1900005
 21
-63.767494499999941
  0
ARC
  8
_0-0_レイヤ___1
  6
CONTINUOUS
 62
    7
 10
416.5650005
 20
-49.152494499999989
 40
16.395
 50
296.92407200000002
 51
305.79047500000001
  0
ARC
  8
_0-0_レイヤ___1
  6
CONTINUOUS
 62
    7
 10
344.13500149999999
 20
59.117503500000055
 40
146.64999800000001
 50
304.00773099999998
 51
304.68718699999999
  0
LINE
  8
_0-0_レイヤ___1
  6
CONTINUOUS
 62
    7
 10
427.59000049999997
 20
-61.467494499999987
 11
428.4400005
 21
-60.617494499999964
  0
LINE
  8
_0-0_レイヤ___1
  6
CONTINUOUS
 62
    7
 10
428.4400005
 20
-60.817494499999952
 11
429.6900005
 21
-58.717494499999987
  0
ARC
  8
_0-0_レイヤ___1
  6
CONTINUOUS
 62
    7
 10
437.48499950000001
 20
-67.517494499999941
 40
11.890000000000001
 50
125.733638
 51
132.248322
  0
LINE
  8
_0-0_レイヤ___1
  6
CONTINUOUS
 62
    7
 10
430.53999949999996
 20
-57.867494499999964
 11
436.48999950000001
 21
-54.267494499999941
  0
LINE
  8
_0-0_レイヤ___1
  6
CONTINUOUS
 62
    7
 10
436.48999950000001
 20
-54.267494499999941
 11
452.78999949999996
 21
-44.517494499999941
  0
LINE
  8
_0-0_レイヤ___1
  6
CONTINUOUS
 62
    7
 10
452.78999949999996
 20
-44.517494499999941
 11
461.88999949999999
 21
-39.217494499999987
  0
LINE
  8
_0-0_レイヤ___1
  6
CONTINUOUS
 62
    7
 10
461.88999949999999
 20
-39.217494499999987
 11
461.88999949999999
 21
-39.017494499999941
  0
LINE
  8
_0-0_レイヤ___1
  6
CONTINUOUS
 62
    7
 10
819.5899945000001
 20
-15.117495499999961
 11
819.5899945000001
 21
-15.517495499999939
  0
ARC
  8
_0-0_レイヤ___1
  6
CONTINUOUS
 62
    7
 10
823.8399945000001
 20
-13.73249549999997
 40
4.6600000000000001
 50
176.13224600000001
 51
197.28742600000001
  0
LINE
  8
_0-0_レイヤ___1
  6
CONTINUOUS
 62
    7
 10
819.38999450000006
 20
-13.81749549999995
 11
818.93999450000001
 21
-10.467495499999984
  0
LINE
  8
_0-0_レイヤ___1
  6
CONTINUOUS
 62
    7
 10
818.93999450000001
 20
-10.467495499999984
 11
818.53999449999992
 21
-3.8674954999999613
  0
LINE
  8
_0-0_レイヤ___1
  6
CONTINUOUS
 62
    7
 10
818.53999449999992
 20
-3.8674954999999613
 11
818.73999449999997
 21
18.982504500000061
  0
LINE
  8
_0-0_レイヤ___1
  6
CONTINUOUS
 62
    7
 10
852.83999349999999
 20
36.732504500000061
 11
858.9399934999999
 21
37.832504500000027
  0
ARC
  8
_0-0_レイヤ___1
  6
CONTINUOUS
 62
    7
 10
863.85999349999997
 20
3.7275045000000091
 40
34.104998999999999
 50
77.157109000000005
 51
90.787812000000002
  0
ARC
  8
_0-0_レイヤ___1
  6
CONTINUOUS
 62
    7
 10
862.37999349999996
 20
13.257504500000039
 40
24.594999999999999
 50
87.645156
 51
98.509733999999995
  0
ARC
  8
_0-0_レイヤ___1
  6
CONTINUOUS
 62
    7
 10
860.90499350000005
 20
-13.207495499999993
 40
51.479998999999999
 50
43.354086000000002
 51
78.193658999999997
  0
ARC
  8
_0-0_レイヤ___1
  6
CONTINUOUS
 62
    7
 10
871.04499349999992
 20
-3.0924954999999841
 40
37.324998999999998
 50
28.523585000000001
 51
42.098833999999997
  0
ARC
  8
_0-0_レイヤ___1
  6
CONTINUOUS
 62
    7
 10
886.26999350000006
 20
4.9825045000000614
 40
19.920000000000002
 50
0.003154
 51
29.310345000000005
  0
ARC
  8
_0-0_レイヤ___1
  6
CONTINUOUS
 62
    7
 10
1115.6449895000001
 20
-13.112495499999966
 40
210.004997
 50
175.16644299999999
 51
175.864306
  0
ARC
  8
_0-0_レイヤ___1
  6
CONTINUOUS
 62
    7
 10
906.19999250000001
 20
4.7375045000000569
 40
0.245
 50
320.38506500000005
 51
92.745032000000009
  0
ARC
  8
_0-0_レイヤ___1
  6
CONTINUOUS
 62
    7
 10
876.78499349999993
 20
6.5325045000000159
 40
29.715
 50
322.11690199999998
 51
351.684349
  0
ARC
  8
_0-0_レイヤ___1
  6
CONTINUOUS
 62
    7
 10
863.77999350000005
 20
16.137504500000034
 40
45.844999000000001
 50
305.32835699999998
 51
322.27217999999999
  0
ARC
  8
_0-0_レイヤ___1
  6
CONTINUOUS
 62
    7
 10
887.23999350000008
 20
-19.082495499999993
 40
3.5649999999999999
 50
285.41144800000006
 51
304.69558100000006
  0
ARC
  8
_0-0_レイヤ___1
  6
CONTINUOUS
 62
    7
 10
857.61999349999996
 20
31.157504500000016
 40
61.879998999999998
 50
300.765084
 51
302.08675399999993
  0
ARC
  8
_0-0_レイヤ___1
  6
CONTINUOUS
 62
    7
 10
866.97999350000009
 20
19.407504500000016
 40
46.984999000000002
 50
283.30448899999999
 51
296.83857799999998
  0
ARC
  8
_0-0_レイヤ___1
  6
CONTINUOUS
 62
    7
 10
881.02999350000005
 20
410.92249850000007
 40
440.30499300000002
 50
266.73963600000002
 51
267.23480899999993
  0
ARC
  8
_0-0_レイヤ___1
  6
CONTINUOUS
 62
    7
 10
859.76499349999995
 20
34.697504500000036
 40
63.564999
 50
270.02113300000002
 51
286.28415100000001
  0
LINE
  8
_0-0_レイヤ___1
  6
CONTINUOUS
 62
    7
 10
855.98999350000008
 20
-28.867494499999964
 11
850.9399934999999
 21
-28.417494499999975
  0
ARC
  8
_0-0_レイヤ___1
  6
CONTINUOUS
 62
    7
 10
855.65499350000005
 20
25.90250450000002
 40
54.349998999999997
 50
247.25270000000003
 51
264.75884700000006
  0
ARC
  8
_0-0_レイヤ___1
  6
CONTINUOUS
 62
    7
 10
883.12499350000007
 20
82.87250350000005
 40
117.554998
 50
238.97774099999998
 51
245.64190099999996
  0
ARC
  8
_0-0_レイヤ___1
  6
CONTINUOUS
 62
    7
 10
864.86999349999996
 20
-23.162495499999977
 40
61.059998999999998
 50
103.815164
 51
109.398774
  0
LINE
  8
_0-0_レイヤ___1
  6
CONTINUOUS
 62
    7
 10
837.13999349999995
 20
36.982504500000061
 11
622.93999749999989
 21
-81.767494499999941
  0
LINE
  8
_0-0_レイヤ___1
  6
CONTINUOUS
 62
    7
 10
525.78999849999991
 20
-117.76749349999994
 11
494.03999949999996
 21
-98.717493499999989
  0
LINE
  8
_0-0_レイヤ___1
  6
CONTINUOUS
 62
    7
 10
459.98999950000001
 20
-0.0674954999999499
 11
424.39000049999999
 21
60.882503500000041
  0
LINE
  8
_0-0_レイヤ___1
  6
CONTINUOUS
 62
    7
 10
405.34000049999997
 20
60.882503500000041
 11
424.39000049999999
 21
60.882503500000041
  0
LINE
  8
_0-0_レイヤ___1
  6
CONTINUOUS
 62
    7
 10
478.38999949999999
 20
-56.367494499999964
 11
445.13999949999999
 21
-114.56749349999996
  0
LINE
  8
_0-0_レイヤ___1
  6
CONTINUOUS
 62
    7
 10
434.78999949999996
 20
-114.56749349999996
 11
445.13999949999999
 21
-114.56749349999996
  0
LINE
  8
_0-0_レイヤ___1
  6
CONTINUOUS
 62
    7
 10
727.53999550000003
 20
36.732504500000061
 11
760.73999550000008
 21
95.182503500000053
  0
LINE
  8
_0-0_レイヤ___1
  6
CONTINUOUS
 62
    7
 10
760.73999550000008
 20
95.182503500000053
 11
775.98999449999997
 21
95.182503500000053
  0
LINE
  8
_0-0_レイヤ___1
  6
CONTINUOUS
 62
    7
 10
741.6899954999999
 20
255.83250050000004
 11
756.9399954999999
 21
255.83250050000004
  0
LINE
  8
_0-0_レイヤ___1
  6
CONTINUOUS
 62
    7
 10
631.18999749999989
 20
237.43250150000006
 11
664.63999650000005
 21
295.43250050000006
  0
LINE
  8
_0-0_レイヤ___1
  6
CONTINUOUS
 62
    7
 10
664.63999650000005
 20
295.43250050000006
 11
679.48999649999996
 21
295.43250050000006
  0
LINE
  8
_0-0_レイヤ___1
  6
CONTINUOUS
 62
    7
 10
592.68999749999989
 20
197.63250149999999
 11
553.73999849999996
 21
264.28250050000008
  0
LINE
  8
_0-0_レイヤ___1
  6
CONTINUOUS
 62
    7
 10
532.33999850000009
 20
264.28250050000008
 11
553.73999849999996
 21
264.28250050000008
  0
LINE
  8
_0-0_レイヤ___1
  6
CONTINUOUS
 62
    7
 10
461.88999949999999
 20
-39.017494499999941
 11
462.73999950000001
 21
-4.1174954999999613
  0
LINE
  8
_0-0_レイヤ___1
  6
CONTINUOUS
 62
    7
 10
614.48999750000007
 20
-128.56749349999996
 11
575.13999749999994
 21
-105.46749349999999
  0
LINE
  8
_0-0_レイヤ___1
  6
CONTINUOUS
 62
    7
 10
617.03999750000003
 20
-123.66749349999998
 11
617.23999750000007
 21
-107.36749349999997
  0
LINE
  8
_0-0_レイヤ___1
  6
CONTINUOUS
 62
    7
 10
617.23999750000007
 20
-107.36749349999997
 11
617.23999750000007
 21
-91.117494499999964
  0
LINE
  8
_0-0_レイヤ___1
  6
CONTINUOUS
 62
    7
 10
617.23999750000007
 20
-91.117494499999964
 11
617.23999750000007
 21
-90.867494499999964
  0
LINE
  8
_0-0_レイヤ___1
  6
CONTINUOUS
 62
    7
 10
353.29000150000002
 20
174.78250250000008
 11
372.14000049999999
 21
174.78250250000008
  0
LINE
  8
_0-0_レイヤ___1
  6
CONTINUOUS
 62
    7
 10
407.89000049999999
 20
114.03250250000002
 11
372.14000049999999
 21
174.78250250000008
  0
LINE
  8
_0-0_レイヤ___1
  6
CONTINUOUS
 62
    7
 10
494.48999950000001
 20
-22.31749549999995
 11
495.93999949999994
 21
-20.81749549999995
  0
LINE
  8
_0-0_レイヤ___1
  6
CONTINUOUS
 62
    7
 10
494.48999950000001
 20
-53.617494499999964
 11
494.48999950000001
 21
-22.31749549999995
  0
ARC
  8
_0-0_レイヤ___1
  6
CONTINUOUS
 62
    7
 10
487.58999950000003
 20
-53.297494499999971
 40
6.9100000000000001
 50
298.54007300000001
 51
357.35964300000001
  0
LINE
  8
_0-0_レイヤ___1
  6
CONTINUOUS
 62
    7
 10
494.48999950000001
 20
-53.617494499999964
 11
494.48999950000001
 21
-53.417494499999975
  0
LINE
  8
_0-0_レイヤ___1
  6
CONTINUOUS
 62
    7
 10
459.98999950000001
 20
-77.567494499999952
 11
491.08999950000003
 21
-59.367494499999964
  0
ARC
  8
_0-0_レイヤ___1
  6
CONTINUOUS
 62
    7
 10
448.42499949999996
 20
-75.077494499999943
 40
9.9149999999999991
 50
317.56440400000002
 51
329.78195199999999
  0
ARC
  8
_0-0_レイヤ___1
  6
CONTINUOUS
 62
    7
 10
484.39999949999998
 20
-111.52749349999999
 40
41.819999000000003
 50
125.71191099999999
 51
128.98675900000001
  0
ARC
  8
_0-0_レイヤ___1
  6
CONTINUOUS
 62
    7
 10
442.07499950000005
 20
-66.642494499999941
 40
19.920000000000002
 50
317.62146899999999
 51
322.31802099999999
  0
ARC
  8
_0-0_レイヤ___1
  6
CONTINUOUS
 62
    7
 10
454.61999950000001
 20
-81.392494499999941
 40
1.0600000000000001
 50
284.77258599999999
 51
315.45954699999999
  0
ARC
  8
_0-0_レイヤ___1
  6
CONTINUOUS
 62
    7
 10
453.57499950000005
 20
-79.992494499999964
 40
2.7999999999999998
 50
310.00461100000001
 51
320.62376799999998
  0
LINE
  8
_0-0_レイヤ___1
  6
CONTINUOUS
 62
    7
 10
496.98999950000001
 20
-22.717495499999984
 11
506.93999849999994
 21
-28.417494499999975
  0
LINE
  8
_0-0_レイヤ___1
  6
CONTINUOUS
 62
    7
 10
491.28999949999996
 20
-56.167494499999975
 11
458.68999949999994
 21
-36.717494499999987
  0
LINE
  8
_0-0_レイヤ___1
  6
CONTINUOUS
 62
    7
 10
508.88999849999999
 20
-24.817494499999952
 11
464.83999950000003
 21
0.3325045000000272
  0
LINE
  8
_0-0_レイヤ___1
  6
CONTINUOUS
 62
    7
 10
507.78999849999997
 20
-26.967494499999987
 11
463.98999950000001
 21
-1.9674954999999841
  0
ARC
  8
_0-0_レイヤ___1
  6
CONTINUOUS
 62
    7
 10
539.3299985000001
 20
-82.502494499999955
 40
2.5600000000000001
 50
153.63609299999999
 51
173.58479
  0
ARC
  8
_0-0_レイヤ___1
  6
CONTINUOUS
 62
    7
 10
536.23999849999996
 20
-81.517494499999941
 40
0.8149999999999999
 50
10.672005
 51
47.437196999999998
  0
LINE
  8
_0-0_レイヤ___1
  6
CONTINUOUS
 62
    7
 10
536.78999849999991
 20
-82.217494499999987
 11
536.1899985
 21
-82.817494499999952
  0
LINE
  8
_0-0_レイヤ___1
  6
CONTINUOUS
 62
    7
 10
536.1899985
 20
-82.817494499999952
 11
504.43999849999994
 21
-101.26749349999994
  0
ARC
  8
_0-0_レイヤ___1
  6
CONTINUOUS
 62
    7
 10
506.82499849999994
 20
-106.15249349999999
 40
5.6200000000000001
 50
115.14015599999999
 51
131.28584599999999
  0
ARC
  8
_0-0_レイヤ___1
  6
CONTINUOUS
 62
    7
 10
510.88999849999999
 20
-110.54249349999998
 40
11.595000000000001
 50
132.05518599999999
 51
144.55606299999999
  0
ARC
  8
_0-0_レイヤ___1
  6
CONTINUOUS
 62
    7
 10
494.72999950000002
 20
-99.797493499999973
 40
7.8200000000000003
 50
306.11984699999999
 51
329.085286
  0
LINE
  8
_0-0_レイヤ___1
  6
CONTINUOUS
 62
    7
 10
563.03999849999991
 20
26.582504500000027
 11
581.88999749999994
 21
26.582504500000027
  0
LINE
  8
_0-0_レイヤ___1
  6
CONTINUOUS
 62
    7
 10
527.28999849999991
 20
-34.167494499999975
 11
563.03999849999991
 21
26.582504500000027
  0
LINE
  8
_0-0_レイヤ___1
  6
CONTINUOUS
 62
    7
 10
440.93999949999994
 20
-188.66749249999998
 11
451.28999949999996
 21
-188.66749249999998
  0
LINE
  8
_0-0_レイヤ___1
  6
CONTINUOUS
 62
    7
 10
484.53999949999996
 20
-130.46749349999999
 11
451.28999949999996
 21
-188.66749249999998
  0
LINE
  8
_0-0_レイヤ___1
  6
CONTINUOUS
 62
    7
 10
499.33999850000004
 20
-106.31749349999996
 11
459.53999949999996
 21
-129.61749349999997
  0
LINE
  8
_0-0_レイヤ___1
  6
CONTINUOUS
 62
    7
 10
459.53999949999996
 20
-129.61749349999997
 11
482.18999949999994
 21
-142.31749349999996
  0
LINE
  8
_0-0_レイヤ___1
  6
CONTINUOUS
 62
    7
 10
537.23999849999996
 20
-48.117494499999964
 11
537.03999849999991
 21
-80.917494499999975
  0
LINE
  8
_0-0_レイヤ___1
  6
CONTINUOUS
 62
    7
 10
540.1899985
 20
-83.267494499999941
 11
560.28999849999991
 21
-94.667493499999978
  0
LINE
  8
_0-0_レイヤ___1
  6
CONTINUOUS
 62
    7
 10
533.83999850000009
 20
-81.567494499999952
 11
495.73999950000001
 21
-58.717494499999987
  0
LINE
  8
_0-0_レイヤ___1
  6
CONTINUOUS
 62
    7
 10
336.59000149999997
 20
11.782504500000016
 11
355.39000149999998
 21
11.782504500000016
  0
LINE
  8
_0-0_レイヤ___1
  6
CONTINUOUS
 62
    7
 10
374.4400005
 20
-20.417495499999973
 11
355.39000149999998
 21
11.782504500000016
  0
LINE
  8
_0-0_レイヤ___1
  6
CONTINUOUS
 62
    7
 10
320.49000150000001
 20
-99.367493499999966
 11
339.34000149999997
 21
-99.367493499999966
  0
LINE
  8
_0-0_レイヤ___1
  6
CONTINUOUS
 62
    7
 10
375.09000049999997
 20
-160.11749249999997
 11
339.34000149999997
 21
-99.367493499999966
  0
LINE
  8
_0-0_レイヤ___1
  6
CONTINUOUS
 62
    7
 10
945.53999249999993
 20
52.432503500000053
 11
928.58999249999988
 21
42.882503500000041
  0
LINE
  8
_0-0_レイヤ___1
  6
CONTINUOUS
 62
    7
 10
928.58999249999988
 20
42.882503500000041
 11
926.03999249999993
 21
41.632504500000039
  0
LINE
  8
_0-0_レイヤ___1
  6
CONTINUOUS
 62
    7
 10
920.98999249999997
 20
38.882504500000039
 11
915.88999250000006
 21
35.93250450000005
  0
LINE
  8
_0-0_レイヤ___1
  6
CONTINUOUS
 62
    7
 10
910.83999249999988
 20
33.132504500000039
 11
905.73999249999997
 21
30.382504500000039
  0
LINE
  8
_0-0_レイヤ___1
  6
CONTINUOUS
 62
    7
 10
900.63999250000006
 20
27.632504500000039
 11
895.58999349999999
 21
24.882504500000039
  0
LINE
  8
_0-0_レイヤ___1
  6
CONTINUOUS
 62
    7
 10
890.48999350000008
 20
21.93250450000005
 11
885.4399934999999
 21
19.18250450000005
  0
LINE
  8
_0-0_レイヤ___1
  6
CONTINUOUS
 62
    7
 10
880.33999349999999
 20
16.43250450000005
 11
875.23999350000008
 21
13.68250450000005
  0
LINE
  8
_0-0_レイヤ___1
  6
CONTINUOUS
 62
    7
 10
870.1899934999999
 20
10.93250450000005
 11
865.08999349999999
 21
7.9825045000000614
  0
LINE
  8
_0-0_レイヤ___1
  6
CONTINUOUS
 62
    7
 10
860.03999350000004
 20
5.2325045000000614
 11
857.48999350000008
 21
3.7325045000000614
  0
LINE
  8
_0-0_レイヤ___1
  6
CONTINUOUS
 62
    7
 10
829.73999449999997
 20
-154.61749349999997
 11
840.13999349999995
 21
-154.61749349999997
  0
LINE
  8
_0-0_レイヤ___1
  6
CONTINUOUS
 62
    7
 10
796.53999449999992
 20
-96.367493499999966
 11
829.73999449999997
 21
-154.61749349999997
  0
LINE
  8
_0-0_レイヤ___1
  6
CONTINUOUS
 62
    7
 10
309.89000149999998
 20
-167.06749249999996
 11
454.88999949999999
 21
-82.617494499999964
  0
LINE
  8
_0-0_レイヤ___1
  6
CONTINUOUS
 62
    7
 10
1020.8899915
 20
9.0325045000000159
 11
1010.5399915
 21
11.782504500000016
  0
LINE
  8
_0-0_レイヤ___1
  6
CONTINUOUS
 62
    7
 10
1020.8899915
 20
9.0325045000000159
 11
1015.3899915
 21
14.532504500000016
  0
LINE
  8
_0-0_レイヤ___1
  6
CONTINUOUS
 62
    7
 10
945.53999249999993
 20
52.432503500000053
 11
955.88999250000006
 21
49.682503500000053
  0
LINE
  8
_0-0_レイヤ___1
  6
CONTINUOUS
 62
    7
 10
945.53999249999993
 20
52.432503500000053
 11
951.03999250000015
 21
46.932503500000053
  0
TEXT
  8
_0-0_レイヤ___1
 62
    7
 10
654.49499650000007
 20
468.76749749999999
 40
16
 41
1
 50
0
  1
架台廻り納まりイメージ 2
  0
TEXT
  8
_0-0_レイヤ___1
 62
    7
 10
418.12632508833917
 20
256.50265017667846
 40
16
 41
1
 50
0
  1
ウレタンシール
  0
TEXT
  8
_0-0_レイヤ___1
 62
    7
 10
239.06051236749119
 20
167.16353798586573
 40
16
 41
1
 50
0
  1
ＡＸプライマー
  0
TEXT
  8
_0-0_レイヤ___1
 62
    7
 10
324.23304991166077
 20
51.584695229681955
 40
16
 41
1
 50
0
  1
ＦＬテープ
  0
TEXT
  8
_0-0_レイヤ___1
 62
    7
 10
271.21096510600705
 20
5.0740945229681529
 40
16
 41
1
 50
0
  1
ＦＬ鋼板
  0
TEXT
  8
_0-0_レイヤ___1
 62
    7
 10
208.77048365724377
 20
-107.24900618374562
 40
16
 41
1
 50
0
  1
リベットルーフ
  0
TEXT
  8
_0-0_レイヤ___1
 62
    7
 10
278.30383171378088
 20
-196.66563604240298
 40
16
 41
1
 50
0
  1
ＡＸプライマー塩ビ用
  0
TEXT
  8
_0-0_レイヤ___1
 62
    7
 10
299.51500149999998
 20
-273.55249149999997
 40
16
 41
1
 50
0
  1
※ 各下地に適合したプライマー塗布が必要です。
  0
TEXT
  8
_0-0_レイヤ___1
 62
    7
 10
842.88438604240287
 20
-165.27098056537113
 40
16
 41
1
 50
0
  1
アクシスコート（クロス補強）
  0
TEXT
  8
_0-0_レイヤ___1
 62
    7
 10
777.47885379858667
 20
85.886263250883303
 40
16
 41
1
 50
0
  1
アクシスコート（クロス補強）
  0
TEXT
  8
_0-0_レイヤ___1
 62
    7
 10
983.63709143109554
 20
39.840768551236636
 40
16
 41
1
 50
0
  1
100mm程度
  0
ENDSEC
  0
EOF
