  0
SECTION
  2
HEADER
  9
$ACADVER
  1
AC1009
  9
$INSBASE
 10
0
 20
0
 30
0
  9
$EXTMIN
 10
0
 20
0
  9
$EXTMAX
 10
2970
 20
2100
  9
$LIMMIN
 10
0
 20
0
  9
$LIMMAX
 10
2970
 20
2100
  9
$LTSCALE
 40
10
  0
ENDSEC
  0
SECTION
  2
TABLES
  0
TABLE
  2
LTYPE
 70
     9
  0
LTYPE
  2
CONTINUOUS
 70
    64
  3
実線
 72
    65
 73
     0
 40
0.0
  0
LTYPE
  2
DASHED1
 70
    64
  3
--  --  --  --  --  --  --  --  
 72
    65
 73
     2
 40
2.5
 49
1.25
 49
-1.25
  0
LTYPE
  2
DASHED2
 70
    64
  3
----    ----    ----    ----    
 72
    65
 73
     2
 40
5.0
 49
2.5
 49
-2.5
  0
LTYPE
  2
DASHED3
 70
    64
  3
------  ------  ------  ------  
 72
    65
 73
     2
 40
5.0
 49
3.75
 49
-1.25
  0
LTYPE
  2
CENTER1
 70
    64
  3
----- - ----- - ----- - ----- - 
 72
    65
 73
     4
 40
10.0
 49
6.25
 49
-1.25
 49
1.25
 49
-1.25
  0
LTYPE
  2
CENTER2
 70
    64
  3
----------  --  ----------  --  
 72
    65
 73
     4
 40
20.0
 49
12.5
 49
-2.5
 49
2.5
 49
-2.5
  0
LTYPE
  2
PHANTOM1
 70
    64
  3
--- - - --- - - --- - - --- - - 
 72
    65
 73
     6
 40
10.0
 49
3.25
 49
-1.25
 49
1.25
 49
-1.25
 49
1.25
 49
-1.25
  0
LTYPE
  2
PHANTOM2
 70
    64
  3
--------  -  -  --------  -  -  
 72
    65
 73
     6
 40
20.0
 49
10.0
 49
-2.5
 49
1.25
 49
-2.5
 49
1.25
 49
-2.5
  0
LTYPE
  2
DOT
 70
    64
  3
-   -   -   -   -   -   -   -   
 72
    65
 73
     2
 40
2.5
 49
0.625
 49
-1.875
  0
LTYPE
  2
DUMMY
 70
    64
  3
ダミー
 72
    65
 73
     0
 40
0.0
  0
LTYPE
  2
RAND1
 70
    64
  3
ランダム線1
 72
    65
 73
     4
 40
10.0
 49
1.0
 49
-2.0
 49
3.0
 49
-4.0
  0
LTYPE
  2
RAND2
 70
    64
  3
ランダム線2
 72
    65
 73
     4
 40
14.0
 49
2.0
 49
-3.0
 49
4.0
 49
-5.0
  0
LTYPE
  2
RAND3
 70
    64
  3
ランダム線3
 72
    65
 73
     4
 40
18.0
 49
3.0
 49
-4.0
 49
5.0
 49
-6.0
  0
LTYPE
  2
RAND4
 70
    64
  3
ランダム線4
 72
    65
 73
     4
 40
22.0
 49
4.0
 49
-5.0
 49
6.0
 49
-7.0
  0
LTYPE
  2
RAND5
 70
    64
  3
ランダム線5
 72
    65
 73
     4
 40
26.0
 49
5.0
 49
-6.0
 49
7.0
 49
-8.0
  0
LTYPE
  2
LONG1
 70
    64
  3
----------  --  ----------  --  
 72
    65
 73
     4
 40
40.0
 49
32.5
 49
-2.5
 49
2.5
 49
-2.5
  0
LTYPE
  2
LONG2
 70
    64
  3
--------  -  -  --------  -  -  
 72
    65
 73
     6
 40
40.0
 49
30.0
 49
-2.5
 49
1.25
 49
-2.5
 49
1.25
 49
-2.5
  0
LTYPE
  2
LONG3
 70
    64
  3
+++++++++++++++..+++++++++++++++
 72
    65
 73
     2
 40
40.0
 49
37.5
 49
-2.5
  0
LTYPE
  2
LONG4
 70
    64
  3
+++++++++++++++..+++++++++++++++
 72
    65
 73
     2
 40
80.0
 49
75.0
 49
-5.0
  0
LTYPE
  2
LONG5
 70
    64
  3
----------  --  ----------  --  
 72
    65
 73
     4
 40
60.0
 49
37.5
 49
-7.5
 49
7.5
 49
-7.5
  0
LTYPE
  2
dashed
 70
   64
  3
-------   -------------   ------
 72
   65
 73
    2
 40
7.5
 49
6
 49
-1.5
  0
LTYPE
  2
dashed_spaced
 70
   64
  3
----        --------        ----
 72
   65
 73
    2
 40
12
 49
6
 49
-6
  0
LTYPE
  2
long_dashed_dotted
 70
   64
  3
------------- --- --------------
 72
   65
 73
    4
 40
15.25
 49
12
 49
-1.5
 49
0.25
 49
-1.5
  0
LTYPE
  2
long_dashed_double-dotted
 70
   64
  3
----------- --- --- ------------
 72
   65
 73
    6
 40
17
 49
12
 49
-1.5
 49
0.25
 49
-1.5
 49
0.25
 49
-1.5
  0
LTYPE
  2
long_dashed_triplicate-dotted
 70
   64
  3
--------- --- --- --- ----------
 72
   65
 73
    8
 40
18.75
 49
12
 49
-1.5
 49
0.25
 49
-1.5
 49
0.25
 49
-1.5
 49
0.25
 49
-1.5
  0
LTYPE
  2
dotted
 70
   64
  3
   -       -       -       -    
 72
   65
 73
    2
 40
1.75
 49
0.25
 49
-1.5
  0
LTYPE
  2
chain
 70
   64
  3
-------------- -- --------------
 72
   65
 73
    4
 40
18.5
 49
12
 49
-1.5
 49
3.5
 49
-1.5
  0
LTYPE
  2
chain_double_dash
 70
   64
  3
------------ -- -- -------------
 72
   65
 73
    6
 40
23.5
 49
12
 49
-1.5
 49
3.5
 49
-1.5
 49
3.5
 49
-1.5
  0
LTYPE
  2
dashed_dotted
 70
   64
  3
-----------     -     ----------
 72
   65
 73
    4
 40
9.25
 49
6
 49
-1.5
 49
0.25
 49
-1.5
  0
LTYPE
  2
double-dashed_dotted
 70
   64
  3
------   -----------   -   -----
 72
   65
 73
    6
 40
16.75
 49
6
 49
-1.5
 49
6
 49
-1.5
 49
0.25
 49
-1.5
  0
LTYPE
  2
dashed_double-dotted
 70
   64
  3
---------    -    -    ---------
 72
   65
 73
    6
 40
11
 49
6
 49
-1.5
 49
0.25
 49
-1.5
 49
0.25
 49
-1.5
  0
LTYPE
  2
double-dashed_double-dotted
 70
   64
  3
-----   ---------   -   -   ----
 72
   65
 73
    8
 40
18.5
 49
6
 49
-1.5
 49
6
 49
-1.5
 49
0.25
 49
-1.5
 49
0.25
 49
-1.5
  0
LTYPE
  2
dashed_triplicate-dotted
 70
   64
  3
-------    -    -    -    ------
 72
   65
 73
    8
 40
12.75
 49
6
 49
-1.5
 49
0.25
 49
-1.5
 49
0.25
 49
-1.5
 49
0.25
 49
-1.5
  0
LTYPE
  2
double-dashed_triplicate-dotted
 70
   64
  3
-----  ---------  -  -  -  -----
 72
   65
 73
   10
 40
20.25
 49
6
 49
-1.5
 49
6
 49
-1.5
 49
0.25
 49
-1.5
 49
0.25
 49
-1.5
 49
0.25
 49
-1.5
  0
LTYPE
  2
undefined
 70
   64
  3
--------------------------------
 72
   65
 73
    0
 40
0
  0
LTYPE
  2
AIGENLINE001
 70
   64
  3
----        --------        ----
 72
   65
 73
    2
 40
4.5800000000000001
 49
2.29
 49
-2.29
  0
LTYPE
  2
AIGENLINE002
 70
   64
  3
------     -----------     -----
 72
   65
 73
    2
 40
6.8700000000000001
 49
4.5800000000000001
 49
-2.29
  0
ENDTAB
  0
TABLE
  2
STYLE
  5
3
100
AcDbSymbolTable
 70
     1
  0
STYLE
  5
10
100
AcDbSymbolTableRecord
100
AcDbTextStyleTableRecord
  2
STANDARD
 70
     0
 40
0.0
 41
1.0
 50
0.0
 71
     0
 42
0.2
  3
txt
  4
bigfont.shx
  0
STYLE
  5
26
100
AcDbSymbolTableRecord
100
AcDbTextStyleTableRecord
  2
TATEGAKI
 70
    68
 40
0.0
 41
1.0
 50
0.0
 71
     0
 42
1.0
  3
txt
  4
bigfont.shx
  0
ENDTAB
  0
TABLE
  2
LAYER
 70
    4
  0
LAYER
  2
_0-0_文字
 70
   64
 62
    7
  6
CONTINUOUS
  0
LAYER
  2
_0-1_レイヤ___3
 70
   64
 62
    7
  6
CONTINUOUS
  0
LAYER
  2
_0-2_決定
 70
   64
 62
    7
  6
CONTINUOUS
  0
LAYER
  2
ADD_LINE
 70
   64
 62
    7
  6
CONTINUOUS
  0
ENDTAB
  0
ENDSEC
  0
SECTION
  2
BLOCKS
  0
ENDSEC
  0
SECTION
  2
ENTITIES
  0
ARC
  8
_0-1_レイヤ___3
  6
CONTINUOUS
 62
    7
 10
-7457.1225270732621
 20
10245.265671888299
 40
100.75331131322194
 50
212.54457606520913
 51
215.40440375223901
  0
ARC
  8
_0-1_レイヤ___3
  6
CONTINUOUS
 62
    7
 10
-7368.9514147695209
 20
10307.718363524889
 40
208.80176608438552
 50
215.35576722286694
 51
221.36723647424384
  0
ARC
  8
_0-1_レイヤ___3
  6
CONTINUOUS
 62
    7
 10
-7295.4624294196119
 20
10370.285434729602
 40
305.30820552446175
 50
221.06477429997616
 51
231.22765018658944
  0
ARC
  8
_0-1_レイヤ___3
  6
CONTINUOUS
 62
    7
 10
-7258.362933726452
 20
10413.75814627555
 40
362.43800051855288
 50
230.95883511048854
 51
251.35346403312775
  0
ARC
  8
_0-1_レイヤ___3
  6
CONTINUOUS
 62
    7
 10
-7236.372632740311
 20
10469.15351598549
 40
421.96811857702386
 50
250.92920805381576
 51
264.01576111916944
  0
ARC
  8
_0-1_レイヤ___3
  6
CONTINUOUS
 62
    7
 10
-7225.624236278828
 20
10543.900922169672
 40
497.43720610569824
 50
263.68207230856342
 51
270.12317171358148
  0
ARC
  8
_0-1_レイヤ___3
  6
CONTINUOUS
 62
    7
 10
-6992.0793464044109
 20
10245.524901377814
 40
100.97057184263099
 50
324.50269853745323
 51
327.35954730735853
  0
ARC
  8
_0-1_レイヤ___3
  6
CONTINUOUS
 62
    7
 10
-7080.3419905560786
 20
10307.947173220191
 40
209.07582118488784
 50
318.61534655888227
 51
324.62063211809948
  0
ARC
  8
_0-1_レイヤ___3
  6
CONTINUOUS
 62
    7
 10
-7153.8774882642865
 20
10370.555279866292
 40
305.64394410371006
 50
308.76992808749981
 51
318.92296844706647
  0
ARC
  8
_0-1_レイヤ___3
  6
CONTINUOUS
 62
    7
 10
-7190.9073149430596
 20
10414.013847156648
 40
362.71881065871321
 50
288.65165821912348
 51
309.03173518611686
  0
ARC
  8
_0-1_レイヤ___3
  6
CONTINUOUS
 62
    7
 10
-7212.7783179116759
 20
10469.116770693032
 40
421.93378546990601
 50
275.98762352174964
 51
289.07257752973072
  0
ARC
  8
_0-1_レイヤ___3
  6
CONTINUOUS
 62
    7
 10
-7223.4878580387031
 20
10543.581941679005
 40
497.11822129585721
 50
269.87702048518202
 51
276.31995190691799
  0
ARC
  8
_0-1_レイヤ___3
  6
CONTINUOUS
 62
    7
 10
-5185.0304285955899
 20
10245.524901377814
 40
100.97057184263099
 50
212.64045269264147
 51
215.49730146254677
  0
ARC
  8
_0-1_レイヤ___3
  6
CONTINUOUS
 62
    7
 10
-5096.767783943922
 20
10307.947182752343
 40
209.07582711155425
 50
215.37936993240487
 51
221.38465549162211
  0
ARC
  8
_0-1_レイヤ___3
  6
CONTINUOUS
 62
    7
 10
-5023.232286235715
 20
10370.555274237853
 40
305.6439400285019
 50
221.07703081915608
 51
231.23007117872271
  0
ARC
  8
_0-1_レイヤ___3
  6
CONTINUOUS
 62
    7
 10
-4986.2024600569393
 20
10414.01384715665
 40
362.71881065871611
 50
230.96826481388334
 51
251.34834178087678
  0
ARC
  8
_0-1_レイヤ___3
  6
CONTINUOUS
 62
    7
 10
-4964.331457088324
 20
10469.116770693026
 40
421.93378546990107
 50
250.92742247026916
 51
264.01237647825019
  0
ARC
  8
_0-1_レイヤ___3
  6
CONTINUOUS
 62
    7
 10
-4953.6219169612968
 20
10543.581941679005
 40
497.11822129585721
 50
263.68004809308201
 51
270.12297951481798
  0
ARC
  8
_0-1_レイヤ___3
  6
CONTINUOUS
 62
    7
 10
-4719.9458454184714
 20
10245.502223718258
 40
100.93010227782503
 50
324.50212566871829
 51
327.36012017609352
  0
ARC
  8
_0-1_レイヤ___3
  6
CONTINUOUS
 62
    7
 10
-4808.1795151263923
 20
10307.897670728831
 40
208.99619450303933
 50
318.61419937969004
 51
324.6217751962829
  0
ARC
  8
_0-1_レイヤ___3
  6
CONTINUOUS
 62
    7
 10
-4881.720450069015
 20
10370.546924357084
 40
305.59543296261558
 50
308.76110452106741
 51
318.91711841601511
  0
ARC
  8
_0-1_レイヤ___3
  6
CONTINUOUS
 62
    7
 10
-4918.8186128357247
 20
10414.07234736759
 40
362.76505117262622
 50
288.64440299195792
 51
309.02607158712721
  0
ARC
  8
_0-1_レイヤ___3
  6
CONTINUOUS
 62
    7
 10
-4940.7607794280339
 20
10469.392114969156
 40
422.20788163462777
 50
275.98405340598731
 51
289.06580929539717
  0
ARC
  8
_0-1_レイヤ___3
  6
CONTINUOUS
 62
    7
 10
-4951.4884073483645
 20
10543.953934779165
 40
497.49021243480115
 50
269.87717178965931
 51
276.31758418819595
  0
ARC
  8
_0-1_レイヤ___3
  6
CONTINUOUS
 62
    7
 10
-5820.122552073216
 20
10136.864055111702
 40
100.75331131325974
 50
144.59559624777546
 51
147.45542393480537
  0
ARC
  8
_0-1_レイヤ___3
  6
CONTINUOUS
 62
    7
 10
-5731.9514397695193
 20
10074.411363475112
 40
208.80176608438552
 50
138.63276352575616
 51
144.64423277713306
  0
ARC
  8
_0-1_レイヤ___3
  6
CONTINUOUS
 62
    7
 10
-5658.4624539196111
 20
10011.84428664744
 40
305.30820959523527
 50
128.77234907943739
 51
138.93522496605067
  0
ARC
  8
_0-1_レイヤ___3
  6
CONTINUOUS
 62
    7
 10
-5621.3629577264519
 20
9968.3715807244553
 40
362.43800051855004
 50
108.64653596687252
 51
129.04116488951172
  0
ARC
  8
_0-1_レイヤ___3
  6
CONTINUOUS
 62
    7
 10
-5599.37265674031
 20
9912.9762110145002
 40
421.96811857703369
 50
95.984238880830276
 51
109.07079194618395
  0
ARC
  8
_0-1_レイヤ___3
  6
CONTINUOUS
 62
    7
 10
-5588.6242602788279
 20
9838.228804830349
 40
497.437206105678
 50
89.876828286418629
 51
96.317927691436736
  0
ARC
  8
_0-1_レイヤ___3
  6
CONTINUOUS
 62
    7
 10
-5354.9872379267836
 20
10136.864055111679
 40
100.75331131327245
 50
32.544576065205391
 51
35.404403752235282
  0
ARC
  8
_0-1_レイヤ___3
  6
CONTINUOUS
 62
    7
 10
-5443.1583502304802
 20
10074.411363475123
 40
208.80176608437881
 50
35.3557672228646
 51
41.367236474241516
  0
ARC
  8
_0-1_レイヤ___3
  6
CONTINUOUS
 62
    7
 10
-5516.6473355803882
 20
10011.8442922704
 40
305.30820552446175
 50
41.064774299976172
 51
51.227650186589457
  0
ARC
  8
_0-1_レイヤ___3
  6
CONTINUOUS
 62
    7
 10
-5553.7468312735482
 20
9968.3715807244516
 40
362.43800051855288
 50
50.958835110488543
 51
71.35346403312775
  0
ARC
  8
_0-1_レイヤ___3
  6
CONTINUOUS
 62
    7
 10
-5575.737132259691
 20
9912.9762110145057
 40
421.96811857702875
 50
70.929208053815913
 51
84.015761119169582
  0
ARC
  8
_0-1_レイヤ___3
  6
CONTINUOUS
 62
    7
 10
-5586.4855287211731
 20
9838.2288048303399
 40
497.43720610568812
 50
83.682072308563349
 51
90.123171713581442
  0
ARC
  8
_0-1_レイヤ___3
  6
CONTINUOUS
 62
    7
 10
-2913.022595073262
 20
10245.265671888321
 40
100.75331131323469
 50
212.54457606521987
 51
215.40440375224975
  0
ARC
  8
_0-1_レイヤ___3
  6
CONTINUOUS
 62
    7
 10
-2824.851482769519
 20
10307.718363524882
 40
208.80176608438217
 50
215.35576722286575
 51
221.36723647424267
  0
ARC
  8
_0-1_レイヤ___3
  6
CONTINUOUS
 62
    7
 10
-2751.3624974196114
 20
10370.285434729598
 40
305.30820552445948
 50
221.06477429997577
 51
231.22765018658905
  0
ARC
  8
_0-1_レイヤ___3
  6
CONTINUOUS
 62
    7
 10
-2714.2630012264522
 20
10413.758149055178
 40
362.43800299241127
 50
230.95883532587561
 51
251.3534642485148
  0
ARC
  8
_0-1_レイヤ___3
  6
CONTINUOUS
 62
    7
 10
-2692.2727002403099
 20
10469.153511626333
 40
421.96811429374725
 50
250.92920792458665
 51
264.0157609899403
  0
ARC
  8
_0-1_レイヤ___3
  6
CONTINUOUS
 62
    7
 10
-2681.5243042788275
 20
10543.900922169658
 40
497.43720610568312
 50
263.68207230856331
 51
270.12317171358143
  0
ARC
  8
_0-1_レイヤ___3
  6
CONTINUOUS
 62
    7
 10
-2447.8872809267382
 20
10245.26567188831
 40
100.75331131322829
 50
324.59559624775562
 51
327.45542393478553
  0
ARC
  8
_0-1_レイヤ___3
  6
CONTINUOUS
 62
    7
 10
-2536.0583932304803
 20
10307.718363524889
 40
208.80176608438552
 50
318.63276352575616
 51
324.64423277713308
  0
ARC
  8
_0-1_レイヤ___3
  6
CONTINUOUS
 62
    7
 10
-2609.5473785803892
 20
10370.285434729598
 40
305.30820552445948
 50
308.77234981341098
 51
318.93522570002426
  0
ARC
  8
_0-1_レイヤ___3
  6
CONTINUOUS
 62
    7
 10
-2646.646874773548
 20
10413.758149055178
 40
362.43800299241127
 50
288.6465357514852
 51
309.04116467412439
  0
ARC
  8
_0-1_レイヤ___3
  6
CONTINUOUS
 62
    7
 10
-2668.6371757596903
 20
10469.153511626329
 40
421.96811429374492
 50
275.98423901005975
 51
289.07079207541341
  0
ARC
  8
_0-1_レイヤ___3
  6
CONTINUOUS
 62
    7
 10
-2679.3855722211724
 20
10543.900931055636
 40
497.43721499271589
 50
269.87682823102801
 51
276.31792763604608
  0
ARC
  8
_0-1_レイヤ___3
  6
CONTINUOUS
 62
    7
 10
-3548.0304525955444
 20
10136.604825622173
 40
100.97057184267514
 50
144.50269853746238
 51
147.35954730736768
  0
ARC
  8
_0-1_レイヤ___3
  6
CONTINUOUS
 62
    7
 10
-3459.7678084439217
 20
10074.182553779816
 40
209.07582118488446
 50
138.6153465588834
 51
144.62063211810062
  0
ARC
  8
_0-1_レイヤ___3
  6
CONTINUOUS
 62
    7
 10
-3386.2323107357138
 20
10011.574447133704
 40
305.6439441037146
 50
128.76992808749898
 51
138.92296844706561
  0
ARC
  8
_0-1_レイヤ___3
  6
CONTINUOUS
 62
    7
 10
-3349.2024840569402
 20
9968.1158798433553
 40
362.71881065871321
 50
108.65165821912348
 51
129.03173518611692
  0
ARC
  8
_0-1_レイヤ___3
  6
CONTINUOUS
 62
    7
 10
-3327.3314810883239
 20
9913.0129563069768
 40
421.93378546990107
 50
95.987623521749811
 51
109.07257752973085
  0
ARC
  8
_0-1_レイヤ___3
  6
CONTINUOUS
 62
    7
 10
-3316.6219409612968
 20
9838.547785320985
 40
497.11822129586727
 50
89.877020485181959
 51
96.319951906917922
  0
ARC
  8
_0-1_レイヤ___3
  6
CONTINUOUS
 62
    7
 10
-3082.9458704185172
 20
10136.627503281728
 40
100.93010227786918
 50
32.639879823897374
 51
35.497874331272577
  0
ARC
  8
_0-1_レイヤ___3
  6
CONTINUOUS
 62
    7
 10
-3171.1795401263917
 20
10074.232056271177
 40
208.99619450303595
 50
35.378224803715909
 51
41.385800620308785
  0
ARC
  8
_0-1_レイヤ___3
  6
CONTINUOUS
 62
    7
 10
-3244.7204745690146
 20
10011.582808269704
 40
305.59542888809187
 50
41.082880850402226
 51
51.23889474534996
  0
ARC
  8
_0-1_レイヤ___3
  6
CONTINUOUS
 62
    7
 10
-3281.8186368357237
 20
9968.0573796324115
 40
362.76505117262764
 50
50.973928412872894
 51
71.355597008042196
  0
ARC
  8
_0-1_レイヤ___3
  6
CONTINUOUS
 62
    7
 10
-3303.7608034280352
 20
9912.73761203084
 40
422.20788163463277
 50
70.934190704602969
 51
84.015946594012817
  0
ARC
  8
_0-1_レイヤ___3
  6
CONTINUOUS
 62
    7
 10
-3314.4884313483644
 20
9838.1757922208526
 40
497.49021243478586
 50
83.682415811803978
 51
90.1228282103406
  0
ARC
  8
_0-1_レイヤ___3
  6
CONTINUOUS
 62
    7
 10
-6834.9576104027974
 20
10144.758611797955
 40
85.687131946339932
 50
144.22233369227075
 51
147.28839169837414
  0
ARC
  8
_0-1_レイヤ___3
  6
CONTINUOUS
 62
    7
 10
-6772.3665018165402
 20
10100.105046321711
 40
162.57352260626021
 50
139.79746805851795
 51
144.35142471935831
  0
ARC
  8
_0-1_レイヤ___3
  6
CONTINUOUS
 62
    7
 10
-6716.1446876625705
 20
10053.353651080004
 40
235.69226502681684
 50
128.64561282955955
 51
139.93931535075046
  0
ARC
  8
_0-1_レイヤ___3
  6
CONTINUOUS
 62
    7
 10
-6684.3717736842755
 20
10016.65063554152
 40
284.20673230090733
 50
110.99190648966825
 51
129.02750531113131
  0
ARC
  8
_0-1_レイヤ___3
  6
CONTINUOUS
 62
    7
 10
-6666.7549979676569
 20
9975.7474653034878
 40
328.71106488204566
 50
95.239897903240603
 51
111.30471079897622
  0
ARC
  8
_0-1_レイヤ___3
  6
CONTINUOUS
 62
    7
 10
-6657.2413299848804
 20
9909.5217699453515
 40
395.54368721071808
 50
89.900565237320635
 51
95.736139417888069
  0
ARC
  8
_0-1_レイヤ___3
  6
CONTINUOUS
 62
    7
 10
-6478.1521475972031
 20
10144.758611797977
 40
85.68713194632798
 50
32.711608301614113
 51
35.777666307717489
  0
ARC
  8
_0-1_レイヤ___3
  6
CONTINUOUS
 62
    7
 10
-6540.7432561834594
 20
10100.105046321711
 40
162.57352260626021
 50
35.648575280641708
 51
40.202531941482064
  0
ARC
  8
_0-1_レイヤ___3
  6
CONTINUOUS
 62
    7
 10
-6596.9650698374298
 20
10053.353656136811
 40
235.69226138958246
 50
40.060683786625717
 51
51.354386307816618
  0
ARC
  8
_0-1_レイヤ___3
  6
CONTINUOUS
 62
    7
 10
-6628.7379833157238
 20
10016.650635541526
 40
284.20673230090097
 50
50.972494688867947
 51
69.008093510331008
  0
ARC
  8
_0-1_レイヤ___3
  6
CONTINUOUS
 62
    7
 10
-6646.3547595323425
 20
9975.7474617603402
 40
328.71106836472558
 50
68.695289344213663
 51
84.760102239949276
  0
ARC
  8
_0-1_レイヤ___3
  6
CONTINUOUS
 62
    7
 10
-6655.8684275151199
 20
9909.5217797552341
 40
395.54367739998446
 50
84.263860512151453
 51
90.099434692718887
  0
ARC
  8
_0-1_レイヤ___3
  6
CONTINUOUS
 62
    7
 10
-6333.9576174028389
 20
10237.371115202044
 40
85.687131946304817
 50
212.71160830164183
 51
215.77766630774522
  0
ARC
  8
_0-1_レイヤ___3
  6
CONTINUOUS
 62
    7
 10
-6271.3665088165408
 20
10282.024680678278
 40
162.57352260625143
 50
215.64857528063774
 51
220.20253194147807
  0
ARC
  8
_0-1_レイヤ___3
  6
CONTINUOUS
 62
    7
 10
-6215.1446951625703
 20
10328.77607086319
 40
235.69226138958246
 50
220.0606837866257
 51
231.35438630781661
  0
ARC
  8
_0-1_レイヤ___3
  6
CONTINUOUS
 62
    7
 10
-6183.3717816842764
 20
10365.479091458477
 40
284.20673230090415
 50
230.9724946888683
 51
249.00809351033138
  0
ARC
  8
_0-1_レイヤ___3
  6
CONTINUOUS
 62
    7
 10
-6165.7550054676576
 20
10406.382265239659
 40
328.71106836472171
 50
248.69528934421351
 51
264.76010223994911
  0
ARC
  8
_0-1_レイヤ___3
  6
CONTINUOUS
 62
    7
 10
-6156.2413374848802
 20
10472.607947244769
 40
395.54367739998446
 50
264.26386051215144
 51
270.09943469271889
  0
ARC
  8
_0-1_レイヤ___3
  6
CONTINUOUS
 62
    7
 10
-5977.1521550971602
 20
10237.371096519395
 40
85.687121429300191
 50
324.22234402269203
 51
327.28840202879542
  0
ARC
  8
_0-1_レイヤ___3
  6
CONTINUOUS
 62
    7
 10
-6039.743263183459
 20
10282.024680678278
 40
162.57352260625143
 50
319.79746805852193
 51
324.35142471936229
  0
ARC
  8
_0-1_レイヤ___3
  6
CONTINUOUS
 62
    7
 10
-6095.9650773374287
 20
10328.776075920003
 40
235.69226502682088
 50
308.64561282955856
 51
319.9393153507495
  0
ARC
  8
_0-1_レイヤ___3
  6
CONTINUOUS
 62
    7
 10
-6127.7379913157238
 20
10365.479091458477
 40
284.20673230090415
 50
290.99190648966862
 51
309.02750531113168
  0
ARC
  8
_0-1_レイヤ___3
  6
CONTINUOUS
 62
    7
 10
-6145.3547670323424
 20
10406.382261696517
 40
328.71106488204964
 50
275.23989790324043
 51
291.30471079897609
  0
ARC
  8
_0-1_レイヤ___3
  6
CONTINUOUS
 62
    7
 10
-6154.8684350151198
 20
10472.60795705465
 40
395.54368721071808
 50
269.90056523732062
 51
275.73613941788807
  0
ARC
  8
_0-1_レイヤ___3
  6
CONTINUOUS
 62
    7
 10
-4562.8576439027975
 20
10144.758630480626
 40
85.687121429323383
 50
144.22234402271977
 51
147.28840202882316
  0
ARC
  8
_0-1_レイヤ___3
  6
CONTINUOUS
 62
    7
 10
-4500.2665358165405
 20
10100.105046321711
 40
162.57352260626021
 50
139.79746805851795
 51
144.35142471935831
  0
ARC
  8
_0-1_レイヤ___3
  6
CONTINUOUS
 62
    7
 10
-4444.0447216625707
 20
10053.353651079999
 40
235.69226502682088
 50
128.64561282955856
 51
139.93931535074947
  0
ARC
  8
_0-1_レイヤ___3
  6
CONTINUOUS
 62
    7
 10
-4412.2718076842757
 20
10016.650635541522
 40
284.20673230090415
 50
110.99190648966862
 51
129.0275053111317
  0
ARC
  8
_0-1_レイヤ___3
  6
CONTINUOUS
 62
    7
 10
-4394.6550319676571
 20
9975.747465303486
 40
328.71106488204964
 50
95.239897903240447
 51
111.30471079897607
  0
ARC
  8
_0-1_レイヤ___3
  6
CONTINUOUS
 62
    7
 10
-4385.1413639848806
 20
9909.5217699453642
 40
395.54368721070705
 50
89.90056523732072
 51
95.73613941788814
  0
ARC
  8
_0-1_レイヤ___3
  6
CONTINUOUS
 62
    7
 10
-4206.1892611875182
 20
10144.733370282671
 40
85.731971558135825
 50
32.712410299046745
 51
35.776864310284864
  0
ARC
  8
_0-1_レイヤ___3
  6
CONTINUOUS
 62
    7
 10
-4268.8078522340775
 20
10100.054739876003
 40
162.65530541513274
 50
35.649720744070684
 51
40.201386478045109
  0
ARC
  8
_0-1_レイヤ___3
  6
CONTINUOUS
 62
    7
 10
-4325.0235368896301
 20
10053.33922448892
 40
235.74627358302268
 50
40.05422816298821
 51
51.343586766425858
  0
ARC
  8
_0-1_レイヤ___3
  6
CONTINUOUS
 62
    7
 10
-4357.5478157618109
 20
10015.621078401622
 40
285.52275923749096
 50
50.974792361685537
 51
70.765150450440316
  0
ARC
  8
_0-1_レイヤ___3
  6
CONTINUOUS
 62
    7
 10
-4375.8269770371544
 20
9970.1725065434257
 40
334.4639357459223
 50
70.373519651520297
 51
85.910519893971738
  0
ARC
  8
_0-1_レイヤ___3
  6
CONTINUOUS
 62
    7
 10
-4383.9992004674614
 20
9903.8985793447791
 40
401.16654099226736
 50
85.421325868018101
 51
90.065086140256781
  0
ARC
  8
_0-1_レイヤ___3
  6
CONTINUOUS
 62
    7
 10
-4061.8622254001116
 20
10237.436075383321
 40
85.802528749285102
 50
212.71367058105758
 51
215.7756040283295
  0
ARC
  8
_0-1_レイヤ___3
  6
CONTINUOUS
 62
    7
 10
-3999.1870760191214
 20
10282.286544738772
 40
162.87201205520844
 50
215.68663731110288
 51
220.23440846731762
  0
ARC
  8
_0-1_レイヤ___3
  6
CONTINUOUS
 62
    7
 10
-3942.9175568337532
 20
10329.089688295313
 40
236.06034213028335
 50
220.0850184249372
 51
231.36454602664637
  0
ARC
  8
_0-1_レイヤ___3
  6
CONTINUOUS
 62
    7
 10
-3910.3895361090076
 20
10366.825234270487
 40
285.8521394627619
 50
230.99411895665307
 51
250.76855345956992
  0
ARC
  8
_0-1_レイヤ___3
  6
CONTINUOUS
 62
    7
 10
-3892.1624755039556
 20
10412.175246068236
 40
334.68285969358692
 50
250.37954526170159
 51
265.90970154733179
  0
ARC
  8
_0-1_レイヤ___3
  6
CONTINUOUS
 62
    7
 10
-3884.0090733106636
 20
10478.2707129091
 40
401.2061044525978
 50
265.42155495706544
 51
270.06485705120957
  0
ARC
  8
_0-1_レイヤ___3
  6
CONTINUOUS
 62
    7
 10
-3705.1521885971601
 20
10237.371115202024
 40
85.687131946292851
 50
324.22233369226649
 51
327.28839169836988
  0
ARC
  8
_0-1_レイヤ___3
  6
CONTINUOUS
 62
    7
 10
-3767.7432971834596
 20
10282.024680678292
 40
162.57352260626021
 50
319.79746805851795
 51
324.35142471935831
  0
ARC
  8
_0-1_レイヤ___3
  6
CONTINUOUS
 62
    7
 10
-3823.9651113374293
 20
10328.776075920003
 40
235.69226502682088
 50
308.64561282955856
 51
319.9393153507495
  0
ARC
  8
_0-1_レイヤ___3
  6
CONTINUOUS
 62
    7
 10
-3855.7380253157235
 20
10365.479091458477
 40
284.20673230090415
 50
290.99190648966862
 51
309.02750531113168
  0
ARC
  8
_0-1_レイヤ___3
  6
CONTINUOUS
 62
    7
 10
-3873.354801032342
 20
10406.382261696512
 40
328.71106488204566
 50
275.2398979032406
 51
291.3047107989762
  0
ARC
  8
_0-1_レイヤ___3
  6
CONTINUOUS
 62
    7
 10
-3882.8684690151194
 20
10472.60795705465
 40
395.54368721071808
 50
269.90056523732062
 51
275.73613941788807
  0
ARC
  8
_0-1_レイヤ___3
  6
CONTINUOUS
 62
    7
 10
-2290.8576774027965
 20
10144.758611797966
 40
85.687131946333949
 50
144.22233369227664
 51
147.28839169838002
  0
ARC
  8
_0-1_レイヤ___3
  6
CONTINUOUS
 62
    7
 10
-2228.2665688165407
 20
10100.105046321725
 40
162.57352260625143
 50
139.79746805852193
 51
144.35142471936226
  0
ARC
  8
_0-1_レイヤ___3
  6
CONTINUOUS
 62
    7
 10
-2172.0447551625703
 20
10053.353656136807
 40
235.69226138958453
 50
128.64561369218288
 51
139.93931621337379
  0
ARC
  8
_0-1_レイヤ___3
  6
CONTINUOUS
 62
    7
 10
-2140.2718416842758
 20
10016.650635541526
 40
284.20673230090256
 50
110.99190648966881
 51
129.02750531113188
  0
ARC
  8
_0-1_レイヤ___3
  6
CONTINUOUS
 62
    7
 10
-2122.6550654676571
 20
9975.747461760342
 40
328.71106836472364
 50
95.239897760050809
 51
111.30471065578642
  0
ARC
  8
_0-1_レイヤ___3
  6
CONTINUOUS
 62
    7
 10
-2113.1413974848801
 20
9909.5217797552341
 40
395.54367739998446
 50
89.900565307281127
 51
95.736139487848547
  0
ARC
  8
_0-1_レイヤ___3
  6
CONTINUOUS
 62
    7
 10
-1934.0522155972035
 20
10144.758611797955
 40
85.687131946339932
 50
32.711608301625859
 51
35.777666307729241
  0
ARC
  8
_0-1_レイヤ___3
  6
CONTINUOUS
 62
    7
 10
-1996.6433241834598
 20
10100.105046321725
 40
162.57352260625143
 50
35.648575280637729
 51
40.202531941478085
  0
ARC
  8
_0-1_レイヤ___3
  6
CONTINUOUS
 62
    7
 10
-2052.8651378374298
 20
10053.353656136811
 40
235.69226138958246
 50
40.060683786625717
 51
51.354386307816618
  0
ARC
  8
_0-1_レイヤ___3
  6
CONTINUOUS
 62
    7
 10
-2084.6380513157237
 20
10016.650635541526
 40
284.20673230090256
 50
50.972494688868125
 51
69.008093510331193
  0
ARC
  8
_0-1_レイヤ___3
  6
CONTINUOUS
 62
    7
 10
-2102.2548275323425
 20
9975.747461760342
 40
328.71106836472364
 50
68.695289344213577
 51
84.760102239949205
  0
ARC
  8
_0-1_レイヤ___3
  6
CONTINUOUS
 62
    7
 10
-2111.7684955151199
 20
9909.5217797552286
 40
395.54367739998997
 50
84.263860512151496
 51
90.09943469271893
  0
ARC
  8
_0-1_レイヤ___3
  6
CONTINUOUS
 62
    7
 10
-1789.8576854028386
 20
10237.371115202044
 40
85.687131946304817
 50
212.71160830164183
 51
215.77766630774522
  0
ARC
  8
_0-1_レイヤ___3
  6
CONTINUOUS
 62
    7
 10
-1727.2665768165405
 20
10282.024680678269
 40
162.57352260624702
 50
215.64857528063575
 51
220.20253194147608
  0
ARC
  8
_0-1_レイヤ___3
  6
CONTINUOUS
 62
    7
 10
-1671.0447626625705
 20
10328.776075920005
 40
235.69226502682301
 50
220.06068464925102
 51
231.35438717044192
  0
ARC
  8
_0-1_レイヤ___3
  6
CONTINUOUS
 62
    7
 10
-1639.2718491842761
 20
10365.479088307937
 40
284.20672953857877
 50
230.9724943672266
 51
249.00809318868966
  0
ARC
  8
_0-1_レイヤ___3
  6
CONTINUOUS
 62
    7
 10
-1621.6550734676571
 20
10406.382265239659
 40
328.71106836472364
 50
248.69528934421356
 51
264.76010223994922
  0
ARC
  8
_0-1_レイヤ___3
  6
CONTINUOUS
 62
    7
 10
-1612.1414054848799
 20
10472.607947244769
 40
395.54367739998446
 50
264.26386051215144
 51
270.09943469271889
  0
ARC
  8
_0-1_レイヤ___3
  6
CONTINUOUS
 62
    7
 10
-1433.0522225971606
 20
10237.371115202033
 40
85.68713194629882
 50
324.22233369226063
 51
327.28839169836402
  0
ARC
  8
_0-1_レイヤ___3
  6
CONTINUOUS
 62
    7
 10
-1495.6433311834594
 20
10282.024680678278
 40
162.57352260625143
 50
319.79746805852193
 51
324.35142471936229
  0
ARC
  8
_0-1_レイヤ___3
  6
CONTINUOUS
 62
    7
 10
-1551.8651453374298
 20
10328.77607592001
 40
235.69226502682505
 50
308.64561282955759
 51
319.93931535074847
  0
ARC
  8
_0-1_レイヤ___3
  6
CONTINUOUS
 62
    7
 10
-1583.6380588157244
 20
10365.479088307933
 40
284.20672953857724
 50
290.99190681131051
 51
309.02750563277357
  0
ARC
  8
_0-1_レイヤ___3
  6
CONTINUOUS
 62
    7
 10
-1601.2548345323426
 20
10406.382265239659
 40
328.71106836472171
 50
275.23989776005089
 51
291.30471065578649
  0
ARC
  8
_0-1_レイヤ___3
  6
CONTINUOUS
 62
    7
 10
-1610.7685030151197
 20
10472.60795705465
 40
395.54368721071808
 50
269.90056523732062
 51
275.73613941788807
  0
ARC
  8
_0-1_レイヤ___3
  6
CONTINUOUS
 62
    7
 10
-640.93049659558972
 20
10245.524901377827
 40
100.9705718426374
 50
212.64045269264682
 51
215.49730146255212
  0
ARC
  8
_0-1_レイヤ___3
  6
CONTINUOUS
 62
    7
 10
-552.66785194392128
 20
10307.947182752345
 40
209.0758271115559
 50
215.37936993240547
 51
221.38465549162268
  0
ARC
  8
_0-1_レイヤ___3
  6
CONTINUOUS
 62
    7
 10
-479.13235423571393
 20
10370.555274237853
 40
305.6439400285019
 50
221.07703081915608
 51
231.23007117872271
  0
ARC
  8
_0-1_レイヤ___3
  6
CONTINUOUS
 62
    7
 10
-442.10252755693944
 20
10414.013849938307
 40
362.7188131343749
 50
230.96826502924114
 51
251.34834199623455
  0
ARC
  8
_0-1_レイヤ___3
  6
CONTINUOUS
 62
    7
 10
-420.23152458832328
 20
10469.11676633332
 40
421.93378118613771
 50
250.92742234098728
 51
264.01237634896836
  0
ARC
  8
_0-1_レイヤ___3
  6
CONTINUOUS
 62
    7
 10
-409.52198446129643
 20
10543.581950562448
 40
497.11823018035136
 50
263.68004814851218
 51
270.12297957024816
  0
ARC
  8
_0-1_レイヤ___3
  6
CONTINUOUS
 62
    7
 10
-175.84591341847215
 20
10245.502223718271
 40
100.93010227783145
 50
324.50212566871295
 51
327.36012017608812
  0
ARC
  8
_0-1_レイヤ___3
  6
CONTINUOUS
 62
    7
 10
-264.07958312639153
 20
10307.897670728826
 40
208.9961945030376
 50
318.6141993796906
 51
324.62177519628352
  0
ARC
  8
_0-1_レイヤ___3
  6
CONTINUOUS
 62
    7
 10
-337.62051756901485
 20
10370.546918730302
 40
305.59542888809415
 50
308.76110525464964
 51
318.91711914959734
  0
ARC
  8
_0-1_レイヤ___3
  6
CONTINUOUS
 62
    7
 10
-374.71868033572463
 20
10414.072350149027
 40
362.76505364824902
 50
288.6444027766882
 51
309.02607137185748
  0
ARC
  8
_0-1_レイヤ___3
  6
CONTINUOUS
 62
    7
 10
-396.6608469280348
 20
10469.392110608376
 40
422.20787734973584
 50
275.98405353516426
 51
289.06580942457413
  0
ARC
  8
_0-1_レイヤ___3
  6
CONTINUOUS
 62
    7
 10
-407.38847434836458
 20
10543.953934779156
 40
497.49021243479353
 50
269.87717178965937
 51
276.31758418819595
  0
ARC
  8
_0-1_レイヤ___3
  6
CONTINUOUS
 62
    7
 10
-1276.0226190732164
 20
10136.86405511169
 40
100.7533113132661
 50
144.59559624777009
 51
147.4554239348
  0
ARC
  8
_0-1_レイヤ___3
  6
CONTINUOUS
 62
    7
 10
-1187.8515067695196
 20
10074.411363475117
 40
208.80176608438217
 50
138.63276352575733
 51
144.64423277713425
  0
ARC
  8
_0-1_レイヤ___3
  6
CONTINUOUS
 62
    7
 10
-1114.3625214196113
 20
10011.8442922704
 40
305.30820552446175
 50
128.77234981341056
 51
138.93522570002384
  0
ARC
  8
_0-1_レイヤ___3
  6
CONTINUOUS
 62
    7
 10
-1077.2630257264518
 20
9968.3715807244535
 40
362.43800051855146
 50
108.64653596687239
 51
129.04116488951158
  0
ARC
  8
_0-1_レイヤ___3
  6
CONTINUOUS
 62
    7
 10
-1055.2727247403093
 20
9912.976211014502
 40
421.96811857703125
 50
95.984238880830361
 51
109.07079194618402
  0
ARC
  8
_0-1_レイヤ___3
  6
CONTINUOUS
 62
    7
 10
-1044.5243282788269
 20
9838.2288048303435
 40
497.43720610568312
 50
89.876828286418601
 51
96.317927691436694
  0
ARC
  8
_0-1_レイヤ___3
  6
CONTINUOUS
 62
    7
 10
-810.8873059267836
 20
10136.864055111695
 40
100.75331131326293
 50
32.544576065197333
 51
35.404403752227225
  0
ARC
  8
_0-1_レイヤ___3
  6
CONTINUOUS
 62
    7
 10
-899.05841773048019
 20
10074.411372997445
 40
208.80176016648454
 50
35.355765171199238
 51
41.367234422576153
  0
ARC
  8
_0-1_レイヤ___3
  6
CONTINUOUS
 62
    7
 10
-972.5474030803889
 20
10011.84428664744
 40
305.30820959523527
 50
41.064775033949324
 51
51.22765092056261
  0
ARC
  8
_0-1_レイヤ___3
  6
CONTINUOUS
 62
    7
 10
-1009.6468992735483
 20
9968.3715807244535
 40
362.43800051855209
 50
50.958835110488486
 51
71.353464033127693
  0
ARC
  8
_0-1_レイヤ___3
  6
CONTINUOUS
 62
    7
 10
-1031.6372002596906
 20
9912.9762110145039
 40
421.96811857702994
 50
70.929208053815955
 51
84.015761119169611
  0
ARC
  8
_0-1_レイヤ___3
  6
CONTINUOUS
 62
    7
 10
-1042.385596721173
 20
9838.2288048303435
 40
497.43720610568312
 50
83.682072308563306
 51
90.123171713581399
  0
ARC
  8
_0-1_レイヤ___3
  6
CONTINUOUS
 62
    7
 10
-18.757711402796531
 20
10144.758611797961
 40
85.687131946336947
 50
144.22233369227371
 51
147.2883916983771
  0
ARC
  8
_0-1_レイヤ___3
  6
CONTINUOUS
 62
    7
 10
43.83339718345951
 20
10100.105046321722
 40
162.57352260625362
 50
139.79746805852093
 51
144.35142471936129
  0
ARC
  8
_0-1_レイヤ___3
  6
CONTINUOUS
 62
    7
 10
100.05521083742991
 20
10053.353656136809
 40
235.69226138958345
 50
128.64561369218313
 51
139.93931621337404
  0
ARC
  8
_0-1_レイヤ___3
  6
CONTINUOUS
 62
    7
 10
131.82812431572415
 20
10016.650635541526
 40
284.20673230090256
 50
110.99190648966881
 51
129.02750531113188
  0
ARC
  8
_0-1_レイヤ___3
  6
CONTINUOUS
 62
    7
 10
149.4449005323429
 20
9975.7474617603439
 40
328.71106836472256
 50
95.239897760050852
 51
111.30471065578647
  0
ARC
  8
_0-1_レイヤ___3
  6
CONTINUOUS
 62
    7
 10
158.95856851511979
 20
9909.5217797552305
 40
395.54367739998719
 50
89.900565307281099
 51
95.736139487848533
  0
ARC
  8
_0-1_レイヤ___3
  6
CONTINUOUS
 62
    7
 10
337.95232440006856
 20
10144.693651616688
 40
85.802528749315769
 50
32.713670581037185
 51
35.77560402830909
  0
ARC
  8
_0-1_レイヤ___3
  6
CONTINUOUS
 62
    7
 10
275.27717551912218
 20
10099.843194853276
 40
162.87200430350629
 50
35.686633815836018
 51
40.234404972050754
  0
ARC
  8
_0-1_レイヤ___3
  6
CONTINUOUS
 62
    7
 10
219.00765633375315
 20
10053.040033641475
 40
236.0603457731514
 50
40.085019287030654
 51
51.364546888739845
  0
ARC
  8
_0-1_レイヤ___3
  6
CONTINUOUS
 62
    7
 10
186.47963510900809
 20
10015.304492729518
 40
285.85213946276093
 50
50.994118956652962
 51
70.768553459569802
  0
ARC
  8
_0-1_レイヤ___3
  6
CONTINUOUS
 62
    7
 10
168.25257500395566
 20
9969.954484598471
 40
334.68285607188528
 50
70.379545131548312
 51
85.909701417178496
  0
ARC
  8
_0-1_レイヤ___3
  6
CONTINUOUS
 62
    7
 10
160.0991728106635
 20
9903.859001758221
 40
401.20611678583725
 50
85.421555026476128
 51
90.064857120620218
  0
ARC
  8
_0-1_レイヤ___3
  6
CONTINUOUS
 62
    7
 10
482.27936018747573
 20
10237.396356717345
 40
85.731971558109663
 50
212.71241029907154
 51
215.77686431030966
  0
ARC
  8
_0-1_レイヤ___3
  6
CONTINUOUS
 62
    7
 10
544.89795123407805
 20
10282.074987124
 40
162.65530541513496
 50
215.64972074407166
 51
220.20138647804609
  0
ARC
  8
_0-1_レイヤ___3
  6
CONTINUOUS
 62
    7
 10
601.11363638963041
 20
10328.790507569851
 40
235.74627722112217
 50
220.05422902587941
 51
231.34358762931706
  0
ARC
  8
_0-1_レイヤ___3
  6
CONTINUOUS
 62
    7
 10
633.63791526181126
 20
10366.508645732083
 40
285.52275669592325
 50
230.9747920774642
 51
250.76515016621897
  0
ARC
  8
_0-1_レイヤ___3
  6
CONTINUOUS
 62
    7
 10
651.91707603715417
 20
10411.957220456574
 40
334.46393574591974
 50
250.37351965152021
 51
265.91051989397164
  0
ARC
  8
_0-1_レイヤ___3
  6
CONTINUOUS
 62
    7
 10
660.08929996746156
 20
10478.231159986703
 40
401.16655332430651
 50
265.42132593742883
 51
270.06508620966753
  0
ARC
  8
_0-1_レイヤ___3
  6
CONTINUOUS
 62
    7
 10
838.94774340283914
 20
10237.371115202037
 40
85.687131946301065
 50
324.22233369225842
 51
327.28839169836181
  0
ARC
  8
_0-1_レイヤ___3
  6
CONTINUOUS
 62
    7
 10
776.3566348165408
 20
10282.024680678278
 40
162.57352260625197
 50
319.79746805852164
 51
324.351424719362
  0
ARC
  8
_0-1_レイヤ___3
  6
CONTINUOUS
 62
    7
 10
720.13482116257035
 20
10328.77607086319
 40
235.69226138958373
 50
308.64561369218308
 51
319.93931621337396
  0
ARC
  8
_0-1_レイヤ___3
  6
CONTINUOUS
 62
    7
 10
688.36190768427605
 20
10365.479091458476
 40
284.20673230090233
 50
290.99190648966885
 51
309.0275053111319
  0
ARC
  8
_0-1_レイヤ___3
  6
CONTINUOUS
 62
    7
 10
670.7451314676573
 20
10406.382265239659
 40
328.71106836472325
 50
275.23989776005084
 51
291.30471065578644
  0
ARC
  8
_0-1_レイヤ___3
  6
CONTINUOUS
 62
    7
 10
661.23146348488046
 20
10472.607947244771
 40
395.54367739998719
 50
269.90056530728111
 51
275.7361394878485
  0
ARC
  8
_0-1_レイヤ___3
  6
CONTINUOUS
 62
    7
 10
1631.0773369267383
 20
10245.265671888308
 40
100.75331131322702
 50
212.54457606521339
 51
215.4044037522433
  0
ARC
  8
_0-1_レイヤ___3
  6
CONTINUOUS
 62
    7
 10
1719.2484492304802
 20
10307.718363524884
 40
208.80176608438285
 50
215.35576722286598
 51
221.3672364742429
  0
ARC
  8
_0-1_レイヤ___3
  6
CONTINUOUS
 62
    7
 10
1792.7374350803889
 20
10370.285440352563
 40
305.30820959523629
 50
221.06477503394947
 51
231.22765092056275
  0
ARC
  8
_0-1_レイヤ___3
  6
CONTINUOUS
 62
    7
 10
1829.8369312735485
 20
10413.75814627555
 40
362.43800051855175
 50
230.95883511048842
 51
251.35346403312764
  0
ARC
  8
_0-1_レイヤ___3
  6
CONTINUOUS
 62
    7
 10
1851.8272322596908
 20
10469.153515985499
 40
421.96811857703062
 50
250.92920805381596
 51
264.01576111916961
  0
ARC
  8
_0-1_レイヤ___3
  6
CONTINUOUS
 62
    7
 10
1862.5756287211732
 20
10543.90092216966
 40
497.43720610568437
 50
263.68207230856331
 51
270.12317171358143
  0
ARC
  8
_0-1_レイヤ___3
  6
CONTINUOUS
 62
    7
 10
2096.2126510732619
 20
10245.26567188831
 40
100.75331131322829
 50
324.59559624775562
 51
327.45542393478553
  0
ARC
  8
_0-1_レイヤ___3
  6
CONTINUOUS
 62
    7
 10
2008.0415387695198
 20
10307.718363524888
 40
208.8017660843839
 50
318.63276352575673
 51
324.64423277713365
  0
ARC
  8
_0-1_レイヤ___3
  6
CONTINUOUS
 62
    7
 10
1934.5525534196111
 20
10370.285434729602
 40
305.30820552446175
 50
308.77234981341053
 51
318.93522570002381
  0
ARC
  8
_0-1_レイヤ___3
  6
CONTINUOUS
 62
    7
 10
1897.4530572264518
 20
10413.758149055178
 40
362.43800299241167
 50
288.64653575148515
 51
309.04116467412439
  0
ARC
  8
_0-1_レイヤ___3
  6
CONTINUOUS
 62
    7
 10
1875.4627562403095
 20
10469.153511626333
 40
421.96811429374577
 50
275.9842390100597
 51
289.07079207541335
  0
ARC
  8
_0-1_レイヤ___3
  6
CONTINUOUS
 62
    7
 10
1864.7143602788269
 20
10543.900922169654
 40
497.43720610568181
 50
269.87682828641857
 51
276.31792769143669
  0
ARC
  8
_0-1_レイヤ___3
  6
CONTINUOUS
 62
    7
 10
996.0359454185176
 20
10136.627503281727
 40
100.93010227787077
 50
144.50212566872608
 51
147.3601201761013
  0
ARC
  8
_0-1_レイヤ___3
  6
CONTINUOUS
 62
    7
 10
1084.269615126392
 20
10074.232056271174
 40
208.99619450303848
 50
138.61419937969035
 51
144.62177519628324
  0
ARC
  8
_0-1_レイヤ___3
  6
CONTINUOUS
 62
    7
 10
1157.8105495690149
 20
10011.582808269703
 40
305.59542888809329
 50
128.76110525464975
 51
138.91711914959751
  0
ARC
  8
_0-1_レイヤ___3
  6
CONTINUOUS
 62
    7
 10
1194.9087118357247
 20
9968.0573796324115
 40
362.76505117262718
 50
108.64440299195788
 51
129.02607158712718
  0
ARC
  8
_0-1_レイヤ___3
  6
CONTINUOUS
 62
    7
 10
1216.8508784280348
 20
9912.7376120308472
 40
422.20788163462692
 50
95.984053405987382
 51
109.06580929539723
  0
ARC
  8
_0-1_レイヤ___3
  6
CONTINUOUS
 62
    7
 10
1227.5785063483647
 20
9838.1757922208417
 40
497.49021243479706
 50
89.877171789659343
 51
96.317584188195951
  0
ARC
  8
_0-1_レイヤ___3
  6
CONTINUOUS
 62
    7
 10
1461.1205275955444
 20
10136.604825622167
 40
100.97057184267894
 50
32.640452692635513
 51
35.497301462540811
  0
ARC
  8
_0-1_レイヤ___3
  6
CONTINUOUS
 62
    7
 10
1372.8578834439213
 20
10074.182553779814
 40
209.07582118488511
 50
35.379367881899604
 51
41.384653441116832
  0
ARC
  8
_0-1_レイヤ___3
  6
CONTINUOUS
 62
    7
 10
1299.3223857357139
 20
10011.574447133708
 40
305.64394410371193
 50
41.077031552933882
 51
51.230071912500513
  0
ARC
  8
_0-1_レイヤ___3
  6
CONTINUOUS
 62
    7
 10
1262.2925590569398
 20
9968.1158798433516
 40
362.71881065871497
 50
50.968264813883259
 51
71.34834178087668
  0
ARC
  8
_0-1_レイヤ___3
  6
CONTINUOUS
 62
    7
 10
1240.4215560883235
 20
9913.0129563069768
 40
421.93378546990107
 50
70.92742247026915
 51
84.012376478250204
  0
ARC
  8
_0-1_レイヤ___3
  6
CONTINUOUS
 62
    7
 10
1229.7120159612969
 20
9838.5477853209923
 40
497.11822129585903
 50
83.680048093082036
 51
90.122979514817999
  0
ARC
  8
_0-1_レイヤ___3
  6
CONTINUOUS
 62
    7
 10
2253.2422545972036
 20
10144.758611797966
 40
85.687131946333949
 50
144.22233369227664
 51
147.28839169838002
  0
ARC
  8
_0-1_レイヤ___3
  6
CONTINUOUS
 62
    7
 10
2315.8333631834594
 20
10100.105046321722
 40
162.57352260625362
 50
139.79746805852093
 51
144.35142471936129
  0
ARC
  8
_0-1_レイヤ___3
  6
CONTINUOUS
 62
    7
 10
2372.0551768374298
 20
10053.353656136809
 40
235.69226138958345
 50
128.64561369218313
 51
139.93931621337404
  0
ARC
  8
_0-1_レイヤ___3
  6
CONTINUOUS
 62
    7
 10
2403.8280903157242
 20
10016.650635541526
 40
284.20673230090256
 50
110.99190648966881
 51
129.02750531113188
  0
ARC
  8
_0-1_レイヤ___3
  6
CONTINUOUS
 62
    7
 10
2421.444866532343
 20
9975.747461760342
 40
328.71106836472364
 50
95.239897760050809
 51
111.30471065578642
  0
ARC
  8
_0-1_レイヤ___3
  6
CONTINUOUS
 62
    7
 10
2430.9585345151199
 20
9909.5217797552323
 40
395.54367739998577
 50
89.900565307281113
 51
95.736139487848533
  0
ARC
  8
_0-1_レイヤ___3
  6
CONTINUOUS
 62
    7
 10
2610.0477174027969
 20
10144.758611797966
 40
85.687131946333949
 50
32.711608301619982
 51
35.777666307723365
  0
ARC
  8
_0-1_レイヤ___3
  6
CONTINUOUS
 62
    7
 10
2547.4566088165411
 20
10100.105046321722
 40
162.57352260625362
 50
35.648575280638724
 51
40.202531941479087
  0
ARC
  8
_0-1_レイヤ___3
  6
CONTINUOUS
 62
    7
 10
2491.2347946625705
 20
10053.353651079997
 40
235.69226502682244
 50
40.060684649250895
 51
51.354387170441797
  0
ARC
  8
_0-1_レイヤ___3
  6
CONTINUOUS
 62
    7
 10
2459.4618806842759
 20
10016.650635541524
 40
284.20673230090301
 50
50.972494688868174
 51
69.00809351033125
  0
ARC
  8
_0-1_レイヤ___3
  6
CONTINUOUS
 62
    7
 10
2441.8451049676569
 20
9975.7474653034842
 40
328.71106488205066
 50
68.695289201023982
 51
84.760102096759596
  0
ARC
  8
_0-1_レイヤ___3
  6
CONTINUOUS
 62
    7
 10
2432.3314369848804
 20
9909.5217699453588
 40
395.5436872107112
 50
84.263860582111889
 51
90.099434762679323
  0
ARC
  8
_0-1_レイヤ___3
  6
CONTINUOUS
 62
    7
 10
2754.242247097161
 20
10237.371096519384
 40
85.687121429294223
 50
212.7115979711987
 51
215.77765597730209
  0
ARC
  8
_0-1_レイヤ___3
  6
CONTINUOUS
 62
    7
 10
2816.8333551834594
 20
10282.024680678278
 40
162.57352260625251
 50
215.64857528063823
 51
220.20253194147855
  0
ARC
  8
_0-1_レイヤ___3
  6
CONTINUOUS
 62
    7
 10
2873.05516933743
 20
10328.776075920005
 40
235.69226502682244
 50
220.06068464925087
 51
231.35438717044178
  0
ARC
  8
_0-1_レイヤ___3
  6
CONTINUOUS
 62
    7
 10
2904.8280833157241
 20
10365.479091458477
 40
284.20673230090335
 50
230.97249468886821
 51
249.00809351033129
  0
ARC
  8
_0-1_レイヤ___3
  6
CONTINUOUS
 62
    7
 10
2922.4448590323432
 20
10406.382261696517
 40
328.71106488204964
 50
248.69528920102391
 51
264.76010209675957
  0
ARC
  8
_0-1_レイヤ___3
  6
CONTINUOUS
 62
    7
 10
2931.9585270151197
 20
10472.607957054643
 40
395.54368721071256
 50
264.26386058211187
 51
270.09943476267932
  0
ARC
  8
_0-1_レイヤ___3
  6
CONTINUOUS
 62
    7
 10
3111.0477094028392
 20
10237.371115202039
 40
85.687131946301804
 50
324.22233369225773
 51
327.28839169836107
  0
ARC
  8
_0-1_レイヤ___3
  6
CONTINUOUS
 62
    7
 10
3048.4566008165402
 20
10282.024680678278
 40
162.57352260625143
 50
319.79746805852193
 51
324.35142471936229
  0
ARC
  8
_0-1_レイヤ___3
  6
CONTINUOUS
 62
    7
 10
2992.2347871625702
 20
10328.77607086319
 40
235.69226138958345
 50
308.64561369218313
 51
319.93931621337401
  0
ARC
  8
_0-1_レイヤ___3
  6
CONTINUOUS
 62
    7
 10
2960.4618736842758
 20
10365.479091458477
 40
284.20673230090335
 50
290.99190648966874
 51
309.02750531113179
  0
ARC
  8
_0-1_レイヤ___3
  6
CONTINUOUS
 62
    7
 10
2942.8450974676571
 20
10406.382265239659
 40
328.71106836472256
 50
275.23989776005084
 51
291.30471065578644
  0
ARC
  8
_0-1_レイヤ___3
  6
CONTINUOUS
 62
    7
 10
2933.3314294848797
 20
10472.607947244771
 40
395.54367739998719
 50
269.90056530728111
 51
275.7361394878485
  0
ARC
  8
_0-1_レイヤ___3
  6
CONTINUOUS
 62
    7
 10
3903.1359024184721
 20
10245.502223718282
 40
100.9301022778378
 50
212.6398798239172
 51
215.49787433129242
  0
ARC
  8
_0-1_レイヤ___3
  6
CONTINUOUS
 62
    7
 10
3991.3695716263919
 20
10307.897661200306
 40
208.99618857862353
 50
215.37822275321037
 51
221.38579856980323
  0
ARC
  8
_0-1_レイヤ___3
  6
CONTINUOUS
 62
    7
 10
4064.9105060690144
 20
10370.546924357084
 40
305.59543296261558
 50
221.08288158398486
 51
231.23889547893262
  0
ARC
  8
_0-1_レイヤ___3
  6
CONTINUOUS
 62
    7
 10
4102.0086688357251
 20
10414.07234736759
 40
362.76505117262622
 50
230.97392841287277
 51
251.35559700804205
  0
ARC
  8
_0-1_レイヤ___3
  6
CONTINUOUS
 62
    7
 10
4123.9508354280351
 20
10469.392114969156
 40
422.20788163462777
 50
250.93419070460283
 51
264.01594659401269
  0
ARC
  8
_0-1_レイヤ___3
  6
CONTINUOUS
 62
    7
 10
4134.6784633483649
 20
10543.953934779158
 40
497.49021243479604
 50
263.68241581180405
 51
270.12282821034069
  0
ARC
  8
_0-1_レイヤ___3
  6
CONTINUOUS
 62
    7
 10
4368.2204845955894
 20
10245.524901377848
 40
100.97057184265014
 50
324.50269853743714
 51
327.35954730734244
  0
ARC
  8
_0-1_レイヤ___3
  6
CONTINUOUS
 62
    7
 10
4279.9578399439215
 20
10307.947182752338
 40
209.07582711155086
 50
318.61534450837905
 51
324.62063006759627
  0
ARC
  8
_0-1_レイヤ___3
  6
CONTINUOUS
 62
    7
 10
4206.4223422357136
 20
10370.555274237853
 40
305.6439400285019
 50
308.76992882127729
 51
318.92296918084389
  0
ARC
  8
_0-1_レイヤ___3
  6
CONTINUOUS
 62
    7
 10
4169.3925160569397
 20
10414.01384715665
 40
362.71881065871611
 50
288.65165821912319
 51
309.03173518611663
  0
ARC
  8
_0-1_レイヤ___3
  6
CONTINUOUS
 62
    7
 10
4147.5215130883234
 20
10469.116770693026
 40
421.93378546990107
 50
275.98762352174981
 51
289.07257752973084
  0
ARC
  8
_0-1_レイヤ___3
  6
CONTINUOUS
 62
    7
 10
4136.8119729612963
 20
10543.581941679005
 40
497.11822129585721
 50
269.87702048518202
 51
276.31995190691799
  0
ARC
  8
_0-1_レイヤ___3
  6
CONTINUOUS
 62
    7
 10
3268.0773129267836
 20
10136.864055111695
 40
100.75331131326293
 50
144.59559624777279
 51
147.4554239348027
  0
ARC
  8
_0-1_レイヤ___3
  6
CONTINUOUS
 62
    7
 10
3356.2484252304803
 20
10074.411363475112
 40
208.80176608438552
 50
138.63276352575616
 51
144.64423277713306
  0
ARC
  8
_0-1_レイヤ___3
  6
CONTINUOUS
 62
    7
 10
3429.7374105803892
 20
10011.8442922704
 40
305.30820552446175
 50
128.77234981341056
 51
138.93522570002384
  0
ARC
  8
_0-1_レイヤ___3
  6
CONTINUOUS
 62
    7
 10
3466.8369067735489
 20
9968.371577944823
 40
362.43800299241201
 50
108.64653575148515
 51
129.04116467412436
  0
ARC
  8
_0-1_レイヤ___3
  6
CONTINUOUS
 62
    7
 10
3488.8272077596912
 20
9912.9762153736719
 40
421.96811429374492
 50
95.984239010059753
 51
109.07079207541342
  0
ARC
  8
_0-1_レイヤ___3
  6
CONTINUOUS
 62
    7
 10
3499.5756037211731
 20
9838.2288048303435
 40
497.43720610568312
 50
89.876828286418601
 51
96.317927691436694
  0
ARC
  8
_0-1_レイヤ___3
  6
CONTINUOUS
 62
    7
 10
3733.2126270732165
 20
10136.864055111695
 40
100.75331131326293
 50
32.544576065197333
 51
35.404403752227225
  0
ARC
  8
_0-1_レイヤ___3
  6
CONTINUOUS
 62
    7
 10
3645.0415147695194
 20
10074.411363475116
 40
208.8017660843839
 50
35.355767222866348
 51
41.367236474243263
  0
ARC
  8
_0-1_レイヤ___3
  6
CONTINUOUS
 62
    7
 10
3571.5525289196112
 20
10011.844286647438
 40
305.30820959523646
 50
41.064775033949537
 51
51.227650920562823
  0
ARC
  8
_0-1_レイヤ___3
  6
CONTINUOUS
 62
    7
 10
3534.4530327264515
 20
9968.3715807244535
 40
362.43800051855209
 50
50.958835110488486
 51
71.353464033127693
  0
ARC
  8
_0-1_レイヤ___3
  6
CONTINUOUS
 62
    7
 10
3512.4627317403092
 20
9912.9762110145057
 40
421.96811857702875
 50
70.929208053815913
 51
84.015761119169582
  0
ARC
  8
_0-1_レイヤ___3
  6
CONTINUOUS
 62
    7
 10
3501.7143352788275
 20
9838.2288048303417
 40
497.43720610568568
 50
83.682072308563335
 51
90.123171713581428
  0
ARC
  8
_0-1_レイヤ___3
  6
CONTINUOUS
 62
    7
 10
4525.3422205972038
 20
10144.758611797966
 40
85.687131946333949
 50
144.22233369227664
 51
147.28839169838002
  0
ARC
  8
_0-1_レイヤ___3
  6
CONTINUOUS
 62
    7
 10
4587.9333291834591
 20
10100.105046321731
 40
162.57352260624702
 50
139.79746805852392
 51
144.35142471936425
  0
ARC
  8
_0-1_レイヤ___3
  6
CONTINUOUS
 62
    7
 10
4644.1551428374296
 20
10053.353656136806
 40
235.69226138958658
 50
128.64561369218239
 51
139.9393162133733
  0
ARC
  8
_0-1_レイヤ___3
  6
CONTINUOUS
 62
    7
 10
4675.9280563157245
 20
10016.650635541526
 40
284.20673230090256
 50
110.99190648966881
 51
129.02750531113188
  0
ARC
  8
_0-1_レイヤ___3
  6
CONTINUOUS
 62
    7
 10
4693.5448325323432
 20
9975.7474617603439
 40
328.71106836472171
 50
95.23989776005088
 51
111.30471065578651
  0
ARC
  8
_0-1_レイヤ___3
  6
CONTINUOUS
 62
    7
 10
4703.0585005151197
 20
9909.5217797552341
 40
395.54367739998446
 50
89.900565307281127
 51
95.736139487848547
  0
ARC
  8
_0-1_レイヤ___3
  6
CONTINUOUS
 62
    7
 10
4882.0522574000679
 20
10144.69365161669
 40
85.802528749314291
 50
32.713670581035714
 51
35.775604028307619
  0
ARC
  8
_0-1_レイヤ___3
  6
CONTINUOUS
 62
    7
 10
4819.3771080191218
 20
10099.843182261238
 40
162.87201205520404
 50
35.686637311100895
 51
40.234408467315632
  0
ARC
  8
_0-1_レイヤ___3
  6
CONTINUOUS
 62
    7
 10
4763.1075883337526
 20
10053.040033641475
 40
236.0603457731514
 50
40.085019287030654
 51
51.364546888739845
  0
ARC
  8
_0-1_レイヤ___3
  6
CONTINUOUS
 62
    7
 10
4730.5795676090074
 20
10015.304495598168
 40
285.85213691888589
 50
50.994118672633938
 51
70.768553175550778
  0
ARC
  8
_0-1_レイヤ___3
  6
CONTINUOUS
 62
    7
 10
4712.3525075039561
 20
9969.9544809317631
 40
334.68285969358885
 50
70.379545261701679
 51
85.909701547331878
  0
ARC
  8
_0-1_レイヤ___3
  6
CONTINUOUS
 62
    7
 10
4704.1991048106629
 20
9903.8590017582137
 40
401.2061167858443
 50
85.42155502647617
 51
90.06485712062026
  0
ARC
  8
_0-1_レイヤ___3
  6
CONTINUOUS
 62
    7
 10
5026.3422135971605
 20
10237.371115202033
 40
85.68713194629882
 50
212.71160830163598
 51
215.77766630773934
  0
ARC
  8
_0-1_レイヤ___3
  6
CONTINUOUS
 62
    7
 10
5088.9333216834584
 20
10282.024668103368
 40
162.57351487113877
 50
215.6485717820467
 51
220.20252844288706
  0
ARC
  8
_0-1_レイヤ___3
  6
CONTINUOUS
 62
    7
 10
5145.1551353374289
 20
10328.776075920005
 40
235.69226502682301
 50
220.06068464925102
 51
231.35438717044192
  0
ARC
  8
_0-1_レイヤ___3
  6
CONTINUOUS
 62
    7
 10
5176.9280493157239
 20
10365.479091458476
 40
284.20673230090256
 50
230.97249468886812
 51
249.00809351033121
  0
ARC
  8
_0-1_レイヤ___3
  6
CONTINUOUS
 62
    7
 10
5194.5448255323436
 20
10406.382265239663
 40
328.71106836472558
 50
248.69528934421368
 51
264.76010223994928
  0
ARC
  8
_0-1_レイヤ___3
  6
CONTINUOUS
 62
    7
 10
5204.0584935151201
 20
10472.607947244769
 40
395.54367739998446
 50
264.26386051215144
 51
270.09943469271889
  0
ARC
  8
_0-1_レイヤ___3
  6
CONTINUOUS
 62
    7
 10
5383.010595812525
 20
10237.39635671735
 40
85.731971558112647
 50
324.22313568968741
 51
327.28758970092554
  0
ARC
  8
_0-1_レイヤ___3
  6
CONTINUOUS
 62
    7
 10
5320.3920047659221
 20
10282.074987124006
 40
162.65530541513715
 50
319.79861352195292
 51
324.35027925592732
  0
ARC
  8
_0-1_レイヤ___3
  6
CONTINUOUS
 62
    7
 10
5264.1763201103695
 20
10328.790502511083
 40
235.74627358302268
 50
308.65641323357414
 51
319.94577183701176
  0
ARC
  8
_0-1_レイヤ___3
  6
CONTINUOUS
 62
    7
 10
5231.6520412381888
 20
10366.508648598377
 40
285.52275923748948
 50
289.23484954955984
 51
309.02520763831461
  0
ARC
  8
_0-1_レイヤ___3
  6
CONTINUOUS
 62
    7
 10
5213.3728799628461
 20
10411.957220456572
 40
334.46393574591821
 50
274.08948010602842
 51
289.62648034847984
  0
ARC
  8
_0-1_レイヤ___3
  6
CONTINUOUS
 62
    7
 10
5205.2006565325382
 20
10478.231147655228
 40
401.16654099227435
 50
269.93491385974318
 51
274.57867413198187
  0
ARC
  8
_0-1_レイヤ___3
  6
CONTINUOUS
 62
    7
 10
6175.1772699267367
 20
10245.265671888299
 40
100.75331131322194
 50
212.54457606520913
 51
215.40440375223901
  0
ARC
  8
_0-1_レイヤ___3
  6
CONTINUOUS
 62
    7
 10
6263.3483817304796
 20
10307.718354002554
 40
208.80176016648289
 50
215.35576517119864
 51
221.36723442257554
  0
ARC
  8
_0-1_レイヤ___3
  6
CONTINUOUS
 62
    7
 10
6336.8373670803885
 20
10370.285440352563
 40
305.30820959523527
 50
221.06477503394933
 51
231.22765092056261
  0
ARC
  8
_0-1_レイヤ___3
  6
CONTINUOUS
 62
    7
 10
6373.9368632735477
 20
10413.758146275548
 40
362.43800051855146
 50
230.95883511048842
 51
251.35346403312761
  0
ARC
  8
_0-1_レイヤ___3
  6
CONTINUOUS
 62
    7
 10
6395.9271642596905
 20
10469.153515985501
 40
421.96811857703369
 50
250.92920805381607
 51
264.01576111916972
  0
ARC
  8
_0-1_レイヤ___3
  6
CONTINUOUS
 62
    7
 10
6406.6755607211735
 20
10543.900922169661
 40
497.43720610568812
 50
263.68207230856331
 51
270.12317171358143
  0
ARC
  8
_0-1_レイヤ___3
  6
CONTINUOUS
 62
    7
 10
6640.3125830732624
 20
10245.265671888299
 40
100.75331131322194
 50
324.59559624776097
 51
327.45542393479087
  0
ARC
  8
_0-1_レイヤ___3
  6
CONTINUOUS
 62
    7
 10
6552.1414712695196
 20
10307.718354002558
 40
208.80176016648622
 50
318.63276557742324
 51
324.64423482880017
  0
ARC
  8
_0-1_レイヤ___3
  6
CONTINUOUS
 62
    7
 10
6478.6524859196106
 20
10370.285440352563
 40
305.30820959523527
 50
308.77234907943739
 51
318.93522496605067
  0
ARC
  8
_0-1_レイヤ___3
  6
CONTINUOUS
 62
    7
 10
6441.5529897264514
 20
10413.758146275548
 40
362.43800051855146
 50
288.64653596687236
 51
309.04116488951161
  0
ARC
  8
_0-1_レイヤ___3
  6
CONTINUOUS
 62
    7
 10
6419.5626887403087
 20
10469.153515985501
 40
421.96811857703369
 50
275.98423888083028
 51
289.07079194618393
  0
ARC
  8
_0-1_レイヤ___3
  6
CONTINUOUS
 62
    7
 10
6408.8142922788284
 20
10543.900922169647
 40
497.43720610567294
 50
269.87682828641869
 51
276.31792769143675
  0
ARC
  8
_0-1_レイヤ___3
  6
CONTINUOUS
 62
    7
 10
5540.1358774185173
 20
10136.627503281741
 40
100.93010227786282
 50
144.50212566873279
 51
147.36012017610801
  0
ARC
  8
_0-1_レイヤ___3
  6
CONTINUOUS
 62
    7
 10
5628.3695471263927
 20
10074.232056271167
 40
208.99619450304266
 50
138.6141993796889
 51
144.62177519628176
  0
ARC
  8
_0-1_レイヤ___3
  6
CONTINUOUS
 62
    7
 10
5701.9104815690162
 20
10011.582808269701
 40
305.59542888809415
 50
128.76110525464961
 51
138.91711914959737
  0
ARC
  8
_0-1_レイヤ___3
  6
CONTINUOUS
 62
    7
 10
5739.008644335725
 20
9968.0573768509767
 40
362.76505364824754
 50
108.64440277668834
 51
129.02607137185763
  0
ARC
  8
_0-1_レイヤ___3
  6
CONTINUOUS
 62
    7
 10
5760.9508109280341
 20
9912.7376163916269
 40
422.2078773497347
 50
95.984053535164293
 51
109.06580942457414
  0
ARC
  8
_0-1_レイヤ___3
  6
CONTINUOUS
 62
    7
 10
5771.6784383483646
 20
9838.1757922208435
 40
497.49021243479604
 50
89.877171789659343
 51
96.317584188195951
  0
ARC
  8
_0-1_レイヤ___3
  6
CONTINUOUS
 62
    7
 10
6005.2204605955449
 20
10136.604825622162
 40
100.97057184268152
 50
32.640452692637687
 51
35.497301462542985
  0
ARC
  8
_0-1_レイヤ___3
  6
CONTINUOUS
 62
    7
 10
5916.9578159439207
 20
10074.182544247664
 40
209.07582711155086
 50
35.379369932403733
 51
41.384655491620954
  0
ARC
  8
_0-1_レイヤ___3
  6
CONTINUOUS
 62
    7
 10
5843.4223182357146
 20
10011.574452762146
 40
305.6439400285019
 50
41.077030819156093
 51
51.230071178722717
  0
ARC
  8
_0-1_レイヤ___3
  6
CONTINUOUS
 62
    7
 10
5806.3924915569396
 20
9968.115877061693
 40
362.71881313437632
 50
50.968265029241259
 51
71.34834199623468
  0
ARC
  8
_0-1_レイヤ___3
  6
CONTINUOUS
 62
    7
 10
5784.5214885883233
 20
9913.0129606666815
 40
421.93378118613651
 50
70.927422340987263
 51
84.012376348968317
  0
ARC
  8
_0-1_レイヤ___3
  6
CONTINUOUS
 62
    7
 10
5773.8119484612971
 20
9838.5477764375537
 40
497.11823018035136
 50
83.680048148512199
 51
90.122979570248162
  0
ARC
  8
_0-1_レイヤ___3
  6
CONTINUOUS
 62
    7
 10
6797.3421865972032
 20
10144.758611797955
 40
85.687131946339932
 50
144.22233369227075
 51
147.28839169837414
  0
ARC
  8
_0-1_レイヤ___3
  6
CONTINUOUS
 62
    7
 10
6859.9332951834594
 20
10100.105046321725
 40
162.57352260625143
 50
139.79746805852193
 51
144.35142471936226
  0
ARC
  8
_0-1_レイヤ___3
  6
CONTINUOUS
 62
    7
 10
6916.1551093374292
 20
10053.353651079999
 40
235.69226502682088
 50
128.64561282955856
 51
139.93931535074947
  0
ARC
  8
_0-1_レイヤ___3
  6
CONTINUOUS
 62
    7
 10
6947.9280228157231
 20
10016.650638692066
 40
284.20672953857724
 50
110.99190681131051
 51
129.0275056327736
  0
ARC
  8
_0-1_レイヤ___3
  6
CONTINUOUS
 62
    7
 10
6965.5447985323426
 20
9975.7474617603402
 40
328.71106836472558
 50
95.239897760050724
 51
111.30471065578634
  0
ARC
  8
_0-1_レイヤ___3
  6
CONTINUOUS
 62
    7
 10
6975.0584670151202
 20
9909.5217699453515
 40
395.54368721071808
 50
89.900565237320635
 51
95.736139417888069
  0
ARC
  8
_0-1_レイヤ___3
  6
CONTINUOUS
 62
    7
 10
7154.1476494027975
 20
10144.758611797955
 40
85.687131946339932
 50
32.711608301625859
 51
35.777666307729241
  0
ARC
  8
_0-1_レイヤ___3
  6
CONTINUOUS
 62
    7
 10
7091.5565408165412
 20
10100.105046321725
 40
162.57352260625143
 50
35.648575280637729
 51
40.202531941478085
  0
ARC
  8
_0-1_レイヤ___3
  6
CONTINUOUS
 62
    7
 10
7035.3347266625697
 20
10053.353651079993
 40
235.69226502682505
 50
40.060684649251506
 51
51.354387170442408
  0
ARC
  8
_0-1_レイヤ___3
  6
CONTINUOUS
 62
    7
 10
7003.5618131842766
 20
10016.650638692066
 40
284.20672953857724
 50
50.972494367226417
 51
69.008093188689486
  0
ARC
  8
_0-1_レイヤ___3
  6
CONTINUOUS
 62
    7
 10
6985.945037467658
 20
9975.7474617603439
 40
328.71106836472171
 50
68.695289344213506
 51
84.760102239949134
  0
ARC
  8
_0-1_レイヤ___3
  6
CONTINUOUS
 62
    7
 10
6976.4313694848806
 20
9909.5217797552341
 40
395.54367739998446
 50
84.263860512151453
 51
90.099434692718887
  0
ARC
  8
_0-1_レイヤ___3
  6
CONTINUOUS
 62
    7
 10
1258.9782582283135
 20
1531.49981247494
 40
322.86645423007093
 50
225.78374280400382
 51
234.48530906723587
  0
ARC
  8
_0-1_レイヤ___3
  6
CONTINUOUS
 62
    7
 10
1287.0750795293543
 20
1577.9510172961297
 40
328.54040189759274
 50
216.1602219531365
 51
233.83977804686361
  0
ARC
  8
_0-1_レイヤ___3
  6
CONTINUOUS
 62
    7
 10
1305.9734668599936
 20
1610.1348613671323
 40
319.80199237876326
 50
211.95106859609641
 51
233.24850105482085
  0
ARC
  8
_0-1_レイヤ___3
  6
CONTINUOUS
 62
    7
 10
1316.8815775951025
 20
1632.3568934013038
 40
300.64381584158104
 50
215.09716256927703
 51
233.11249001030012
  0
ARC
  8
_0-1_レイヤ___3
  6
CONTINUOUS
 62
    7
 10
1370.5135680187932
 20
1673.3077895608135
 40
368.0793360330357
 50
203.83297613617324
 51
215.51256868331799
  0
ARC
  8
_0-1_レイヤ___3
  6
CONTINUOUS
 62
    7
 10
1429.5894317776283
 20
1702.1528649729798
 40
433.7804091810317
 50
202.07959426546722
 51
204.16510307401981
  0
ARC
  8
_0-1_レイヤ___3
  6
CONTINUOUS
 62
    7
 10
1331.333730265261
 20
1657.7996815560973
 40
288.38953429126542
 50
213.17884231772211
 51
233.06087103453638
  0
ARC
  8
_0-1_レイヤ___3
  6
CONTINUOUS
 62
    7
 10
1386.0964725405313
 20
1697.7064211079746
 40
356.07977766034662
 50
203.6092939490922
 51
213.73099761264072
  0
ARC
  8
_0-1_レイヤ___3
  6
CONTINUOUS
 62
    7
 10
1345.8237176802061
 20
1682.544682220316
 40
277.67977996295417
 50
214.6021699485745
 51
233.23462142441878
  0
ARC
  8
_0-1_レイヤ___3
  6
CONTINUOUS
 62
    7
 10
1382.3951262294679
 20
1710.8498725936931
 40
323.86594314953919
 50
208.66461676968956
 51
215.04983927038674
  0
ARC
  8
_0-1_レイヤ___3
  6
CONTINUOUS
 62
    7
 10
1352.4698159217478
 20
1700.5692574446809
 40
252.20794497612243
 50
215.05865545026398
 51
234.16708709277663
  0
ARC
  8
_0-1_レイヤ___3
  6
CONTINUOUS
 62
    7
 10
1380.7283423097142
 20
1747.3481728663182
 40
252.0739776470769
 50
229.56034563842366
 51
235.46394256768122
  0
ARC
  8
_0-1_レイヤ___3
  6
CONTINUOUS
 62
    7
 10
2311.9032999482765
 20
693.38425145759265
 40
1367.28880357203
 50
140.90015778083014
 51
157.33324390087853
  0
ARC
  8
_0-1_レイヤ___3
  6
CONTINUOUS
 62
    7
 10
2179.1736135600977
 20
753.50100710695756
 40
1198.8310930679374
 50
153.89661831676321
 51
165.33046496730313
  0
ARC
  8
_0-1_レイヤ___3
  6
CONTINUOUS
 62
    7
 10
2267.7275130533239
 20
716.78407374985682
 40
1294.5216643637896
 50
139.60534835494119
 51
154.1617890487156
  0
ARC
  8
_0-1_レイヤ___3
  6
CONTINUOUS
 62
    7
 10
2027.4885318352626
 20
807.63640176598074
 40
1011.6492107287058
 50
160.21101800056221
 51
170.12707954963534
  0
ARC
  8
_0-1_レイヤ___3
  6
CONTINUOUS
 62
    7
 10
2210.3665926535809
 20
747.45753076851884
 40
1204.1131660038475
 50
137.83774666785763
 51
160.46271507077191
  0
LINE
  8
_0-1_レイヤ___3
  6
CONTINUOUS
 62
    7
 10
1056.4213638765177
 20
857.09730964329299
 11
1056.4213638765177
 21
863.29730964329326
  0
ARC
  8
_0-1_レイヤ___3
  6
CONTINUOUS
 62
    7
 10
1783.306684785528
 20
862.58189878257076
 40
726.88567296769224
 50
170.89420635162145
 51
179.9436086979297
  0
ARC
  8
_0-1_レイヤ___3
  6
CONTINUOUS
 62
    7
 10
1960.3496997699358
 20
838.12879985359245
 40
905.57573881088092
 50
162.01528616476574
 51
171.13928481994577
  0
ARC
  8
_0-1_レイヤ___3
  6
CONTINUOUS
 62
    7
 10
2149.0723598854274
 20
781.07508985267077
 40
1102.7005675886608
 50
137.81433942529443
 51
162.22336454823412
  0
ARC
  8
_0-1_レイヤ___3
  6
CONTINUOUS
 62
    7
 10
2007.1390314027694
 20
901.24322831278073
 40
916.85616950936083
 50
134.45486833330199
 51
137.42239467480047
  0
LINE
  8
_0-1_レイヤ___3
  6
CONTINUOUS
 62
    7
 10
1094.621363876518
 20
879.09730964329299
 11
1094.621363876518
 21
885.29730964329337
  0
ARC
  8
_0-1_レイヤ___3
  6
CONTINUOUS
 62
    7
 10
1753.7933785794587
 20
884.84402646494868
 40
659.17217055422896
 50
171.594779635989
 51
179.96060025551685
  0
ARC
  8
_0-1_レイヤ___3
  6
CONTINUOUS
 62
    7
 10
1904.8358588460901
 20
865.70309324371533
 40
811.39628454276601
 50
163.47310114477233
 51
171.81672053166756
  0
ARC
  8
_0-1_レイヤ___3
  6
CONTINUOUS
 62
    7
 10
2088.92096101175
 20
813.63832827528131
 40
1002.6897737372969
 50
137.12907989558838
 51
163.61321799105932
  0
ARC
  8
_0-1_レイヤ___3
  6
CONTINUOUS
 62
    7
 10
1939.4610651320572
 20
945.09135605882625
 40
803.73620041047957
 50
130.56141439849904
 51
136.74808458899665
  0
LINE
  8
_0-1_レイヤ___3
  6
CONTINUOUS
 62
    7
 10
1134.4213638765177
 20
906.49730964329308
 11
1134.4213638765177
 21
908.29730964329326
  0
ARC
  8
_0-1_レイヤ___3
  6
CONTINUOUS
 62
    7
 10
1740.4293044434162
 20
907.58072444257948
 40
606.00836423640499
 50
170.26828723208013
 51
179.93224958655134
  0
ARC
  8
_0-1_レイヤ___3
  6
CONTINUOUS
 62
    7
 10
1896.8407664357942
 20
884.67377955783661
 40
764.05090763058411
 50
160.9069521610088
 51
170.55787426020831
  0
ARC
  8
_0-1_レイヤ___3
  6
CONTINUOUS
 62
    7
 10
2043.6390372115441
 20
837.91039241629858
 40
918.07803451271002
 50
139.155812268576
 51
161.14580986103186
  0
ARC
  8
_0-1_レイヤ___3
  6
CONTINUOUS
 62
    7
 10
1916.1255466061511
 20
943.02731769857155
 40
752.87829558584872
 50
130.87624676355463
 51
138.86096292566251
  0
LINE
  8
_0-1_レイヤ___3
  6
CONTINUOUS
 62
    7
 10
1172.0213638765181
 20
928.29730764329292
 11
1172.0213638765181
 21
930.09730764329322
  0
ARC
  8
_0-1_レイヤ___3
  6
CONTINUOUS
 62
    7
 10
1717.3045719737302
 20
928.94926115082808
 40
545.28441665202263
 50
170.40941534171793
 51
179.87936888476776
  0
ARC
  8
_0-1_レイヤ___3
  6
CONTINUOUS
 62
    7
 10
1863.1384412932944
 20
907.55570474459273
 40
692.65174149245638
 50
159.69682330056892
 51
170.6743133154329
  0
ARC
  8
_0-1_レイヤ___3
  6
CONTINUOUS
 62
    7
 10
1993.2832661288653
 20
864.48125371763865
 40
829.67058873529584
 50
138.58296188160676
 51
160.02557274128779
  0
ARC
  8
_0-1_レイヤ___3
  6
CONTINUOUS
 62
    7
 10
1874.6224538012025
 20
962.52086465910054
 40
675.84684055060382
 50
131.88275476284679
 51
138.16103042097495
  0
LINE
  8
_0-1_レイヤ___3
  6
CONTINUOUS
 62
    7
 10
1218.2213618765177
 20
954.29730764329304
 11
1218.2213618765177
 21
956.69730764329279
  0
ARC
  8
_0-1_レイヤ___3
  6
CONTINUOUS
 62
    7
 10
1694.840347814478
 20
956.10780991252921
 40
476.61935049272188
 50
168.55312797542274
 51
179.92913476848605
  0
ARC
  8
_0-1_レイヤ___3
  6
CONTINUOUS
 62
    7
 10
1839.0983817421097
 20
931.36850203321217
 40
622.93312622532437
 50
157.19476100981277
 51
168.95618671731285
  0
ARC
  8
_0-1_レイヤ___3
  6
CONTINUOUS
 62
    7
 10
1929.3172156676274
 20
898.39391923019662
 40
718.89483003267162
 50
137.8659237441376
 51
157.55914498529413
  0
ARC
  8
_0-1_レイヤ___3
  6
CONTINUOUS
 62
    7
 10
1825.9113930271787
 20
984.41333703934788
 40
584.53044594270614
 50
133.5170053288642
 51
137.31880449562718
  0
LINE
  8
_0-1_レイヤ___3
  6
CONTINUOUS
 62
    7
 10
1268.4213618765175
 20
984.29730764329304
 11
1268.4213618765175
 21
985.49730764329286
  0
ARC
  8
_0-1_レイヤ___3
  6
CONTINUOUS
 62
    7
 10
1665.7797842350687
 20
984.82916896072766
 40
397.35898407935315
 50
168.74599458170306
 51
179.90366004994746
  0
ARC
  8
_0-1_レイヤ___3
  6
CONTINUOUS
 62
    7
 10
1783.2018897676012
 20
964.93006876459901
 40
516.41793056103211
 50
157.27853868985369
 51
169.12316598561824
  0
ARC
  8
_0-1_レイヤ___3
  6
CONTINUOUS
 62
    7
 10
1855.4964130164371
 20
938.46470772209966
 40
593.33461076972571
 50
139.144417754843
 51
157.61771777170918
  0
ARC
  8
_0-1_レイヤ___3
  6
CONTINUOUS
 62
    7
 10
1781.44187145858
 20
997.61480432918961
 40
498.64310549257192
 50
135.88873793308625
 51
138.71877640554956
  0
LINE
  8
_0-1_レイヤ___3
  6
CONTINUOUS
 62
    7
 10
1303.0213618765179
 20
1004.4973076432929
 11
1303.0213618765179
 21
1005.6973076432927
  0
ARC
  8
_0-1_レイヤ___3
  6
CONTINUOUS
 62
    7
 10
1643.6580820444074
 20
1005.1489200880394
 40
340.63716158934824
 50
167.73058654625635
 51
179.90776019304786
  0
ARC
  8
_0-1_レイヤ___3
  6
CONTINUOUS
 62
    7
 10
1755.2477454261139
 20
984.49474722747027
 40
454.08094796485568
 50
154.62915000510768
 51
168.1761778978387
  0
ARC
  8
_0-1_レイヤ___3
  6
CONTINUOUS
 62
    7
 10
1807.5494463233481
 20
964.04013609809692
 40
510.11775201591195
 50
138.85252751828477
 51
155.07036072778286
  0
LINE
  8
_0-1_レイヤ___3
  6
CONTINUOUS
 62
    7
 10
1339.4213598765173
 20
1025.4973076432927
 11
1339.4213598765173
 21
1026.6973076432928
  0
ARC
  8
_0-1_レイヤ___3
  6
CONTINUOUS
 62
    7
 10
1623.2059412401316
 20
1026.0891358464639
 40
283.78523304191879
 50
166.67438705230549
 51
179.87721100398127
  0
ARC
  8
_0-1_レイヤ___3
  6
CONTINUOUS
 62
    7
 10
1718.6475824941942
 20
1007.1785792038442
 40
381.03276560900105
 50
153.61038200222353
 51
167.21519000265528
  0
ARC
  8
_0-1_レイヤ___3
  6
CONTINUOUS
 62
    7
 10
1759.136403956149
 20
990.59857516502325
 40
424.68334012226296
 50
142.2328926735197
 51
154.03454810920076
  0
ARC
  8
_0-1_レイヤ___3
  6
CONTINUOUS
 62
    7
 10
1591.1551235216029
 20
1051.7382650910019
 40
207.53407422456743
 50
168.0196774415254
 51
179.90087587664468
  0
ARC
  8
_0-1_レイヤ___3
  6
CONTINUOUS
 62
    7
 10
1658.0334420576241
 20
1039.4048402224719
 40
275.52182735323618
 50
155.24941161559659
 51
168.39764163326993
  0
ARC
  8
_0-1_レイヤ___3
  6
CONTINUOUS
 62
    7
 10
1698.4360725557428
 20
1023.4467642432928
 40
318.90338585281592
 50
149.58444664928714
 51
155.68477687597556
  0
ARC
  8
_0-1_レイヤ___3
  6
CONTINUOUS
 62
    7
 10
1576.9056172816299
 20
1071.0307369297223
 40
159.68493901863994
 50
163.98080044153221
 51
179.83259250158159
  0
LINE
  8
_0-1_レイヤ___3
  6
CONTINUOUS
 62
    7
 10
932.62136587651753
 20
1554.497299643293
 11
932.62136587651753
 21
781.69731164329301
  0
LINE
  8
_0-1_レイヤ___3
  6
CONTINUOUS
 62
    7
 10
932.62136587651753
 20
781.69731164329301
 11
1036.4213658765179
 21
844.89730964329306
  0
ARC
  8
_0-1_レイヤ___3
  6
CONTINUOUS
 62
    7
 10
1247.7606172152127
 20
923.50815566639653
 40
225.48601790103965
 50
191.72728581759924
 51
200.4034493023108
  0
ARC
  8
_0-1_レイヤ___3
  6
CONTINUOUS
 62
    7
 10
1145.0006283646958
 20
900.78021396740655
 40
120.25926370331152
 50
179.99185501349859
 51
191.07589714191516
  0
ARC
  8
_0-1_レイヤ___3
  6
CONTINUOUS
 62
    7
 10
1103.627800463657
 20
899.62899687316371
 40
78.895085503469531
 50
155.49117929586657
 51
179.15150814256202
  0
ARC
  8
_0-1_レイヤ___3
  6
CONTINUOUS
 62
    7
 10
968.0777164208132
 20
965.67980459061187
 40
71.945755918706169
 50
332.40870430694764
 51
344.78423864401861
  0
ARC
  8
_0-1_レイヤ___3
  6
CONTINUOUS
 62
    7
 10
1010.7894814868894
 20
953.99530423610827
 40
27.664705358905472
 50
344.91884186646138
 51
20.97307001745849
  0
ARC
  8
_0-1_レイヤ___3
  6
CONTINUOUS
 62
    7
 10
1304.1530363308289
 20
1061.5085184738211
 40
284.78262442760774
 50
181.86561638028027
 51
200.04492888354736
  0
ARC
  8
_0-1_レイヤ___3
  6
CONTINUOUS
 62
    7
 10
1250.9776238552456
 20
1057.096260498874
 40
231.50725427158508
 50
165.3065909527447
 51
181.2026315801844
  0
ARC
  8
_0-1_レイヤ___3
  6
CONTINUOUS
 62
    7
 10
1193.8727258185008
 20
1070.4008376030097
 40
172.9027421105452
 50
158.2121515634143
 51
164.77141435012092
  0
ARC
  8
_0-1_レイヤ___3
  6
CONTINUOUS
 62
    7
 10
1117.7926211438114
 20
1100.8998544982019
 40
90.937141378329315
 50
153.20286832217883
 51
158.26355481275519
  0
ARC
  8
_0-1_レイヤ___3
  6
CONTINUOUS
 62
    7
 10
878.25979170867924
 20
1208.6980818090676
 40
171.87417452679074
 50
337.12879594196494
 51
357.43201766305231
  0
ARC
  8
_0-1_レイヤ___3
  6
CONTINUOUS
 62
    7
 10
817.55234310523747
 20
1214.0080659230016
 40
232.77292125795975
 50
356.79580222184865
 51
19.758205968593984
  0
ARC
  8
_0-1_レイヤ___3
  6
CONTINUOUS
 62
    7
 10
1229.0838519544996
 20
1370.1643433158165
 40
207.46795121883696
 50
166.57936114817886
 51
201.9250129828784
  0
ARC
  8
_0-1_レイヤ___3
  6
CONTINUOUS
 62
    7
 10
1181.700827421982
 20
1379.4795208055564
 40
159.22858827607246
 50
155.66330457472461
 51
165.882448104128
  0
ARC
  8
_0-1_レイヤ___3
  6
CONTINUOUS
 62
    7
 10
934.70892384520596
 20
1479.4935236187587
 40
107.56042918736892
 50
341.35007120767835
 51
2.0372957132043799
  0
ARC
  8
_0-1_レイヤ___3
  6
CONTINUOUS
 62
    7
 10
958.67393756474769
 20
1479.1274492904961
 40
83.632444614796981
 50
2.8716280629212871
 51
16.884044516791604
  0
ARC
  8
_0-1_レイヤ___3
  6
CONTINUOUS
 62
    7
 10
994.69087064809969
 20
1489.8473467137119
 40
46.055044639210365
 50
17.136334957228584
 51
24.433350515387225
  0
ARC
  8
_0-1_レイヤ___3
  6
CONTINUOUS
 62
    7
 10
1235.8672868022961
 20
1584.5911124127485
 40
213.13960283611982
 50
191.65383178673804
 51
200.80185644935952
  0
ARC
  8
_0-1_レイヤ___3
  6
CONTINUOUS
 62
    7
 10
1166.1707287599638
 20
1568.763599759166
 40
141.68979051537872
 50
185.86001821126123
 51
191.0785324635643
  0
ARC
  8
_0-2_決定
  6
CONTINUOUS
 62
    7
 10
769.6300605171399
 20
1208.205776813533
 40
5.6101996334768609
 50
322.84420314905503
 51
38.48819679130807
  0
ARC
  8
_0-2_決定
  6
CONTINUOUS
 62
    7
 10
764.06321265299312
 20
1211.7124628637594
 40
12.178168210661157
 50
301.03258093953264
 51
325.51501976283487
  0
ARC
  8
_0-2_決定
  6
CONTINUOUS
 62
    7
 10
758.0731577003894
 20
1220.5661536270484
 40
22.859761910865796
 50
277.41004801559842
 51
302.45742115965226
  0
ARC
  8
_0-2_決定
  6
CONTINUOUS
 62
    7
 10
751.09877959249786
 20
1220.2355463980534
 40
24.442890322446324
 50
267.4267327919614
 51
293.95067006305561
  0
ARC
  8
_0-2_決定
  6
CONTINUOUS
 62
    7
 10
750.86219303731639
 20
1207.7576726007842
 40
11.971358626120308
 50
242.10504964711959
 51
265.87647998657775
  0
ARC
  8
_0-2_決定
  6
CONTINUOUS
 62
    7
 10
748.11993699155551
 20
1202.1213507498167
 40
5.7109550639714843
 50
176.22548202810086
 51
239.96420177462076
  0
ARC
  8
_0-2_決定
  6
CONTINUOUS
 62
    7
 10
746.66803767545332
 20
1205.8049357357932
 40
5.3828075809794598
 50
159.64460576648011
 51
217.91420645586621
  0
ARC
  8
_0-2_決定
  6
CONTINUOUS
 62
    7
 10
750.00756465794666
 20
1204.4793606195585
 40
8.9752494391584907
 50
129.97513473354698
 51
159.12643938086094
  0
ARC
  8
_0-2_決定
  6
CONTINUOUS
 62
    7
 10
756.04426222942095
 20
1198.1285093858214
 40
17.728769427141255
 50
111.37943850228837
 51
131.73973364037437
  0
ARC
  8
_0-2_決定
  6
CONTINUOUS
 62
    7
 10
759.39245610796547
 20
1190.7575681987589
 40
25.816645365768007
 50
98.399354998208651
 51
112.33550853107147
  0
ARC
  8
_0-2_決定
  6
CONTINUOUS
 62
    7
 10
765.56468442374353
 20
1194.8870910740275
 40
23.606497123593634
 50
87.87169059731589
 51
114.91106202924831
  0
ARC
  8
_0-2_決定
  6
CONTINUOUS
 62
    7
 10
765.6762961485407
 20
1206.6352589455123
 40
11.866733351410343
 50
62.251372817027097
 51
86.303454416385918
  0
ARC
  8
_0-2_決定
  6
CONTINUOUS
 62
    7
 10
768.3860241282008
 20
1212.2269600090551
 40
5.6601797698911929
 50
354.63064076115757
 51
60.172212243843589
  0
ARC
  8
_0-2_決定
  6
CONTINUOUS
 62
    7
 10
820.81224156042026
 20
1265.8359502702226
 40
27.107216866988644
 50
283.67629472941502
 51
301.0687674702765
  0
ARC
  8
_0-2_決定
  6
CONTINUOUS
 62
    7
 10
831.96103574694121
 20
1247.0470272117254
 40
5.262122908012385
 50
302.66793200020709
 51
322.96046638624017
  0
ARC
  8
_0-2_決定
  6
CONTINUOUS
 62
    7
 10
835.1285036106799
 20
1244.6837200247815
 40
1.3103877181876289
 50
322.01879957676215
 51
9.3806455248432972
  0
ARC
  8
_0-2_決定
  6
CONTINUOUS
 62
    7
 10
835.25500907196886
 20
1244.5254892985047
 40
1.224189024595387
 50
17.681352118982822
 51
59.226066314377405
  0
ARC
  8
_0-2_決定
  6
CONTINUOUS
 62
    7
 10
833.9979066951355
 20
1242.3472377472715
 40
3.7390843417098116
 50
59.753409495563538
 51
80.712253150863049
  0
ARC
  8
_0-2_決定
  6
CONTINUOUS
 62
    7
 10
832.47119335770947
 20
1234.9252443213454
 40
11.314393746687157
 50
79.148089270144595
 51
91.163909979702424
  0
ARC
  8
_0-2_決定
  6
CONTINUOUS
 62
    7
 10
832.79013567442632
 20
1220.0957193213953
 40
26.147343592704004
 50
91.202584398105827
 51
105.45724051765517
  0
ARC
  8
_0-2_決定
  6
CONTINUOUS
 62
    7
 10
832.13041736935679
 20
1218.3596799112042
 40
27.666580522983239
 50
103.18162594285765
 51
120.42119302985778
  0
ARC
  8
_0-2_決定
  6
CONTINUOUS
 62
    7
 10
821.03794575151881
 20
1237.5688837821776
 40
5.4876437298855301
 50
122.10556855632204
 51
141.8688564352621
  0
ARC
  8
_0-2_決定
  6
CONTINUOUS
 62
    7
 10
817.73547954150615
 20
1240.097838077731
 40
1.3293244628205412
 50
139.71852899625952
 51
188.67644309590824
  0
ARC
  8
_0-2_決定
  6
CONTINUOUS
 62
    7
 10
817.58559721513052
 20
1240.2674269416027
 40
1.2216469247856216
 50
197.63612159441684
 51
239.2712968390021
  0
ARC
  8
_0-2_決定
  6
CONTINUOUS
 62
    7
 10
818.84448442074245
 20
1242.4464105489662
 40
3.7380823061296899
 50
239.75056860498481
 51
260.71509404148259
  0
ARC
  8
_0-2_決定
  6
CONTINUOUS
 62
    7
 10
820.39932465633285
 20
1250.1527850010368
 40
11.598007278762291
 50
259.27690241511738
 51
271.19581420339546
  0
ARC
  8
_0-2_決定
  6
CONTINUOUS
 62
    7
 10
820.05166293628633
 20
1266.1852382248971
 40
27.634227348741756
 50
271.22276511315022
 51
285.03743959517004
  0
ARC
  8
_0-2_決定
  6
CONTINUOUS
 62
    7
 10
794.93296207026503
 20
1524.0844098446773
 40
3.7714559338169638
 50
347.95370605332039
 51
35.552158447987942
  0
ARC
  8
_0-2_決定
  6
CONTINUOUS
 62
    7
 10
790.89427191859784
 20
1521.837721238649
 40
8.3797774055204304
 50
31.991719602776985
 51
46.510953562672547
  0
ARC
  8
_0-2_決定
  6
CONTINUOUS
 62
    7
 10
786.03623498370439
 20
1516.6410767116254
 40
15.493439017681528
 50
46.702804511997478
 51
68.711422490638796
  0
ARC
  8
_0-2_決定
  6
CONTINUOUS
 62
    7
 10
783.12912363124894
 20
1510.6880618926959
 40
22.102493251017812
 50
67.29224842247001
 51
75.611835370672395
  0
ARC
  8
_0-2_決定
  6
CONTINUOUS
 62
    7
 10
783.22480090103397
 20
1511.4065258448247
 40
21.382961803741654
 50
75.381786649928628
 51
95.322271967305738
  0
ARC
  8
_0-2_決定
  6
CONTINUOUS
 62
    7
 10
782.17901207593911
 20
1523.612506331388
 40
9.1330524012915522
 50
95.892649870672628
 51
123.62629159974607
  0
ARC
  8
_0-2_決定
  6
CONTINUOUS
 62
    7
 10
779.32305495901232
 20
1528.3264698478542
 40
3.6337752978714506
 50
127.29328875907392
 51
164.50416285243563
  0
ARC
  8
_0-2_決定
  6
CONTINUOUS
 62
    7
 10
779.15616536730965
 20
1528.3464992572613
 40
3.4676931350206655
 50
164.08636059156859
 51
213.40596393353712
  0
ARC
  8
_0-2_決定
  6
CONTINUOUS
 62
    7
 10
782.5790941850147
 20
1530.1912940973684
 40
7.3488869953415668
 50
210.71879145559865
 51
225.86153492887357
  0
ARC
  8
_0-2_決定
  6
CONTINUOUS
 62
    7
 10
787.55793906403483
 20
1535.3559099141553
 40
14.522580147189874
 50
225.95424449692248
 51
248.35563889752976
  0
ARC
  8
_0-2_決定
  6
CONTINUOUS
 62
    7
 10
791.31975946420994
 20
1543.1192817380283
 40
23.134756271534908
 50
246.78749282647317
 51
255.74055783947091
  0
ARC
  8
_0-2_決定
  6
CONTINUOUS
 62
    7
 10
791.04652386866007
 20
1541.7397183466614
 40
21.730524669850016
 50
255.54284268046513
 51
275.16121593676928
  0
ARC
  8
_0-2_決定
  6
CONTINUOUS
 62
    7
 10
792.08435218632189
 20
1529.7790650402601
 40
9.7250963480042785
 50
275.41067152431236
 51
302.72189192082226
  0
ARC
  8
_0-2_決定
  6
CONTINUOUS
 62
    7
 10
795.15170154876557
 20
1524.5778719371301
 40
3.6984388362769498
 50
306.30272570232751
 51
339.7420815923295
  0
ARC
  8
_0-2_決定
  6
CONTINUOUS
 62
    7
 10
815.0246225556225
 20
1451.4984444787751
 40
4.6011439866017065
 50
269.95947108101029
 51
357.49446887887393
  0
ARC
  8
_0-2_決定
  6
CONTINUOUS
 62
    7
 10
815.20453392899412
 20
1451.4804676957692
 40
4.5868247042314545
 50
182.28860565918316
 51
267.71139434082147
  0
ARC
  8
_0-2_決定
  6
CONTINUOUS
 62
    7
 10
815.20453392899469
 20
1451.1141355908171
 40
4.5868247042319368
 50
92.288605659184569
 51
177.71139434082286
  0
ARC
  8
_0-2_決定
  6
CONTINUOUS
 62
    7
 10
814.90185107067475
 20
1450.9678068008213
 40
4.7310047275235192
 50
3.9936462355431352
 51
88.552413804560658
  0
ARC
  8
_0-2_決定
  6
CONTINUOUS
 62
    7
 10
793.12621118412949
 20
1358.3924583356816
 40
2.2971284332231172
 50
272.37411076096032
 51
357.62588923902854
  0
ARC
  8
_0-2_決定
  6
CONTINUOUS
 62
    7
 10
793.41191460349364
 20
1358.279616849635
 40
2.1906181125408115
 50
179.53744788336138
 51
265.00993012884305
  0
ARC
  8
_0-2_決定
  6
CONTINUOUS
 62
    7
 10
793.65609460868711
 20
1358.301696033152
 40
2.4347306978399299
 50
100.28544591476958
 51
180.10341190069934
  0
ARC
  8
_0-2_決定
  6
CONTINUOUS
 62
    7
 10
793.10416585423411
 20
1358.3815331228664
 40
2.3187324455891964
 50
357.91818570673712
 51
87.102708449259353
  0
ARC
  8
_0-2_決定
  6
CONTINUOUS
 62
    7
 10
803.74273207772376
 20
1301.2063058704348
 40
1.0841294535071953
 50
310.12227875521205
 51
354.22952847622759
  0
ARC
  8
_0-2_決定
  6
CONTINUOUS
 62
    7
 10
802.43307678457995
 20
1302.6249719969924
 40
3.0141742050145326
 50
287.93725269249478
 51
311.78077963733631
  0
ARC
  8
_0-2_決定
  6
CONTINUOUS
 62
    7
 10
801.80471503336662
 20
1304.2867089450303
 40
4.7894342527580154
 50
270.19921759055865
 51
288.96667185652473
  0
ARC
  8
_0-2_決定
  6
CONTINUOUS
 62
    7
 10
801.72063585516355
 20
1303.4559478097574
 40
3.9599255771800972
 50
226.6308074498709
 51
271.4576390888659
  0
ARC
  8
_0-2_決定
  6
CONTINUOUS
 62
    7
 10
799.67296888613816
 20
1301.1009347620086
 40
0.8516087509002667
 50
180.24430045780539
 51
217.94268354325243
  0
ARC
  8
_0-2_決定
  6
CONTINUOUS
 62
    7
 10
799.75096194074013
 20
1301.0184341537172
 40
0.9329338243539885
 50
127.62860890913585
 51
175.15047175890953
  0
ARC
  8
_0-2_決定
  6
CONTINUOUS
 62
    7
 10
800.933863249507
 20
1299.5523128973139
 40
2.8165979873251166
 50
104.65292302565089
 51
128.4771793284738
  0
ARC
  8
_0-2_決定
  6
CONTINUOUS
 62
    7
 10
801.809255677735
 20
1296.6572105435393
 40
5.8401056599308649
 50
89.881170237527385
 51
105.77698278260878
  0
ARC
  8
_0-2_決定
  6
CONTINUOUS
 62
    7
 10
801.90504499784424
 20
1297.226620984005
 40
5.2713468445508287
 50
68.682503743545979
 51
90.909548812957226
  0
ARC
  8
_0-2_決定
  6
CONTINUOUS
 62
    7
 10
803.4022468076455
 20
1300.7335333847616
 40
1.4650028700004212
 50
14.377343315254111
 51
73.376051256612385
  0
ARC
  8
_0-2_決定
  6
CONTINUOUS
 62
    7
 10
824.65255176988592
 20
1327.9841627721655
 40
1.172039077586907
 50
312.30126513387648
 51
355.74994694123319
  0
ARC
  8
_0-2_決定
  6
CONTINUOUS
 62
    7
 10
823.587442523297
 20
1329.1294409222085
 40
2.7360072449674275
 50
287.30670179975505
 51
312.65657693794901
  0
ARC
  8
_0-2_決定
  6
CONTINUOUS
 62
    7
 10
823.04057003886555
 20
1330.6150355340324
 40
4.3177745892232196
 50
269.74519131002967
 51
288.37058494716291
  0
ARC
  8
_0-2_決定
  6
CONTINUOUS
 62
    7
 10
822.91679134239303
 20
1330.9828555448548
 40
4.6867187747626184
 50
248.00332644597964
 51
271.27856857790403
  0
ARC
  8
_0-2_決定
  6
CONTINUOUS
 62
    7
 10
821.74293498186444
 20
1328.3091976909868
 40
1.7701553617508894
 50
193.45538192827553
 51
250.81980761948034
  0
ARC
  8
_0-2_決定
  6
CONTINUOUS
 62
    7
 10
820.98447481152277
 20
1327.8445607831709
 40
0.9645500389033967
 50
128.7022154430129
 51
176.86542828209468
  0
ARC
  8
_0-2_決定
  6
CONTINUOUS
 62
    7
 10
822.07403411862799
 20
1326.4872512266875
 40
2.7050751870874965
 50
103.52568277181481
 51
128.73631831813199
  0
ARC
  8
_0-2_決定
  6
CONTINUOUS
 62
    7
 10
822.92661803294607
 20
1323.1045502701791
 40
6.193476172721021
 50
89.123436052031551
 51
103.87525650722641
  0
ARC
  8
_0-2_決定
  6
CONTINUOUS
 62
    7
 10
823.13750845099946
 20
1324.7163768974965
 40
4.5823967702163939
 50
67.089967754459636
 51
91.452313649539917
  0
ARC
  8
_0-2_決定
  6
CONTINUOUS
 62
    7
 10
824.47231474003786
 20
1327.6392743943622
 40
1.3735077205279269
 50
10.828011217569493
 51
70.916914420004431
  0
ARC
  8
_0-2_決定
  6
CONTINUOUS
 62
    7
 10
835.17907213382102
 20
1492.332886877093
 40
10.84354225010367
 50
345.16911754916612
 51
0.8687676371719709
  0
ARC
  8
_0-2_決定
  6
CONTINUOUS
 62
    7
 10
842.92751862090711
 20
1490.1242242710987
 40
2.7920127660910818
 50
318.5854041893063
 51
348.28449345655304
  0
ARC
  8
_0-2_決定
  6
CONTINUOUS
 62
    7
 10
844.60815072138189
 20
1488.6611155435953
 40
0.5639707994417551
 50
271.3429002822607
 51
317.11259035369505
  0
ARC
  8
_0-2_決定
  6
CONTINUOUS
 62
    7
 10
844.75378983228325
 20
1488.970071152396
 40
0.8827602627385211
 50
213.93255925294028
 51
261.37255374816277
  0
ARC
  8
_0-2_決定
  6
CONTINUOUS
 62
    7
 10
847.1299057022992
 20
1490.7465921396397
 40
3.8487265229276959
 50
195.51181976613344
 51
216.13016418225632
  0
ARC
  8
_0-2_決定
  6
CONTINUOUS
 62
    7
 10
852.39410021743993
 20
1492.4271172463023
 40
9.372995097801164
 50
179.57098102818969
 51
196.80462299560597
  0
ARC
  8
_0-2_決定
  6
CONTINUOUS
 62
    7
 10
852.56377057774387
 20
1492.5602075483901
 40
9.5426100578867867
 50
164.20731390938946
 51
180.37771464467909
  0
ARC
  8
_0-2_決定
  6
CONTINUOUS
 62
    7
 10
847.08290454200551
 20
1494.2899073290357
 40
3.8018078742593495
 50
142.63288690482145
 51
166.8116686240981
  0
ARC
  8
_0-2_決定
  6
CONTINUOUS
 62
    7
 10
844.6652756416978
 20
1496.1426718149585
 40
0.7559041282732941
 50
93.329981121857756
 51
143.02719909811066
  0
ARC
  8
_0-2_決定
  6
CONTINUOUS
 62
    7
 10
844.51303844369136
 20
1496.0993231405587
 40
0.8052960728412952
 50
31.267514771211317
 51
82.269063092808281
  0
ARC
  8
_0-2_決定
  6
CONTINUOUS
 62
    7
 10
842.02274443276508
 20
1494.5147901901669
 40
3.7568192805932026
 50
11.710501188600821
 51
32.210626851607223
  0
ARC
  8
_0-2_決定
  6
CONTINUOUS
 62
    7
 10
834.68624368681105
 20
1492.6009544128242
 40
11.335598118640199
 50
359.4760696765
 51
13.656527564982486
  0
ARC
  8
_0-2_決定
  6
CONTINUOUS
 62
    7
 10
863.60997356358666
 20
1454.0793856024793
 40
11.813404378772145
 50
345.77914377089832
 51
1.0569669187241781
  0
ARC
  8
_0-2_決定
  6
CONTINUOUS
 62
    7
 10
872.23709622333899
 20
1451.7551519753022
 40
2.8827801472106507
 50
319.87444010928078
 51
348.43678478158
  0
ARC
  8
_0-2_決定
  6
CONTINUOUS
 62
    7
 10
874.00303303747876
 20
1450.2768048052758
 40
0.5797931364461832
 50
271.81217057578368
 51
319.11451954794751
  0
ARC
  8
_0-2_決定
  6
CONTINUOUS
 62
    7
 10
874.12595390293859
 20
1450.4895645257257
 40
0.7991362285631629
 50
211.05666892112365
 51
262.47990894294742
  0
ARC
  8
_0-2_決定
  6
CONTINUOUS
 62
    7
 10
876.57608021871226
 20
1452.074478832717
 40
3.7168720981843135
 50
192.06928781923739
 51
212.50188747441504
  0
ARC
  8
_0-2_決定
  6
CONTINUOUS
 62
    7
 10
884.85401099859757
 20
1454.0850502429805
 40
12.2344843949016
 50
179.0059475205922
 51
193.1711087877913
  0
ARC
  8
_0-2_決定
  6
CONTINUOUS
 62
    7
 10
883.46366361921753
 20
1454.4617144094955
 40
10.843542250106516
 50
165.16911754917902
 51
180.8687676371849
  0
ARC
  8
_0-2_決定
  6
CONTINUOUS
 62
    7
 10
875.7152171321286
 20
1456.670377015487
 40
2.7920127660917022
 50
138.5854041892872
 51
168.28449345653394
  0
ARC
  8
_0-2_決定
  6
CONTINUOUS
 62
    7
 10
874.03458503165382
 20
1458.1334857429918
 40
0.5639707994417551
 50
91.3429002822607
 51
137.11259035369503
  0
ARC
  8
_0-2_決定
  6
CONTINUOUS
 62
    7
 10
873.91303844369133
 20
1457.8993251405586
 40
0.8052960728412952
 50
31.267514771211317
 51
82.269063092808281
  0
ARC
  8
_0-2_決定
  6
CONTINUOUS
 62
    7
 10
871.42274443276506
 20
1456.3147921901668
 40
3.7568192805932026
 50
11.710501188600821
 51
32.210626851607223
  0
ARC
  8
_0-2_決定
  6
CONTINUOUS
 62
    7
 10
864.0862436868116
 20
1454.4009564128219
 40
11.335598118640462
 50
359.47606967651154
 51
13.656527564994049
  0
ARC
  8
_0-2_決定
  6
CONTINUOUS
 62
    7
 10
787.3187986190419
 20
1409.2708630214984
 40
9.8502313293552106
 50
154.59144639061961
 51
171.32068573675622
  0
ARC
  8
_0-2_決定
  6
CONTINUOUS
 62
    7
 10
780.39278127452349
 20
1410.2034376093775
 40
2.8654512144773947
 50
168.85513282254877
 51
197.59391239047591
  0
ARC
  8
_0-2_決定
  6
CONTINUOUS
 62
    7
 10
778.39863956971044
 20
1409.5732512104519
 40
0.7741070648342258
 50
197.7462665750123
 51
240.83254715012845
  0
ARC
  8
_0-2_決定
  6
CONTINUOUS
 62
    7
 10
778.30947337672228
 20
1409.6494041409101
 40
0.8053961423856627
 50
249.03982226615202
 51
300.75836264135194
  0
ARC
  8
_0-2_決定
  6
CONTINUOUS
 62
    7
 10
777.26013108180553
 20
1411.4922867450191
 40
2.9259805939537613
 50
299.96035940219252
 51
323.14486689410631
  0
ARC
  8
_0-2_決定
  6
CONTINUOUS
 62
    7
 10
772.67437776616077
 20
1415.0464777145635
 40
8.727573691738721
 50
322.53172054160081
 51
343.01729544693279
  0
ARC
  8
_0-2_決定
  6
CONTINUOUS
 62
    7
 10
772.12393713399706
 20
1416.7237402650885
 40
9.8502313293521713
 50
334.59144639061424
 51
351.32068573675082
  0
ARC
  8
_0-2_決定
  6
CONTINUOUS
 62
    7
 10
779.04995447851206
 20
1415.7911656772092
 40
2.8654512144773947
 50
348.8551328225488
 51
17.593912390475928
  0
ARC
  8
_0-2_決定
  6
CONTINUOUS
 62
    7
 10
781.04409618332511
 20
1416.421352076135
 40
0.7741070648337357
 50
17.746266574967979
 51
60.832547150084146
  0
ARC
  8
_0-2_決定
  6
CONTINUOUS
 62
    7
 10
781.30705924570464
 20
1416.1272488560294
 40
0.9767644921659883
 50
83.27939884893469
 51
129.83474390237163
  0
ARC
  8
_0-2_決定
  6
CONTINUOUS
 62
    7
 10
783.54579933587274
 20
1413.3133449831535
 40
4.5723904755270945
 50
128.78961643323569
 51
147.68978415894935
  0
ARC
  8
_0-2_決定
  6
CONTINUOUS
 62
    7
 10
791.85981894856354
 20
1407.4863067978158
 40
14.721549723046298
 50
145.8176140639865
 51
155.90111846921852
  0
ARC
  8
_0-2_決定
  6
CONTINUOUS
 62
    7
 10
702.11880061903855
 20
1293.4708650214984
 40
9.8502313293519421
 50
154.59144639061378
 51
171.32068573675039
  0
ARC
  8
_0-2_決定
  6
CONTINUOUS
 62
    7
 10
695.19278327452355
 20
1294.4034396093778
 40
2.8654512144775368
 50
168.8551328225486
 51
197.59391239047577
  0
ARC
  8
_0-2_決定
  6
CONTINUOUS
 62
    7
 10
693.19864156971164
 20
1293.773253210451
 40
0.7741070648347092
 50
197.74626657490904
 51
240.83254715002519
  0
ARC
  8
_0-2_決定
  6
CONTINUOUS
 62
    7
 10
692.9299895338454
 20
1294.1447993725239
 40
1.0531123077410427
 50
264.07989497867891
 51
308.20878258191669
  0
ARC
  8
_0-2_決定
  6
CONTINUOUS
 62
    7
 10
691.03450862252771
 20
1296.8353791039365
 40
4.3431966561345634
 50
305.90213011311198
 51
325.21037434106267
  0
ARC
  8
_0-2_決定
  6
CONTINUOUS
 62
    7
 10
686.81768942115355
 20
1299.9034960174574
 40
9.5575065410624624
 50
324.52856524522622
 51
340.3992885384572
  0
ARC
  8
_0-2_決定
  6
CONTINUOUS
 62
    7
 10
686.92393913399712
 20
1300.9237422650881
 40
9.8502313293519421
 50
334.59144639061378
 51
351.32068573675042
  0
ARC
  8
_0-2_決定
  6
CONTINUOUS
 62
    7
 10
693.84995647851213
 20
1299.9911676772076
 40
2.8654512144776016
 50
348.85513282257148
 51
17.593912390498634
  0
ARC
  8
_0-2_決定
  6
CONTINUOUS
 62
    7
 10
695.84409818332404
 20
1300.621354076136
 40
0.774107064834219
 50
17.746266574864688
 51
60.832547149980854
  0
ARC
  8
_0-2_決定
  6
CONTINUOUS
 62
    7
 10
695.9500505090125
 20
1300.6218166858562
 40
0.7279401272436881
 50
68.116405954162488
 51
122.27245186137611
  0
ARC
  8
_0-2_決定
  6
CONTINUOUS
 62
    7
 10
697.12497309673552
 20
1298.7364514855028
 40
2.9494264773681271
 50
122.01478321665628
 51
145.25736172011005
  0
ARC
  8
_0-2_決定
  6
CONTINUOUS
 62
    7
 10
704.47296324559886
 20
1293.3377601924715
 40
12.066647108569533
 50
144.07657790119654
 51
158.82063835289833
  0
ARC
  8
_0-2_決定
  6
CONTINUOUS
 62
    7
 10
843.51807786619815
 20
1377.5843704535705
 40
5.5044486001141912
 50
321.75930423779579
 51
1.1755827021049139
  0
ARC
  8
_0-2_決定
  6
CONTINUOUS
 62
    7
 10
845.89341135533459
 20
1375.8839844484678
 40
2.5898457108292701
 50
272.83196585202541
 51
318.77709894786886
  0
ARC
  8
_0-2_決定
  6
CONTINUOUS
 62
    7
 10
846.12160075125189
 20
1375.9083039582356
 40
2.6129255094266597
 50
210.11500872051576
 51
267.80157142850237
  0
ARC
  8
_0-2_決定
  6
CONTINUOUS
 62
    7
 10
848.33621646507595
 20
1377.4736477124497
 40
5.3195522931989272
 50
177.59036025910152
 51
212.73212489715246
  0
ARC
  8
_0-2_決定
  6
CONTINUOUS
 62
    7
 10
848.56242588821033
 20
1377.7387905294802
 40
5.5412133343354411
 50
141.90809749549948
 51
180.42899634840896
  0
ARC
  8
_0-2_決定
  6
CONTINUOUS
 62
    7
 10
846.20671469001763
 20
1379.5065237703454
 40
2.5973993586333655
 50
94.092025133622471
 51
140.53919081323727
  0
ARC
  8
_0-2_決定
  6
CONTINUOUS
 62
    7
 10
845.96499346912822
 20
1379.9001390098215
 40
2.197885736732311
 50
55.769125828186482
 51
88.530237567368829
  0
ARC
  8
_0-2_決定
  6
CONTINUOUS
 62
    7
 10
844.91572129198232
 20
1378.4487051120141
 40
3.9884713354474783
 50
11.69684911201885
 51
55.035882890092566
  0
ARC
  8
_0-2_決定
  6
CONTINUOUS
 62
    7
 10
842.96437148020118
 20
1377.7135841565841
 40
6.0570182817319544
 50
359.84597695241257
 51
14.765542114241759
  0
ARC
  8
_0-2_決定
  6
CONTINUOUS
 62
    7
 10
898.90711959169721
 20
1239.9771985526475
 40
8.1205578650595438
 50
2.259133442123606
 51
90.605044969086592
  0
ARC
  8
_0-2_決定
  6
CONTINUOUS
 62
    7
 10
899.02585409634867
 20
1239.6720745403939
 40
8.4277102495539644
 50
91.390335798953501
 51
175.74547183271622
  0
ARC
  8
_0-2_決定
  6
CONTINUOUS
 62
    7
 10
898.73561516133861
 20
1240.6174097632329
 40
8.1205589048563187
 50
182.25914042068024
 51
270.60505194764323
  0
ARC
  8
_0-2_決定
  6
CONTINUOUS
 62
    7
 10
898.61688065668602
 20
1240.9225316424788
 40
8.4277091704289493
 50
271.39034277751693
 51
355.74547881127967
  0
ARC
  8
_0-2_決定
  6
CONTINUOUS
 62
    7
 10
869.39094156750627
 20
1298.2196921449233
 40
3.2327438938594972
 50
305.78706357790867
 51
357.83031967449989
  0
ARC
  8
_0-2_決定
  6
CONTINUOUS
 62
    7
 10
866.27393577100463
 20
1301.7860191200518
 40
7.9608150049852098
 50
278.72382927773469
 51
308.97711853839701
  0
ARC
  8
_0-2_決定
  6
CONTINUOUS
 62
    7
 10
865.21747794040095
 20
1305.4554457142904
 40
11.758142714449431
 50
270.01895511319623
 51
281.10093941343916
  0
ARC
  8
_0-2_決定
  6
CONTINUOUS
 62
    7
 10
865.07626982399643
 20
1304.5975594849765
 40
10.90122153058989
 50
243.0834321302649
 51
270.76264402988875
  0
ARC
  8
_0-2_決定
  6
CONTINUOUS
 62
    7
 10
862.18872162894456
 20
1298.7981920611912
 40
4.4232367530100953
 50
189.11728849180986
 51
242.42797711962947
  0
ARC
  8
_0-2_決定
  6
CONTINUOUS
 62
    7
 10
861.11946496954261
 20
1297.980827224138
 40
3.3001532072369559
 50
126.39404370054021
 51
177.97736858790378
  0
ARC
  8
_0-2_決定
  6
CONTINUOUS
 62
    7
 10
864.03855996891195
 20
1294.6391869005586
 40
7.7307442827698178
 50
97.85992195766444
 51
129.11526959766741
  0
ARC
  8
_0-2_決定
  6
CONTINUOUS
 62
    7
 10
865.19864780776288
 20
1290.1077684133356
 40
12.389556062098839
 50
89.894930474263631
 51
100.3094000304414
  0
ARC
  8
_0-2_決定
  6
CONTINUOUS
 62
    7
 10
865.30975096250586
 20
1291.6885879059564
 40
10.809077086432746
 50
62.973829095388034
 51
90.468498299860968
  0
ARC
  8
_0-2_決定
  6
CONTINUOUS
 62
    7
 10
867.89122394381025
 20
1296.8446017589922
 40
5.0432760080091423
 50
25.016564543299715
 51
62.481833827162873
  0
ARC
  8
_0-2_決定
  6
CONTINUOUS
 62
    7
 10
870.00582891071701
 20
1298.0762965586014
 40
2.6156233251807839
 50
0.4601695592050258
 51
20.149523378348196
  0
ARC
  8
_0-2_決定
  6
CONTINUOUS
 62
    7
 10
764.86786032129601
 20
1309.1176532202528
 40
26.850947286041055
 50
147.82163960838707
 51
157.72100203743196
  0
ARC
  8
_0-2_決定
  6
CONTINUOUS
 62
    7
 10
748.87822413634694
 20
1319.3999022982184
 40
7.8437694309296475
 50
131.68963771760889
 51
149.19102634441057
  0
ARC
  8
_0-2_決定
  6
CONTINUOUS
 62
    7
 10
744.2393608754503
 20
1324.7503321466738
 40
0.768826178815287
 50
76.30601105299219
 51
138.74512569441609
  0
ARC
  8
_0-2_決定
  6
CONTINUOUS
 62
    7
 10
743.76336987651769
 20
1324.9133036432934
 40
0.8797840644162096
 50
356.35054286042941
 51
41.590272756510259
  0
ARC
  8
_0-2_決定
  6
CONTINUOUS
 62
    7
 10
736.95407959887291
 20
1324.7655348209396
 40
7.6878380140018896
 50
346.24278344679669
 51
0.6839492556147329
  0
ARC
  8
_0-2_決定
  6
CONTINUOUS
 62
    7
 10
717.63929429418397
 20
1329.1064195382801
 40
27.483405237044742
 50
336.38598242198918
 51
347.02846564887653
  0
ARC
  8
_0-2_決定
  6
CONTINUOUS
 62
    7
 10
717.33141552046277
 20
1329.2129794301454
 40
27.808200611908905
 50
326.72874108923605
 51
336.43891577350291
  0
ARC
  8
_0-2_決定
  6
CONTINUOUS
 62
    7
 10
733.9859351230848
 20
1317.9765176654271
 40
7.7235898999435406
 50
310.88513491851961
 51
328.64214846295459
  0
ARC
  8
_0-2_決定
  6
CONTINUOUS
 62
    7
 10
738.49332612958676
 20
1312.6322499895314
 40
0.7384604486395773
 50
264.40817476337065
 51
317.91434487023429
  0
ARC
  8
_0-2_決定
  6
CONTINUOUS
 62
    7
 10
739.07936571653806
 20
1312.4813022133001
 40
0.879780003895435
 50
176.35043267626119
 51
221.59038294068239
  0
ARC
  8
_0-2_決定
  6
CONTINUOUS
 62
    7
 10
745.88866015416272
 20
1312.6290724656469
 40
7.6878380140018896
 50
166.24278344679672
 51
180.68394925561475
  0
ARC
  8
_0-2_決定
  6
CONTINUOUS
 62
    7
 10
765.20344545885166
 20
1308.288187748306
 40
27.483405237044742
 50
156.38598242198916
 51
167.02846564887653
  0
ARC
  8
_0-2_決定
  6
CONTINUOUS
 62
    7
 10
862.11373283634373
 20
1230.6107063234717
 40
7.5141736163329087
 50
270.82074819678792
 51
357.60960259723345
  0
ARC
  8
_0-2_決定
  6
CONTINUOUS
 62
    7
 10
862.48473182115902
 20
1230.7707610308407
 40
7.677975569500763
 50
183.53535005356451
 51
268.03429915241418
  0
ARC
  8
_0-2_決定
  6
CONTINUOUS
 62
    7
 10
862.17813709104632
 20
1230.3405344287646
 40
7.3568962325593308
 50
89.663315108804568
 51
180.33668489119191
  0
ARC
  8
_0-2_決定
  6
CONTINUOUS
 62
    7
 10
862.26248051438972
 20
1230.3384162811649
 40
7.3590022052914419
 50
359.67990322293446
 51
90.320096777069125
  0
ARC
  8
_0-2_決定
  6
CONTINUOUS
 62
    7
 10
772.70728268117011
 20
1256.1000502786001
 40
8.3293738972166675
 50
316.22260835196971
 51
18.168859517448716
  0
ARC
  8
_0-2_決定
  6
CONTINUOUS
 62
    7
 10
770.32979084291185
 20
1257.9123786035959
 40
11.304880617022812
 50
286.92767055048029
 51
317.92743944107667
  0
ARC
  8
_0-2_決定
  6
CONTINUOUS
 62
    7
 10
770.04256282439428
 20
1257.8272249781594
 40
11.311014872836543
 50
237.59731161228487
 51
288.44535093211294
  0
ARC
  8
_0-2_決定
  6
CONTINUOUS
 62
    7
 10
768.4198843226477
 20
1254.3912564891875
 40
7.5551856291113051
 50
197.67553621196231
 51
234.0216717527116
  0
ARC
  8
_0-2_決定
  6
CONTINUOUS
 62
    7
 10
769.4460565336658
 20
1254.6753395549676
 40
8.6192656166375023
 50
136.23500405164208
 51
197.40364956867242
  0
ARC
  8
_0-2_決定
  6
CONTINUOUS
 62
    7
 10
771.75870950118565
 20
1253.0075802925758
 40
11.449840447595829
 50
107.99549794503517
 51
138.2132028691282
  0
ARC
  8
_0-2_決定
  6
CONTINUOUS
 62
    7
 10
771.70041952480858
 20
1253.3966106270723
 40
11.06202243155275
 50
56.65260714529164
 51
108.33086975994256
  0
ARC
  8
_0-2_決定
  6
CONTINUOUS
 62
    7
 10
773.14587196927278
 20
1256.3024284208107
 40
7.8497430779932422
 50
17.763556427543627
 51
53.805488792803168
  0
ARC
  8
_0-2_決定
  6
CONTINUOUS
 62
    7
 10
732.90014702743349
 20
1462.8185243610835
 40
1.123986753656538
 50
265.98100088976287
 51
4.018903617193982
  0
ARC
  8
_0-2_決定
  6
CONTINUOUS
 62
    7
 10
732.8334228035385
 20
1462.9093545904041
 40
1.2121128741373932
 50
180.5698388270601
 51
269.43025666598311
  0
ARC
  8
_0-2_決定
  6
CONTINUOUS
 62
    7
 10
732.93462279329844
 20
1462.7840467265123
 40
1.3181272497726098
 50
94.928905385744201
 51
175.07109461424218
  0
ARC
  8
_0-2_決定
  6
CONTINUOUS
 62
    7
 10
732.82092194358995
 20
1462.8968517103654
 40
1.2004480164982678
 50
0.0213792405223041
 51
89.97862075949125
  0
ARC
  8
_0-2_決定
  6
CONTINUOUS
 62
    7
 10
807.45846261364136
 20
1419.3530972161757
 40
2.5635125379904204
 50
301.06778479360878
 51
358.75284272881481
  0
ARC
  8
_0-2_決定
  6
CONTINUOUS
 62
    7
 10
806.51803068068489
 20
1420.701052828394
 40
4.2048623906068734
 50
268.68274913162975
 51
302.5657200307399
  0
ARC
  8
_0-2_決定
  6
CONTINUOUS
 62
    7
 10
806.42581021195156
 20
1419.9669816220342
 40
3.4696828225669991
 50
191.12843776971664
 51
269.92664253360556
  0
ARC
  8
_0-2_決定
  6
CONTINUOUS
 62
    7
 10
805.43050952839621
 20
1419.1751807782236
 40
2.4122348568284555
 50
117.37409736401614
 51
177.09812565485169
  0
ARC
  8
_0-2_決定
  6
CONTINUOUS
 62
    7
 10
806.40361317097927
 20
1417.8698617840348
 40
4.0274789942978666
 50
89.747416934947083
 51
121.13187413568264
  0
ARC
  8
_0-2_決定
  6
CONTINUOUS
 62
    7
 10
806.47752575347909
 20
1417.6338106720391
 40
4.2638608055507179
 50
46.707235056417417
 51
90.754645265123258
  0
ARC
  8
_0-2_決定
  6
CONTINUOUS
 62
    7
 10
807.83569242263184
 20
1419.2097191562027
 40
2.1874295146964249
 50
2.2946790177148375
 51
44.29444749010618
  0
ARC
  8
_0-2_決定
  6
CONTINUOUS
 62
    7
 10
842.92914783498588
 20
1517.5468049923165
 40
1.4930410014238291
 50
320.50922555768773
 51
358.09987297418127
  0
ARC
  8
_0-2_決定
  6
CONTINUOUS
 62
    7
 10
841.5121326561632
 20
1518.7487873564191
 40
3.351099669846223
 50
297.53604334128505
 51
320.05706085528982
  0
ARC
  8
_0-2_決定
  6
CONTINUOUS
 62
    7
 10
839.84329762056689
 20
1521.8869928471543
 40
6.905383929770589
 50
282.18974044140197
 51
297.77647260242099
  0
ARC
  8
_0-2_決定
  6
CONTINUOUS
 62
    7
 10
839.09091415117246
 20
1525.1866100340819
 40
10.289545422529883
 50
269.61273912553679
 51
282.40527278944171
  0
ARC
  8
_0-2_決定
  6
CONTINUOUS
 62
    7
 10
838.82161127549466
 20
1524.0832993176616
 40
9.1881713478333218
 50
241.38621620834772
 51
271.24574428715897
  0
ARC
  8
_0-2_決定
  6
CONTINUOUS
 62
    7
 10
835.46882248558632
 20
1517.8028770818537
 40
2.0701323501539175
 50
188.48859344789605
 51
239.60328126533355
  0
ARC
  8
_0-2_決定
  6
CONTINUOUS
 62
    7
 10
834.81538471055615
 20
1517.4406563930047
 40
1.3951671553564216
 50
137.82877884060451
 51
177.67317384497289
  0
ARC
  8
_0-2_決定
  6
CONTINUOUS
 62
    7
 10
836.06640497008641
 20
1516.3006268926983
 40
3.0877118116893936
 50
114.18602248628603
 51
137.73501190699974
  0
ARC
  8
_0-2_決定
  6
CONTINUOUS
 62
    7
 10
837.91496282094045
 20
1512.404736545659
 40
7.3995254454355806
 50
99.753841779018799
 51
114.88403508400036
  0
ARC
  8
_0-2_決定
  6
CONTINUOUS
 62
    7
 10
838.95737524309425
 20
1506.6284127177396
 40
13.269041235155681
 50
89.723678450978738
 51
99.964322299218793
  0
ARC
  8
_0-2_決定
  6
CONTINUOUS
 62
    7
 10
839.27088948641767
 20
1510.784168662869
 40
9.1165463471746992
 50
61.782545215645946
 51
91.568392260575848
  0
ARC
  8
_0-2_決定
  6
CONTINUOUS
 62
    7
 10
842.65100432178997
 20
1517.2979773811937
 40
1.7815488991544588
 50
6.4237839173670794
 51
58.518600664307542
  0
ARC
  8
_0-2_決定
  6
CONTINUOUS
 62
    7
 10
874.03103894729895
 20
1540.8314531435954
 40
2.99105380534135
 50
308.70477424179035
 51
1.2614388020099452
  0
ARC
  8
_0-2_決定
  6
CONTINUOUS
 62
    7
 10
875.20572951703059
 20
1539.6064700655504
 40
1.3092638209316427
 50
270.68437948839494
 51
302.0947011796539
  0
ARC
  8
_0-2_決定
  6
CONTINUOUS
 62
    7
 10
875.27056769905812
 20
1539.7252991996452
 40
1.4288468621516206
 50
228.3704502431637
 51
268.02673078418422
  0
ARC
  8
_0-2_決定
  6
CONTINUOUS
 62
    7
 10
876.24940157915717
 20
1540.7327596131029
 40
2.8328162744515559
 50
176.67018354287322
 51
227.10892999691316
  0
ARC
  8
_0-2_決定
  6
CONTINUOUS
 62
    7
 10
876.41169680573626
 20
1540.963146142991
 40
2.9910538053404769
 50
128.70477424178259
 51
181.26143880200217
  0
ARC
  8
_0-2_決定
  6
CONTINUOUS
 62
    7
 10
875.23700623600519
 20
1542.1881292210358
 40
1.3092638209316427
 50
90.684379488394924
 51
122.09470117965388
  0
ARC
  8
_0-2_決定
  6
CONTINUOUS
 62
    7
 10
875.17216805397709
 20
1542.0693000869414
 40
1.4288468621508814
 50
48.37045024314731
 51
88.026730784167796
  0
ARC
  8
_0-2_決定
  6
CONTINUOUS
 62
    7
 10
874.19333417387975
 20
1541.0618396734826
 40
2.8328162744507996
 50
356.67018354289394
 51
47.108929996933867
  0
ARC
  8
_0-2_決定
  6
CONTINUOUS
 62
    7
 10
910.23103694729855
 20
1519.0314531435945
 40
2.9910538053410782
 50
308.70477424180149
 51
1.2614388020210894
  0
ARC
  8
_0-2_決定
  6
CONTINUOUS
 62
    7
 10
911.40572751703075
 20
1517.80647006555
 40
1.3092638209316427
 50
270.68437948839494
 51
302.0947011796539
  0
ARC
  8
_0-2_決定
  6
CONTINUOUS
 62
    7
 10
911.47056569905942
 20
1517.9252991996459
 40
1.4288468621521262
 50
228.37045024311303
 51
268.02673078413352
  0
ARC
  8
_0-2_決定
  6
CONTINUOUS
 62
    7
 10
912.44939957915562
 20
1518.9327596131038
 40
2.8328162744507996
 50
176.67018354289394
 51
227.10892999693388
  0
ARC
  8
_0-2_決定
  6
CONTINUOUS
 62
    7
 10
912.61169480573585
 20
1519.1631461429904
 40
2.9910538053407487
 50
128.70477424177145
 51
181.26143880199103
  0
ARC
  8
_0-2_決定
  6
CONTINUOUS
 62
    7
 10
911.43700423600535
 20
1520.3881292210353
 40
1.3092638209316427
 50
90.684379488394924
 51
122.09470117965388
  0
ARC
  8
_0-2_決定
  6
CONTINUOUS
 62
    7
 10
911.37216605397782
 20
1520.2693000869413
 40
1.4288468621508428
 50
48.370450243151204
 51
88.02673078417169
  0
ARC
  8
_0-2_決定
  6
CONTINUOUS
 62
    7
 10
910.39333217387934
 20
1519.2618396734833
 40
2.8328162744506278
 50
356.67018354288075
 51
47.108929996920715
  0
ARC
  8
_0-2_決定
  6
CONTINUOUS
 62
    7
 10
878.49088531690427
 20
1475.5930080714147
 40
2.1326312480200369
 50
293.50286621334629
 51
357.42781064382694
  0
ARC
  8
_0-2_決定
  6
CONTINUOUS
 62
    7
 10
877.13946982885091
 20
1477.8436023666036
 40
4.747771857666045
 50
268.574606853582
 51
297.63097302894369
  0
ARC
  8
_0-2_決定
  6
CONTINUOUS
 62
    7
 10
876.90077612030393
 20
1477.5680171214628
 40
4.4723435848866613
 50
228.91019488245985
 51
271.54510405241433
  0
ARC
  8
_0-2_決定
  6
CONTINUOUS
 62
    7
 10
875.34776852802679
 20
1475.5353429908428
 40
1.9267762626799347
 50
181.13135341497031
 51
223.98313985445867
  0
ARC
  8
_0-2_決定
  6
CONTINUOUS
 62
    7
 10
875.77536829248686
 20
1475.3792589703439
 40
2.3569581156337387
 50
117.10819654692676
 51
177.12932412254258
  0
ARC
  8
_0-2_決定
  6
CONTINUOUS
 62
    7
 10
876.94601303373418
 20
1473.7286274420965
 40
4.3693220473937808
 50
89.011808131728429
 51
120.91250237691688
  0
ARC
  8
_0-2_決定
  6
CONTINUOUS
 62
    7
 10
877.07752575347911
 20
1473.8338086720382
 40
4.263860805551424
 50
46.707235056421105
 51
90.754645265126939
  0
ARC
  8
_0-2_決定
  6
CONTINUOUS
 62
    7
 10
878.43569242263243
 20
1475.4097171562034
 40
2.1874295146962028
 50
2.2946790176947363
 51
44.294447490086078
  0
ARC
  8
_0-2_決定
  6
CONTINUOUS
 62
    7
 10
913.5686853011282
 20
1484.7543929224976
 40
7.0529116640577794
 50
295.28709124848064
 51
359.53618592997049
  0
ARC
  8
_0-2_決定
  6
CONTINUOUS
 62
    7
 10
914.99843615012821
 20
1482.7107652617547
 40
4.6135226004734387
 50
270.28476764289917
 51
290.06625404316532
  0
ARC
  8
_0-2_決定
  6
CONTINUOUS
 62
    7
 10
915.15025309619148
 20
1483.1741339579544
 40
5.0784701017054301
 50
207.39648595432502
 51
268.54572606504956
  0
ARC
  8
_0-2_決定
  6
CONTINUOUS
 62
    7
 10
917.13573121321701
 20
1484.6181941105044
 40
7.5147817066573728
 50
179.39685581664051
 51
210.20714035023846
  0
ARC
  8
_0-2_決定
  6
CONTINUOUS
 62
    7
 10
917.36535770708031
 20
1484.7572125806107
 40
7.7442235912894555
 50
132.8226561159988
 51
180.44327138162453
  0
ARC
  8
_0-2_決定
  6
CONTINUOUS
 62
    7
 10
915.09786471663176
 20
1486.7346801969404
 40
4.7632337821395137
 50
90.920225485617721
 51
128.98295590389546
  0
ARC
  8
_0-2_決定
  6
CONTINUOUS
 62
    7
 10
914.87198055883482
 20
1486.2358075415034
 40
5.2636123632285496
 50
28.871169947270531
 51
88.373683875311599
  0
ARC
  8
_0-2_決定
  6
CONTINUOUS
 62
    7
 10
913.00851159854915
 20
1484.7694433009203
 40
7.6131961070839225
 50
359.45704945620957
 51
31.764927611137139
  0
ARC
  8
_0-2_決定
  6
CONTINUOUS
 62
    7
 10
831.68259837773519
 20
1499.3416843926848
 40
0.9398181621057151
 50
309.5768096857978
 51
357.29308795999833
  0
ARC
  8
_0-2_決定
  6
CONTINUOUS
 62
    7
 10
830.41382055899248
 20
1501.0592496351967
 40
3.0742239258316251
 50
284.07348708657372
 51
307.4079296259012
  0
ARC
  8
_0-2_決定
  6
CONTINUOUS
 62
    7
 10
828.44408894423111
 20
1507.5372998036121
 40
9.8425204002373654
 50
268.7033741401923
 51
286.02611834977802
  0
ARC
  8
_0-2_決定
  6
CONTINUOUS
 62
    7
 10
828.0885897777307
 20
1507.0064639023701
 40
9.3101111285528617
 50
253.99354980634007
 51
270.81716345645179
  0
ARC
  8
_0-2_決定
  6
CONTINUOUS
 62
    7
 10
826.17566506241133
 20
1500.846250440964
 40
2.8646729934316593
 50
228.60386760034987
 51
256.79698797703486
  0
ARC
  8
_0-2_決定
  6
CONTINUOUS
 62
    7
 10
824.87169951204464
 20
1499.3094433520214
 40
0.8504183441338164
 50
180.81819367004337
 51
226.03919194744287
  0
ARC
  8
_0-2_決定
  6
CONTINUOUS
 62
    7
 10
824.81525763936645
 20
1499.2062646180766
 40
0.7990921920351491
 50
122.8866193713002
 51
173.45848747534521
  0
ARC
  8
_0-2_決定
  6
CONTINUOUS
 62
    7
 10
826.42828344042528
 20
1496.704004238444
 40
3.7761974328949632
 50
102.0279223206673
 51
122.82380152208218
  0
ARC
  8
_0-2_決定
  6
CONTINUOUS
 62
    7
 10
828.12731678623209
 20
1490.262139019721
 40
10.43558445164091
 50
89.483612680220006
 51
103.78141655002122
  0
ARC
  8
_0-2_決定
  6
CONTINUOUS
 62
    7
 10
828.38578064271928
 20
1489.8550039005956
 40
10.84354225010429
 50
75.169117549173407
 51
90.868767637179289
  0
ARC
  8
_0-2_決定
  6
CONTINUOUS
 62
    7
 10
830.59444324871151
 20
1497.6034503876815
 40
2.7920127660919496
 50
48.585404189283381
 51
78.284493456530114
  0
ARC
  8
_0-2_決定
  6
CONTINUOUS
 62
    7
 10
832.0575519762167
 20
1499.2840824881569
 40
0.5639707994410885
 50
1.3429002822911709
 51
47.112590353725494
  0
ARC
  8
_0-2_決定
  6
CONTINUOUS
 62
    7
 10
839.16852917649351
 20
1400.5805002055258
 40
1.4552189831932518
 50
317.49642900479887
 51
356.72246768271691
  0
ARC
  8
_0-2_決定
  6
CONTINUOUS
 62
    7
 10
837.58219155845495
 20
1401.9396515178632
 40
3.5437016840369822
 50
296.82537731995683
 51
318.62461276424875
  0
ARC
  8
_0-2_決定
  6
CONTINUOUS
 62
    7
 10
835.34099016290099
 20
1406.6590871985745
 40
8.7676133880711777
 50
267.91082637102039
 51
295.97752800587455
  0
ARC
  8
_0-2_決定
  6
CONTINUOUS
 62
    7
 10
834.85709810510286
 20
1406.4738299019916
 40
8.5781012776749996
 50
240.10268193453194
 51
271.097275451879
  0
ARC
  8
_0-2_決定
  6
CONTINUOUS
 62
    7
 10
831.65597402779554
 20
1400.7895084276952
 40
2.0554821808195061
 50
188.17283963634173
 51
238.47973973789038
  0
ARC
  8
_0-2_決定
  6
CONTINUOUS
 62
    7
 10
830.91749918041842
 20
1400.394704209778
 40
1.3001855984107444
 50
134.7985127430903
 51
175.47409411337864
  0
ARC
  8
_0-2_決定
  6
CONTINUOUS
 62
    7
 10
832.60390537532203
 20
1398.8126974783122
 40
3.6119583962056323
 50
114.58165823952476
 51
136.09855560356621
  0
ARC
  8
_0-2_決定
  6
CONTINUOUS
 62
    7
 10
834.78006090397741
 20
1394.0757058087438
 40
8.8248955870951473
 50
88.433115219986007
 51
114.63612608730917
  0
ARC
  8
_0-2_決定
  6
CONTINUOUS
 62
    7
 10
835.15237684096007
 20
1393.3265621026708
 40
9.571636156018366
 50
61.487731954239813
 51
90.784243676664786
  0
ARC
  8
_0-2_決定
  6
CONTINUOUS
 62
    7
 10
838.84734727795603
 20
1400.1563189507885
 40
1.8064933658085724
 50
10.880072946728502
 51
61.06470115186891
  0
ARC
  8
_0-2_決定
  6
CONTINUOUS
 62
    7
 10
870.23103894729957
 20
1423.8314551435956
 40
2.9910538053404769
 50
308.70477424178256
 51
1.261438802002145
  0
ARC
  8
_0-2_決定
  6
CONTINUOUS
 62
    7
 10
871.40572951702893
 20
1422.6064720655506
 40
1.3092638209321241
 50
270.68437948846656
 51
302.09470117972552
  0
ARC
  8
_0-2_決定
  6
CONTINUOUS
 62
    7
 10
871.47056769905987
 20
1422.7253011996447
 40
1.4288468621513484
 50
228.37045024310049
 51
268.02673078412101
  0
ARC
  8
_0-2_決定
  6
CONTINUOUS
 62
    7
 10
872.44940157915607
 20
1423.7327616131038
 40
2.8328162744508765
 50
176.67018354289328
 51
227.10892999693326
  0
ARC
  8
_0-2_決定
  6
CONTINUOUS
 62
    7
 10
872.22457341314566
 20
1423.9899475485681
 40
2.6048536100315771
 50
125.24533522097457
 51
182.03824856642311
  0
ARC
  8
_0-2_決定
  6
CONTINUOUS
 62
    7
 10
871.42811252878857
 20
1424.8199613289034
 40
1.4773557103331214
 50
90.261576443019948
 51
118.57996981190757
  0
ARC
  8
_0-2_決定
  6
CONTINUOUS
 62
    7
 10
871.34219838504009
 20
1424.5428893962242
 40
1.7561976372394759
 50
17.03240408925701
 51
87.416227298854011
  0
ARC
  8
_0-2_決定
  6
CONTINUOUS
 62
    7
 10
870.01677937859142
 20
1423.9420277643408
 40
3.2049006017263793
 50
359.20038045570823
 51
20.364433607891264
  0
ARC
  8
_0-2_決定
  6
CONTINUOUS
 62
    7
 10
906.43103694729973
 20
1402.0314551435949
 40
2.9910538053401332
 50
308.70477424179307
 51
1.2614388020126373
  0
ARC
  8
_0-2_決定
  6
CONTINUOUS
 62
    7
 10
907.6057275170308
 20
1400.8064720655516
 40
1.3092638209326501
 50
270.68437948838198
 51
302.09470117964094
  0
ARC
  8
_0-2_決定
  6
CONTINUOUS
 62
    7
 10
907.67056569905776
 20
1400.9253011996452
 40
1.4288468621508428
 50
228.3704502431512
 51
268.02673078417166
  0
ARC
  8
_0-2_決定
  6
CONTINUOUS
 62
    7
 10
908.64939957915624
 20
1401.9327616131027
 40
2.832816274450551
 50
176.67018354288138
 51
227.10892999692135
  0
ARC
  8
_0-2_決定
  6
CONTINUOUS
 62
    7
 10
908.42457141314583
 20
1402.1899475485682
 40
2.6048536100313777
 50
125.24533522098707
 51
182.03824856643561
  0
ARC
  8
_0-2_決定
  6
CONTINUOUS
 62
    7
 10
907.62811052878988
 20
1403.0199613289039
 40
1.4773557103335917
 50
90.26157644309086
 51
118.5799698119785
  0
ARC
  8
_0-2_決定
  6
CONTINUOUS
 62
    7
 10
907.54219638503912
 20
1402.7428893962244
 40
1.7561976372400045
 50
17.032404089234749
 51
87.416227298831757
  0
ARC
  8
_0-2_決定
  6
CONTINUOUS
 62
    7
 10
906.21677737859102
 20
1402.1420277643404
 40
3.2049006017263793
 50
359.20038045570823
 51
20.364433607891264
  0
ARC
  8
_0-2_決定
  6
CONTINUOUS
 62
    7
 10
874.69088531690318
 20
1358.5930100714145
 40
2.1326312480204512
 50
293.50286621337142
 51
357.42781064385213
  0
ARC
  8
_0-2_決定
  6
CONTINUOUS
 62
    7
 10
873.33946982885095
 20
1360.8436043666031
 40
4.7477718576660779
 50
268.57460685358365
 51
297.63097302894539
  0
ARC
  8
_0-2_決定
  6
CONTINUOUS
 62
    7
 10
873.10077612030511
 20
1360.5680191214637
 40
4.4723435848878594
 50
228.91019488244677
 51
271.54510405240126
  0
ARC
  8
_0-2_決定
  6
CONTINUOUS
 62
    7
 10
871.54776852802627
 20
1358.535344990843
 40
1.9267762626796365
 50
181.13135341494893
 51
223.9831398544373
  0
ARC
  8
_0-2_決定
  6
CONTINUOUS
 62
    7
 10
871.97536829248577
 20
1358.3792609703441
 40
2.3569581156329633
 50
117.10819654691458
 51
177.12932412253039
  0
ARC
  8
_0-2_決定
  6
CONTINUOUS
 62
    7
 10
873.14601303373365
 20
1356.728629442096
 40
4.369322047393748
 50
89.011808131726781
 51
120.91250237691523
  0
ARC
  8
_0-2_決定
  6
CONTINUOUS
 62
    7
 10
873.27752575347915
 20
1356.833810672038
 40
4.263860805551424
 50
46.707235056421105
 51
90.754645265126939
  0
ARC
  8
_0-2_決定
  6
CONTINUOUS
 62
    7
 10
874.63569242263304
 20
1358.4097191562046
 40
2.1874295146946143
 50
2.2946790176900289
 51
44.294447490081374
  0
ARC
  8
_0-2_決定
  6
CONTINUOUS
 62
    7
 10
909.76868530112768
 20
1367.7543949224978
 40
7.0529116640585094
 50
295.28709124848444
 51
359.53618592997429
  0
ARC
  8
_0-2_決定
  6
CONTINUOUS
 62
    7
 10
911.19843615012769
 20
1365.7107672617544
 40
4.613522600473476
 50
270.28476764290167
 51
290.06625404316787
  0
ARC
  8
_0-2_決定
  6
CONTINUOUS
 62
    7
 10
911.35025309619152
 20
1366.1741359579541
 40
5.0784701017054665
 50
207.39648595432431
 51
268.54572606504883
  0
ARC
  8
_0-2_決定
  6
CONTINUOUS
 62
    7
 10
913.33573121321933
 20
1367.6181961105035
 40
7.5147817066587805
 50
179.39685581662923
 51
210.20714035022718
  0
ARC
  8
_0-2_決定
  6
CONTINUOUS
 62
    7
 10
913.56535770707978
 20
1367.7572145806116
 40
7.744223591288125
 50
132.82265611600022
 51
180.44327138162595
  0
ARC
  8
_0-2_決定
  6
CONTINUOUS
 62
    7
 10
911.29786471663294
 20
1369.7346821969404
 40
4.7632337821399959
 50
90.920225485633722
 51
128.98295590391149
  0
ARC
  8
_0-2_決定
  6
CONTINUOUS
 62
    7
 10
911.07198055883373
 20
1369.2358095415043
 40
5.2636123632285443
 50
28.871169947258636
 51
88.373683875299704
  0
ARC
  8
_0-2_決定
  6
CONTINUOUS
 62
    7
 10
909.20851159855033
 20
1367.7694453009199
 40
7.6131961070825991
 50
359.45704945622032
 51
31.7649276111479
  0
ARC
  8
_0-2_決定
  6
CONTINUOUS
 62
    7
 10
828.02339137378226
 20
1382.2056310761195
 40
0.8052960728412952
 50
301.26751477121132
 51
352.26906309280827
  0
ARC
  8
_0-2_決定
  6
CONTINUOUS
 62
    7
 10
826.43885842339103
 20
1384.6959250870459
 40
3.756819280592683
 50
281.71050118859745
 51
302.21062685160382
  0
ARC
  8
_0-2_決定
  6
CONTINUOUS
 62
    7
 10
824.52502264604959
 20
1392.0324258329958
 40
11.335598118636161
 50
269.47606967650086
 51
283.65652756498338
  0
ARC
  8
_0-2_決定
  6
CONTINUOUS
 62
    7
 10
824.30190985082277
 20
1390.6887091115432
 40
9.9921215673400052
 50
254.55792826651671
 51
270.68500004814774
  0
ARC
  8
_0-2_決定
  6
CONTINUOUS
 62
    7
 10
822.23820951426262
 20
1383.734932316424
 40
2.7433421154199635
 50
227.96661865516529
 51
257.43423692215731
  0
ARC
  8
_0-2_決定
  6
CONTINUOUS
 62
    7
 10
820.78862842119293
 20
1382.1120688883968
 40
0.5674527267295371
 50
181.49121911006497
 51
226.96427152581629
  0
ARC
  8
_0-2_決定
  6
CONTINUOUS
 62
    7
 10
821.17982046160421
 20
1382.0469545995343
 40
0.959774026880502
 50
128.57473234017075
 51
176.99304454520328
  0
ARC
  8
_0-2_決定
  6
CONTINUOUS
 62
    7
 10
822.48239073773846
 20
1380.3152180371023
 40
3.1264399797539015
 50
104.84525106432891
 51
127.448431406823
  0
ARC
  8
_0-2_決定
  6
CONTINUOUS
 62
    7
 10
824.23800889529389
 20
1374.4856450004033
 40
9.2134813519371743
 50
88.859672152506747
 51
106.1104057482638
  0
ARC
  8
_0-2_決定
  6
CONTINUOUS
 62
    7
 10
824.59833571795343
 20
1373.5626572724937
 40
10.136189330289863
 50
74.650973053402979
 51
91.000378473606716
  0
ARC
  8
_0-2_決定
  6
CONTINUOUS
 62
    7
 10
826.64670264942231
 20
1380.5274919774461
 40
2.8805954781554788
 50
48.872726612293462
 51
77.271917685678758
  0
ARC
  8
_0-2_決定
  6
CONTINUOUS
 62
    7
 10
827.96780598810074
 20
1382.064306095366
 40
0.8541993933153934
 50
2.2137408439898985
 51
47.820046112124722
  0
ARC
  8
_0-2_決定
  6
CONTINUOUS
 62
    7
 10
684.03820382404149
 20
1501.0804656957691
 40
4.5868247042316401
 50
272.28860565918825
 51
357.71139434082653
  0
ARC
  8
_0-2_決定
  6
CONTINUOUS
 62
    7
 10
684.33467447543933
 20
1501.010604242214
 40
4.5147266068699485
 50
181.43808419710896
 51
268.56191580288362
  0
ARC
  8
_0-2_決定
  6
CONTINUOUS
 62
    7
 10
684.35152027971128
 20
1500.7671492401
 40
4.5320196163522981
 50
91.645644727523134
 51
178.35435527247225
  0
ARC
  8
_0-2_決定
  6
CONTINUOUS
 62
    7
 10
684.03820382404206
 20
1500.7141335908177
 40
4.5868247042311587
 50
2.2886056591794643
 51
87.711394340817776
  0
ARC
  8
_0-2_決定
  6
CONTINUOUS
 62
    7
 10
672.89177581229694
 20
1350.776171132869
 40
0.9329338243526446
 50
307.62860890914015
 51
355.15047175891385
  0
ARC
  8
_0-2_決定
  6
CONTINUOUS
 62
    7
 10
671.70887450352723
 20
1352.2422923892732
 40
2.8165979873260403
 50
284.65292302568844
 51
308.47717932851134
  0
ARC
  8
_0-2_決定
  6
CONTINUOUS
 62
    7
 10
670.83348207530037
 20
1355.1373947430491
 40
5.840105659932938
 50
269.88117023752716
 51
285.77698278260851
  0
ARC
  8
_0-2_決定
  6
CONTINUOUS
 62
    7
 10
670.70522930203822
 20
1353.8782263890898
 40
4.5823967702168025
 50
247.08996775443279
 51
271.45231364951303
  0
ARC
  8
_0-2_決定
  6
CONTINUOUS
 62
    7
 10
669.37042474194925
 20
1350.9553298922247
 40
1.3735092308357364
 50
190.827956696283
 51
250.91685989871792
  0
ARC
  8
_0-2_決定
  6
CONTINUOUS
 62
    7
 10
669.19018598314949
 20
1350.610442514421
 40
1.172039077586907
 50
132.30126513387651
 51
175.74994694123316
  0
ARC
  8
_0-2_決定
  6
CONTINUOUS
 62
    7
 10
670.25529522973841
 20
1349.4651643643781
 40
2.7360072449675088
 50
107.306701799758
 51
132.65657693795194
  0
ARC
  8
_0-2_決定
  6
CONTINUOUS
 62
    7
 10
670.80216771417042
 20
1347.9795697525524
 40
4.3177745892249533
 50
89.745191310026044
 51
108.37058494715923
  0
ARC
  8
_0-2_決定
  6
CONTINUOUS
 62
    7
 10
670.92210189787238
 20
1348.3386574768283
 40
3.959925577180794
 50
46.630807449874766
 51
91.457639088869755
  0
ARC
  8
_0-2_決定
  6
CONTINUOUS
 62
    7
 10
672.96976886689777
 20
1350.6936705245787
 40
0.851608750899979
 50
0.2443004577494467
 51
37.942683543196495
  0
ARC
  8
_0-2_決定
  6
CONTINUOUS
 62
    7
 10
693.84017668169292
 20
1377.5593438577748
 40
0.9831527459908612
 50
309.18585214168291
 51
356.38192474367423
  0
ARC
  8
_0-2_決定
  6
CONTINUOUS
 62
    7
 10
692.79650563771611
 20
1378.8026122655594
 40
2.6063467968431366
 50
284.32493686898385
 51
309.70039382686605
  0
ARC
  8
_0-2_決定
  6
CONTINUOUS
 62
    7
 10
692.06092571396084
 20
1381.4763611479025
 40
5.3792049429636366
 50
269.57867324440429
 51
284.86995814370994
  0
ARC
  8
_0-2_決定
  6
CONTINUOUS
 62
    7
 10
691.93769275518889
 20
1381.3679843025809
 40
5.2713468445504352
 50
248.68250374356967
 51
270.90954881298092
  0
ARC
  8
_0-2_決定
  6
CONTINUOUS
 62
    7
 10
690.44049094539105
 20
1377.8610719018247
 40
1.4650028700010975
 50
194.37734331522873
 51
253.376051256587
  0
ARC
  8
_0-2_決定
  6
CONTINUOUS
 62
    7
 10
689.95096394073926
 20
1377.4184321537182
 40
0.9329338243527219
 50
127.62860890914277
 51
175.15047175891647
  0
ARC
  8
_0-2_決定
  6
CONTINUOUS
 62
    7
 10
691.1338652495067
 20
1375.952310897314
 40
2.8165979873250397
 50
104.65292302564774
 51
128.47717932847064
  0
ARC
  8
_0-2_決定
  6
CONTINUOUS
 62
    7
 10
692.00925767773526
 20
1373.0572085435369
 40
5.840105659932938
 50
89.881170237527144
 51
105.77698278260854
  0
ARC
  8
_0-2_決定
  6
CONTINUOUS
 62
    7
 10
692.13751045099912
 20
1374.3163768974969
 40
4.5823967702163939
 50
67.089967754459636
 51
91.452313649539917
  0
ARC
  8
_0-2_決定
  6
CONTINUOUS
 62
    7
 10
693.47231501108638
 20
1377.239273394362
 40
1.3735092308357899
 50
10.827956696281062
 51
70.916859898715998
  0
ARC
  8
_0-2_決定
  6
CONTINUOUS
 62
    7
 10
704.17907413381783
 20
1541.9328868770947
 40
10.84354225010728
 50
345.16911754915736
 51
0.8687676371632279
  0
ARC
  8
_0-2_決定
  6
CONTINUOUS
 62
    7
 10
711.92752062090676
 20
1539.7242242710979
 40
2.7920127660910818
 50
318.5854041893063
 51
348.28449345655304
  0
ARC
  8
_0-2_決定
  6
CONTINUOUS
 62
    7
 10
713.60815272138154
 20
1538.2611155435943
 40
0.5639707994417551
 50
271.3429002822607
 51
317.11259035369505
  0
ARC
  8
_0-2_決定
  6
CONTINUOUS
 62
    7
 10
713.72969930934403
 20
1538.4952761460277
 40
0.8052960728412952
 50
211.26751477121132
 51
262.26906309280827
  0
ARC
  8
_0-2_決定
  6
CONTINUOUS
 62
    7
 10
716.21999332027258
 20
1540.0798090964199
 40
3.7568192805954252
 50
191.71050118858719
 51
212.21062685159359
  0
ARC
  8
_0-2_決定
  6
CONTINUOUS
 62
    7
 10
723.55649406622092
 20
1541.9936448737599
 40
11.335598118636508
 50
179.4760696764904
 51
193.65652756497292
  0
ARC
  8
_0-2_決定
  6
CONTINUOUS
 62
    7
 10
724.03276418944927
 20
1542.3152156841111
 40
11.813404378771654
 50
165.77914377091892
 51
181.05696691874479
  0
ARC
  8
_0-2_決定
  6
CONTINUOUS
 62
    7
 10
715.40564152969637
 20
1544.6394493112844
 40
2.8827801472106507
 50
139.87444010928075
 51
168.43678478158003
  0
ARC
  8
_0-2_決定
  6
CONTINUOUS
 62
    7
 10
713.6397047155566
 20
1546.1177964813105
 40
0.5797931364461832
 50
91.812170575783696
 51
139.11451954794748
  0
ARC
  8
_0-2_決定
  6
CONTINUOUS
 62
    7
 10
713.51678385009791
 20
1545.9050367608615
 40
0.7991362285620313
 50
31.056668921161744
 51
82.479908942985546
  0
ARC
  8
_0-2_決定
  6
CONTINUOUS
 62
    7
 10
711.06665753432026
 20
1544.3201224538684
 40
3.7168720981875154
 50
12.069287819243851
 51
32.501887474421494
  0
ARC
  8
_0-2_決定
  6
CONTINUOUS
 62
    7
 10
702.78872675443836
 20
1542.3095510436031
 40
12.234484394901557
 50
359.00594752060306
 51
13.171108787802162
  0
ARC
  8
_0-2_決定
  6
CONTINUOUS
 62
    7
 10
740.4111634547013
 20
1495.1890828095884
 40
10.796516084429289
 50
56.936685338574655
 51
72.702257720613815
  0
ARC
  8
_0-2_決定
  6
CONTINUOUS
 62
    7
 10
744.71879991243497
 20
1501.6147296792105
 40
3.0630705032246555
 50
31.108562848686347
 51
58.89143715130583
  0
ARC
  8
_0-2_決定
  6
CONTINUOUS
 62
    7
 10
746.74252297247278
 20
1502.845084138645
 40
0.6947469871819091
 50
347.71837687442348
 51
30.462176967307521
  0
ARC
  8
_0-2_決定
  6
CONTINUOUS
 62
    7
 10
746.69295378098639
 20
1503.1161613722616
 40
0.8402589816388451
 50
282.95794107612483
 51
330.09976965776474
  0
ARC
  8
_0-2_決定
  6
CONTINUOUS
 62
    7
 10
745.62118221464175
 20
1506.9690824311174
 40
4.8387629989241105
 50
266.92208264043518
 51
285.09592927454298
  0
ARC
  8
_0-2_決定
  6
CONTINUOUS
 62
    7
 10
745.70562596617833
 20
1513.706773164799
 40
11.574594153579971
 50
255.57050128746778
 51
268.29563525296237
  0
ARC
  8
_0-2_決定
  6
CONTINUOUS
 62
    7
 10
746.20482050369219
 20
1513.5454002345459
 40
11.554577656538083
 50
237.5283312649731
 51
252.97293575358356
  0
ARC
  8
_0-2_決定
  6
CONTINUOUS
 62
    7
 10
741.29197552520566
 20
1506.0422931790076
 40
2.5895287053488514
 50
208.73635554191176
 51
240.10619332687958
  0
ARC
  8
_0-2_決定
  6
CONTINUOUS
 62
    7
 10
739.53633209540499
 20
1505.0472996432932
 40
0.5724387188872517
 50
154.10470160075965
 51
205.89529839924035
  0
ARC
  8
_0-2_決定
  6
CONTINUOUS
 62
    7
 10
739.72521596101558
 20
1505.04328633773
 40
0.7482794064159286
 50
107.40642090512529
 51
160.15582862461798
  0
ARC
  8
_0-2_決定
  6
CONTINUOUS
 62
    7
 10
740.57021549675369
 20
1502.4065346814023
 40
3.5171091523765883
 50
86.558101035548376
 51
107.69193166223643
  0
ARC
  8
_0-2_決定
  6
CONTINUOUS
 62
    7
 10
740.3592319577217
 20
1493.2509384781063
 40
12.673393609820501
 50
75.084126945130009
 51
88.091182474009074
  0
ARC
  8
_0-2_決定
  6
CONTINUOUS
 62
    7
 10
712.48028095585255
 20
1427.2558232983165
 40
5.5412441635265219
 50
321.90820888016776
 51
0.4288849637406971
  0
ARC
  8
_0-2_決定
  6
CONTINUOUS
 62
    7
 10
714.83602306301805
 20
1425.4880795162408
 40
2.5973993586333655
 50
274.09202513362243
 51
320.53919081323727
  0
ARC
  8
_0-2_決定
  6
CONTINUOUS
 62
    7
 10
715.13253311794074
 20
1425.2567835531754
 40
2.3620990981127519
 50
206.64966990204769
 51
267.30259498636417
  0
ARC
  8
_0-2_決定
  6
CONTINUOUS
 62
    7
 10
717.91823874134252
 20
1427.1142355438919
 40
5.6998094757414695
 50
178.15946145623332
 51
210.78112674387816
  0
ARC
  8
_0-2_決定
  6
CONTINUOUS
 62
    7
 10
718.00597923842247
 20
1427.4008919059161
 40
5.7855368300911669
 50
143.06709597604856
 51
181.02593798978802
  0
ARC
  8
_0-2_決定
  6
CONTINUOUS
 62
    7
 10
715.14551433499435
 20
1429.3990127263414
 40
2.3016393706127429
 50
93.091886166228349
 51
140.03821618796337
  0
ARC
  8
_0-2_決定
  6
CONTINUOUS
 62
    7
 10
714.96499546912844
 20
1429.500139009823
 40
2.1978857367313518
 50
55.769125828178431
 51
88.530237567360771
  0
ARC
  8
_0-2_決定
  6
CONTINUOUS
 62
    7
 10
713.91572329198254
 20
1428.048705112014
 40
3.988471335447902
 50
11.696849112028085
 51
55.035882890101803
  0
ARC
  8
_0-2_決定
  6
CONTINUOUS
 62
    7
 10
711.96437348019742
 20
1427.3135841565863
 40
6.0570182817352052
 50
359.84597695238773
 51
14.765542114216938
  0
ARC
  8
_0-2_決定
  6
CONTINUOUS
 62
    7
 10
724.23941003419429
 20
1443.2721157200363
 40
26.182928214488847
 50
342.7259683144361
 51
0.4927776590594836
  0
ARC
  8
_0-2_決定
  6
CONTINUOUS
 62
    7
 10
739.378481894218
 20
1438.7734064770132
 40
10.392758162918863
 50
327.68232224686284
 51
341.62532586925482
  0
ARC
  8
_0-2_決定
  6
CONTINUOUS
 62
    7
 10
744.63143968855377
 20
1435.4052026659729
 40
4.1529890460900898
 50
305.81033211760882
 51
328.2087755083964
  0
ARC
  8
_0-2_決定
  6
CONTINUOUS
 62
    7
 10
745.98389364378761
 20
1433.5725230610542
 40
1.8755958609592536
 50
271.14490168926147
 51
305.06262437976972
  0
ARC
  8
_0-2_決定
  6
CONTINUOUS
 62
    7
 10
746.06967688812347
 20
1433.6056525023223
 40
1.9089621705330546
 50
235.24252014539368
 51
268.5499537855751
  0
ARC
  8
_0-2_決定
  6
CONTINUOUS
 62
    7
 10
747.28949700808982
 20
1435.2574238851903
 40
3.9618982960515465
 50
213.385684705838
 51
234.36770986602465
  0
ARC
  8
_0-2_決定
  6
CONTINUOUS
 62
    7
 10
751.65366691445001
 20
1438.2034740897361
 40
9.2272306673743785
 50
200.33255817750305
 51
213.74848964152625
  0
ARC
  8
_0-2_決定
  6
CONTINUOUS
 62
    7
 10
759.9254460406388
 20
1441.4466934165387
 40
18.111295046289616
 50
191.2372704295849
 51
200.86073915551196
  0
ARC
  8
_0-2_決定
  6
CONTINUOUS
 62
    7
 10
769.38230758329439
 20
1443.3677149697537
 40
27.761240157195498
 50
179.73254809955901
 51
191.32253220374628
  0
ARC
  8
_0-2_決定
  6
CONTINUOUS
 62
    7
 10
767.95391835367866
 20
1443.777870058756
 40
26.334043136931641
 50
162.77211330111527
 51
180.61045279404976
  0
ARC
  8
_0-2_決定
  6
CONTINUOUS
 62
    7
 10
752.38036721326409
 20
1448.345578143194
 40
10.109462238837336
 50
147.63487973693105
 51
161.35684128943549
  0
ARC
  8
_0-2_決定
  6
CONTINUOUS
 62
    7
 10
747.3812470392221
 20
1451.5601280170449
 40
4.1663295922089931
 50
125.84665341183724
 51
148.17245421423883
  0
ARC
  8
_0-2_決定
  6
CONTINUOUS
 62
    7
 10
746.05833593057071
 20
1453.3864034811318
 40
1.9112556802536669
 50
91.108240502848872
 51
125.76165714296802
  0
ARC
  8
_0-2_決定
  6
CONTINUOUS
 62
    7
 10
745.97399749495764
 20
1453.3551844986118
 40
1.9426948155073758
 50
54.527391609438602
 51
88.602710744744513
  0
ARC
  8
_0-2_決定
  6
CONTINUOUS
 62
    7
 10
744.73940386079335
 20
1451.6654112435572
 40
4.0353624678981443
 50
33.578778170820172
 51
54.174616401046329
  0
ARC
  8
_0-2_決定
  6
CONTINUOUS
 62
    7
 10
740.47176306016866
 20
1448.7929189974507
 40
9.1796308404676434
 50
20.297613806241323
 51
33.783434012787943
  0
ARC
  8
_0-2_決定
  6
CONTINUOUS
 62
    7
 10
732.26185321788819
 20
1445.7017901942843
 40
17.952108081686415
 50
10.707809432125895
 51
20.460992901705129
  0
ARC
  8
_0-2_決定
  6
CONTINUOUS
 62
    7
 10
722.11919681109293
 20
1443.6351843158548
 40
28.302508932189177
 50
359.7208683344985
 51
11.003596732030884
  0
ARC
  8
_0-2_決定
  6
CONTINUOUS
 62
    7
 10
820.81224156042026
 20
912.63595627022266
 40
27.107216866988622
 50
283.67629472941491
 51
301.06876747027638
  0
ARC
  8
_0-2_決定
  6
CONTINUOUS
 62
    7
 10
831.96103574694234
 20
893.84703321172515
 40
5.2621229080115643
 50
302.66793200019742
 51
322.96046638623051
  0
ARC
  8
_0-2_決定
  6
CONTINUOUS
 62
    7
 10
835.12850361067933
 20
891.48372602478116
 40
1.3103877181881642
 50
322.01879957676812
 51
9.3806455248492693
  0
ARC
  8
_0-2_決定
  6
CONTINUOUS
 62
    7
 10
835.37058106687766
 20
891.2946015146174
 40
1.1253118484293316
 50
20.96904910369182
 51
63.005375887879453
  0
ARC
  8
_0-2_決定
  6
CONTINUOUS
 62
    7
 10
833.98580332496465
 20
888.59717512167003
 40
4.1574223320724082
 50
62.874112733061452
 51
82.320479004224168
  0
ARC
  8
_0-2_決定
  6
CONTINUOUS
 62
    7
 10
832.6326526505801
 20
879.5884797479639
 40
13.266852235335364
 50
81.728093545151879
 51
92.986815866724143
  0
ARC
  8
_0-2_決定
  6
CONTINUOUS
 62
    7
 10
833.09698041844797
 20
864.92098117881324
 40
27.940236850889505
 50
92.370438516908948
 51
105.09374466323236
  0
ARC
  8
_0-2_決定
  6
CONTINUOUS
 62
    7
 10
832.13041736935338
 20
864.95968591120436
 40
27.666580522982098
 50
103.18162594285175
 51
120.42119302985188
  0
ARC
  8
_0-2_決定
  6
CONTINUOUS
 62
    7
 10
821.03794575152108
 20
884.16888978217776
 40
5.4876437298873126
 50
122.10556855634275
 51
141.86885643528282
  0
ARC
  8
_0-2_決定
  6
CONTINUOUS
 62
    7
 10
817.73547954150558
 20
886.69784407773079
 40
1.3293244628200052
 50
139.71852899625299
 51
188.6764430959017
  0
ARC
  8
_0-2_決定
  6
CONTINUOUS
 62
    7
 10
817.52755893207222
 20
886.85146596147433
 40
1.1615013340914051
 50
197.75290198524877
 51
240.82591173979586
  0
ARC
  8
_0-2_決定
  6
CONTINUOUS
 62
    7
 10
818.77078608408965
 20
889.01925351986381
 40
3.6604318165397793
 50
240.37519574614549
 51
261.68398863685724
  0
ARC
  8
_0-2_決定
  6
CONTINUOUS
 62
    7
 10
820.0328409946917
 20
897.16677200678521
 40
11.905025000343169
 50
261.34523159612507
 51
272.92995795165695
  0
ARC
  8
_0-2_決定
  6
CONTINUOUS
 62
    7
 10
819.2739314744648
 20
915.83234055065668
 40
30.585614201182857
 50
272.56246151063817
 51
285.06070511224175
  0
ARC
  8
_0-2_決定
  6
CONTINUOUS
 62
    7
 10
795.74399937709302
 20
1170.8385537647137
 40
2.9713125481831684
 50
345.5539522008674
 51
12.809136875747175
  0
ARC
  8
_0-2_決定
  6
CONTINUOUS
 62
    7
 10
794.09994681166154
 20
1170.3411185033572
 40
4.6862857350862184
 50
14.283335691951045
 51
33.641642257193794
  0
ARC
  8
_0-2_決定
  6
CONTINUOUS
 62
    7
 10
790.85799585667587
 20
1168.3927880466356
 40
8.4664280543919563
 50
32.4639721934928
 51
46.728445085985825
  0
ARC
  8
_0-2_決定
  6
CONTINUOUS
 62
    7
 10
785.9463337070116
 20
1162.9521867819042
 40
15.795275908975615
 50
47.283635265650801
 51
68.788038274483341
  0
ARC
  8
_0-2_決定
  6
CONTINUOUS
 62
    7
 10
783.08646959210137
 20
1157.1609421289422
 40
22.236232874322098
 50
67.317311117045435
 51
75.586772676129485
  0
ARC
  8
_0-2_決定
  6
CONTINUOUS
 62
    7
 10
783.19600665392159
 20
1157.6523626053781
 40
21.73302031160717
 50
75.543980220715127
 51
95.160078396504986
  0
ARC
  8
_0-2_決定
  6
CONTINUOUS
 62
    7
 10
782.11027419272057
 20
1169.9882581420975
 40
9.3495114078682242
 50
95.332536471217779
 51
122.6848777700762
  0
ARC
  8
_0-2_決定
  6
CONTINUOUS
 62
    7
 10
779.09979469740904
 20
1175.1043231103915
 40
3.425506784489885
 50
126.51784090125956
 51
163.14928702712314
  0
ARC
  8
_0-2_決定
  6
CONTINUOUS
 62
    7
 10
779.24553184214574
 20
1175.1334546587673
 40
3.5572331360024685
 50
164.27888246220726
 51
212.97582382591327
  0
ARC
  8
_0-2_決定
  6
CONTINUOUS
 62
    7
 10
782.83805791331645
 20
1177.0147595177555
 40
7.6043281046900013
 50
210.1331144939214
 51
225.00406956375377
  0
ARC
  8
_0-2_決定
  6
CONTINUOUS
 62
    7
 10
787.72734354255647
 20
1181.9012691423516
 40
14.516859270713256
 50
224.9943843635215
 51
247.62548058452035
  0
ARC
  8
_0-2_決定
  6
CONTINUOUS
 62
    7
 10
791.00584369850196
 20
1188.449260991754
 40
21.826538776013287
 50
246.2101021578452
 51
255.7180349186111
  0
ARC
  8
_0-2_決定
  6
CONTINUOUS
 62
    7
 10
791.01781567215426
 20
1187.9866135296065
 40
21.381513267907355
 50
255.38110429267337
 51
275.32295432454674
  0
ARC
  8
_0-2_決定
  6
CONTINUOUS
 62
    7
 10
792.01773854322823
 20
1176.1881456431652
 40
9.5416754591885695
 50
275.91700166294021
 51
302.90597205444158
  0
ARC
  8
_0-2_決定
  6
CONTINUOUS
 62
    7
 10
794.86259297690765
 20
1171.3921287461296
 40
3.9755446939475982
 50
306.03578559161775
 51
340.9921902678866
  0
ARC
  8
_0-2_決定
  6
CONTINUOUS
 62
    7
 10
815.0246225556225
 20
1098.0984484787748
 40
4.6011439866017154
 50
269.95947108101035
 51
357.49446887887405
  0
ARC
  8
_0-2_決定
  6
CONTINUOUS
 62
    7
 10
815.20453392899412
 20
1098.0804716957691
 40
4.5868247042314643
 50
182.28860565918305
 51
267.71139434082136
  0
ARC
  8
_0-2_決定
  6
CONTINUOUS
 62
    7
 10
815.20453392899469
 20
1097.7141395908168
 40
4.5868247042319368
 50
92.288605659184569
 51
177.71139434082286
  0
ARC
  8
_0-2_決定
  6
CONTINUOUS
 62
    7
 10
814.90185107067475
 20
1097.567810800821
 40
4.7310047275235192
 50
3.9936462355431352
 51
88.552413804560658
  0
ARC
  8
_0-2_決定
  6
CONTINUOUS
 62
    7
 10
792.99981224895191
 20
1005.1087336352288
 40
2.4215825839090037
 50
275.24945117444406
 51
359.72965466956015
  0
ARC
  8
_0-2_決定
  6
CONTINUOUS
 62
    7
 10
793.33185360881885
 20
1004.6931505257153
 40
1.9988986738599881
 50
202.21787771946524
 51
266.83145822409557
  0
ARC
  8
_0-2_決定
  6
CONTINUOUS
 62
    7
 10
793.95925607898164
 20
1005.1018343093631
 40
2.7378919445253178
 50
180.0947294431206
 51
205.17199442744234
  0
ARC
  8
_0-2_決定
  6
CONTINUOUS
 62
    7
 10
793.5156843679556
 20
1005.02065628744
 40
2.2955965658711421
 50
97.366118354096614
 51
178.08650363369833
  0
ARC
  8
_0-2_決定
  6
CONTINUOUS
 62
    7
 10
793.12621118413006
 20
1005.0021509509045
 40
2.2971284332231034
 50
2.3741107609717877
 51
87.625889239039992
  0
ARC
  8
_0-2_決定
  6
CONTINUOUS
 62
    7
 10
803.89177381229672
 20
947.77617713286747
 40
0.9329338243523539
 50
307.62860890917977
 51
355.15047175895347
  0
ARC
  8
_0-2_決定
  6
CONTINUOUS
 62
    7
 10
802.70887250352928
 20
949.24229838927408
 40
2.8165979873263014
 50
284.65292302563643
 51
308.47717932845933
  0
ARC
  8
_0-2_決定
  6
CONTINUOUS
 62
    7
 10
801.83348007530071
 20
952.1374007430494
 40
5.8401056599329308
 50
269.88117023752665
 51
285.776982782608
  0
ARC
  8
_0-2_決定
  6
CONTINUOUS
 62
    7
 10
801.73769075518862
 20
951.56799030258082
 40
5.2713468445504086
 50
248.68250374357126
 51
270.90954881298251
  0
ARC
  8
_0-2_決定
  6
CONTINUOUS
 62
    7
 10
800.24048894538964
 20
948.06107790182398
 40
1.4650028700004527
 50
194.37734331525294
 51
253.37605125661122
  0
ARC
  8
_0-2_決定
  6
CONTINUOUS
 62
    7
 10
799.90000367531252
 20
947.58830541615112
 40
1.084129453508216
 50
130.12227875524053
 51
174.22952847625606
  0
ARC
  8
_0-2_決定
  6
CONTINUOUS
 62
    7
 10
801.20965896845519
 20
946.16963928959422
 40
3.0141742050146014
 50
107.93725269249704
 51
131.78077963733858
  0
ARC
  8
_0-2_決定
  6
CONTINUOUS
 62
    7
 10
801.83802071966852
 20
944.50790234155602
 40
4.7894342527580012
 50
90.199217590557623
 51
108.96667185652372
  0
ARC
  8
_0-2_決定
  6
CONTINUOUS
 62
    7
 10
801.92209989787216
 20
945.33866347682851
 40
3.9599255771808064
 50
46.630807449874268
 51
91.457639088869257
  0
ARC
  8
_0-2_決定
  6
CONTINUOUS
 62
    7
 10
803.96976686689584
 20
947.69367652457834
 40
0.8516087509012462
 50
0.2443004577199312
 51
37.942683543166979
  0
ARC
  8
_0-2_決定
  6
CONTINUOUS
 62
    7
 10
824.84017468169384
 20
974.55934985777401
 40
0.983152745989545
 50
309.18585214169002
 51
356.38192474368134
  0
ARC
  8
_0-2_決定
  6
CONTINUOUS
 62
    7
 10
823.79650363771646
 20
975.80261826556068
 40
2.6063467968442429
 50
284.32493686896896
 51
309.70039382685115
  0
ARC
  8
_0-2_決定
  6
CONTINUOUS
 62
    7
 10
823.06092371396062
 20
978.47636714790053
 40
5.3792049429615174
 50
269.57867324440713
 51
284.86995814371278
  0
ARC
  8
_0-2_決定
  6
CONTINUOUS
 62
    7
 10
822.83959224251078
 20
978.29665383925044
 40
5.2025227771278377
 50
249.07303913996674
 51
272.00231644398002
  0
ARC
  8
_0-2_決定
  6
CONTINUOUS
 62
    7
 10
821.39513377707829
 20
974.77675600606506
 40
1.4019001879587516
 50
191.49809890261773
 51
252.83367906476502
  0
ARC
  8
_0-2_決定
  6
CONTINUOUS
 62
    7
 10
820.98447704897751
 20
974.44456578317056
 40
0.9645522183297106
 50
128.70228202314465
 51
176.8654948622264
  0
ARC
  8
_0-2_決定
  6
CONTINUOUS
 62
    7
 10
822.07403411862799
 20
973.08725722668692
 40
2.7050751870874388
 50
103.52568277181228
 51
128.73631831812946
  0
ARC
  8
_0-2_決定
  6
CONTINUOUS
 62
    7
 10
822.92661803294948
 20
969.70455627017884
 40
6.193476172721426
 50
89.123436052064619
 51
103.87525650725948
  0
ARC
  8
_0-2_決定
  6
CONTINUOUS
 62
    7
 10
823.13750845099776
 20
971.31638289749674
 40
4.5823967702168025
 50
67.089967754432749
 51
91.45231364951303
  0
ARC
  8
_0-2_決定
  6
CONTINUOUS
 62
    7
 10
824.47231301108673
 20
974.23927939436203
 40
1.3735092308353949
 50
10.827956696264001
 51
70.916859898698945
  0
ARC
  8
_0-2_決定
  6
CONTINUOUS
 62
    7
 10
754.01401875010777
 20
875.89490157639284
 40
2.2073524399265132
 50
275.39011629319742
 51
0.0625056946254009
  0
ARC
  8
_0-2_決定
  6
CONTINUOUS
 62
    7
 10
754.31201980702042
 20
875.78880958011325
 40
2.0934634927840703
 50
177.02914228055783
 51
267.51823573161931
  0
ARC
  8
_0-2_決定
  6
CONTINUOUS
 62
    7
 10
754.56020120787684
 20
875.98161686716094
 40
2.3403503379925072
 50
98.32442610538078
 51
182.0644317100942
  0
ARC
  8
_0-2_決定
  6
CONTINUOUS
 62
    7
 10
754.20830239546945
 20
876.37527679020423
 40
1.9220772740487988
 50
22.70942320342354
 51
89.610464526625364
  0
ARC
  8
_0-2_決定
  6
CONTINUOUS
 62
    7
 10
753.2366941831782
 20
875.94376688394743
 40
2.9850372308603141
 50
359.10824854783573
 51
23.150130031390919
  0
ARC
  8
_0-2_決定
  6
CONTINUOUS
 62
    7
 10
764.89177581229626
 20
818.77617913286826
 40
0.9329338243526831
 50
307.62860890914146
 51
355.15047175891516
  0
ARC
  8
_0-2_決定
  6
CONTINUOUS
 62
    7
 10
763.70887450352768
 20
820.24230038927271
 40
2.8165979873255598
 50
284.65292302566888
 51
308.47717932849179
  0
ARC
  8
_0-2_決定
  6
CONTINUOUS
 62
    7
 10
762.83348207530196
 20
823.13740274304928
 40
5.8401056599327097
 50
269.8811702375109
 51
285.77698278259231
  0
ARC
  8
_0-2_決定
  6
CONTINUOUS
 62
    7
 10
762.73769275518873
 20
822.56799230258116
 40
5.2713468445504112
 50
248.68250374357115
 51
270.90954881298239
  0
ARC
  8
_0-2_決定
  6
CONTINUOUS
 62
    7
 10
761.24049094539032
 20
819.06107990182363
 40
1.465002870000047
 50
194.37734331523686
 51
253.37605125659513
  0
ARC
  8
_0-2_決定
  6
CONTINUOUS
 62
    7
 10
760.75096394073967
 20
818.61844015371776
 40
0.9329338243531863
 50
127.62860890915829
 51
175.15047175893201
  0
ARC
  8
_0-2_決定
  6
CONTINUOUS
 62
    7
 10
761.93386524950824
 20
817.15231889731376
 40
2.8165979873255598
 50
104.65292302566888
 51
128.47717932849179
  0
ARC
  8
_0-2_決定
  6
CONTINUOUS
 62
    7
 10
762.8092576777334
 20
814.2572165435389
 40
5.8401056599306731
 50
89.881170237513658
 51
105.77698278259506
  0
ARC
  8
_0-2_決定
  6
CONTINUOUS
 62
    7
 10
762.90504699784663
 20
814.82662698400361
 40
5.2713468445518616
 50
68.68250374357396
 51
90.909548812985193
  0
ARC
  8
_0-2_決定
  6
CONTINUOUS
 62
    7
 10
764.40224880764504
 20
818.33353938476239
 40
1.465002870000385
 50
14.377343315224151
 51
73.376051256582429
  0
ARC
  8
_0-2_決定
  6
CONTINUOUS
 62
    7
 10
785.74273207772308
 20
845.60631187043498
 40
1.0841294535076973
 50
310.12227875522609
 51
354.22952847624163
  0
ARC
  8
_0-2_決定
  6
CONTINUOUS
 62
    7
 10
784.4330767845787
 20
847.02497799699177
 40
3.0141742050151317
 50
287.93725269251462
 51
311.78077963735615
  0
ARC
  8
_0-2_決定
  6
CONTINUOUS
 62
    7
 10
783.80471503336764
 20
848.68671494502996
 40
4.789434252757772
 50
270.19921759054131
 51
288.96667185650739
  0
ARC
  8
_0-2_決定
  6
CONTINUOUS
 62
    7
 10
783.72063585516344
 20
847.85595380975656
 40
3.9599255771794102
 50
226.63080744986672
 51
271.4576390888617
  0
ARC
  8
_0-2_決定
  6
CONTINUOUS
 62
    7
 10
781.67296888613919
 20
845.50094076200844
 40
0.8516087509008901
 50
180.24430045779087
 51
217.94268354323791
  0
ARC
  8
_0-2_決定
  6
CONTINUOUS
 62
    7
 10
781.75096194073944
 20
845.41844015371771
 40
0.9329338243526831
 50
127.62860890914145
 51
175.15047175891516
  0
ARC
  8
_0-2_決定
  6
CONTINUOUS
 62
    7
 10
782.93386324950802
 20
843.95231889731338
 40
2.8165979873255598
 50
104.65292302566888
 51
128.47717932849179
  0
ARC
  8
_0-2_決定
  6
CONTINUOUS
 62
    7
 10
783.80925567773488
 20
841.05721654353886
 40
5.8401056599308916
 50
89.881170237529275
 51
105.77698278261067
  0
ARC
  8
_0-2_決定
  6
CONTINUOUS
 62
    7
 10
783.90504499784527
 20
841.62662698400368
 40
5.2713468445520668
 50
68.682503743561625
 51
90.909548812972872
  0
ARC
  8
_0-2_決定
  6
CONTINUOUS
 62
    7
 10
785.40224680764538
 20
845.13353938476234
 40
1.465002870000047
 50
14.377343315236859
 51
73.376051256595147
  0
ARC
  8
_0-2_決定
  6
CONTINUOUS
 62
    7
 10
835.17907213381818
 20
1138.9328928770931
 40
10.843542250106896
 50
345.16911754916816
 51
0.8687676371740585
  0
ARC
  8
_0-2_決定
  6
CONTINUOUS
 62
    7
 10
842.92751862090711
 20
1136.7242302710981
 40
2.792012766091144
 50
318.58540418930693
 51
348.28449345655366
  0
ARC
  8
_0-2_決定
  6
CONTINUOUS
 62
    7
 10
844.60815072138189
 20
1135.2611215435948
 40
0.5639707994417551
 50
271.3429002822607
 51
317.11259035369505
  0
ARC
  8
_0-2_決定
  6
CONTINUOUS
 62
    7
 10
844.75378983228325
 20
1135.5700771523957
 40
0.8827602627385211
 50
213.93255925294028
 51
261.37255374816277
  0
ARC
  8
_0-2_決定
  6
CONTINUOUS
 62
    7
 10
847.1299057022992
 20
1137.3465981396394
 40
3.8487265229277852
 50
195.51181976613276
 51
216.13016418225567
  0
ARC
  8
_0-2_決定
  6
CONTINUOUS
 62
    7
 10
852.39410021744277
 20
1139.0271232463024
 40
9.3729950978041003
 50
179.57098102818711
 51
196.80462299560335
  0
ARC
  8
_0-2_決定
  6
CONTINUOUS
 62
    7
 10
852.60365081769407
 20
1139.2319691984671
 40
9.583229134161563
 50
164.22477519096159
 51
180.80514690828988
  0
ARC
  8
_0-2_決定
  6
CONTINUOUS
 62
    7
 10
846.69291433278374
 20
1141.0630653604962
 40
3.4008510622356147
 50
140.69550911121971
 51
166.84061102248208
  0
ARC
  8
_0-2_決定
  6
CONTINUOUS
 62
    7
 10
844.65902272887433
 20
1142.7219959385798
 40
0.7762235671045671
 50
92.780527779332402
 51
140.3495745747945
  0
ARC
  8
_0-2_決定
  6
CONTINUOUS
 62
    7
 10
844.53026520891626
 20
1142.7033069010458
 40
0.7992081698372506
 50
32.890547070050502
 51
83.454559776645581
  0
ARC
  8
_0-2_決定
  6
CONTINUOUS
 62
    7
 10
842.26941717518741
 20
1141.1668020656768
 40
3.532593843683558
 50
12.266033915357339
 51
33.904233430267439
  0
ARC
  8
_0-2_決定
  6
CONTINUOUS
 62
    7
 10
834.58575071142889
 20
1139.3067080725402
 40
11.437534232685218
 50
358.95094995602807
 51
13.193962858377585
  0
ARC
  8
_0-2_決定
  6
CONTINUOUS
 62
    7
 10
864.57907213382157
 20
1100.7328928770949
 40
10.843542250103859
 50
345.16911754915515
 51
0.8687676371610147
  0
ARC
  8
_0-2_決定
  6
CONTINUOUS
 62
    7
 10
872.32751862090709
 20
1098.5242302710983
 40
2.792012766091144
 50
318.58540418930693
 51
348.28449345655366
  0
ARC
  8
_0-2_決定
  6
CONTINUOUS
 62
    7
 10
874.00815072138187
 20
1097.0611215435949
 40
0.5639707994417551
 50
271.3429002822607
 51
317.11259035369505
  0
ARC
  8
_0-2_決定
  6
CONTINUOUS
 62
    7
 10
874.12969730934435
 20
1097.2952821460287
 40
0.8052960728418473
 50
211.26751477123707
 51
262.26906309283402
  0
ARC
  8
_0-2_決定
  6
CONTINUOUS
 62
    7
 10
876.61999132027063
 20
1098.8798150964183
 40
3.7568192805925129
 50
191.7105011885788
 51
212.2106268515852
  0
ARC
  8
_0-2_決定
  6
CONTINUOUS
 62
    7
 10
883.95649206622124
 20
1100.7936508737616
 40
11.335598118636696
 50
179.47606967650199
 51
193.65652756498451
  0
ARC
  8
_0-2_決定
  6
CONTINUOUS
 62
    7
 10
883.46366361921753
 20
1101.0617184094954
 40
10.843542250106644
 50
165.16911754917911
 51
180.86876763718499
  0
ARC
  8
_0-2_決定
  6
CONTINUOUS
 62
    7
 10
875.7152171321286
 20
1103.2703810154869
 40
2.7920127660916405
 50
138.58540418928658
 51
168.28449345653331
  0
ARC
  8
_0-2_決定
  6
CONTINUOUS
 62
    7
 10
874.03458503165382
 20
1104.7334897429917
 40
0.5639707994417551
 50
91.3429002822607
 51
137.11259035369503
  0
ARC
  8
_0-2_決定
  6
CONTINUOUS
 62
    7
 10
873.91303844369133
 20
1104.4993291405583
 40
0.8052960728412952
 50
31.267514771211317
 51
82.269063092808281
  0
ARC
  8
_0-2_決定
  6
CONTINUOUS
 62
    7
 10
871.42274443276506
 20
1102.9147961901665
 40
3.7568192805931568
 50
11.710501188601107
 51
32.210626851607515
  0
ARC
  8
_0-2_決定
  6
CONTINUOUS
 62
    7
 10
864.08624368681103
 20
1101.000960412822
 40
11.335598118640533
 50
359.47606967651149
 51
13.656527564994006
  0
ARC
  8
_0-2_決定
  6
CONTINUOUS
 62
    7
 10
788.70108262149245
 20
1055.6945308112417
 40
11.26312884560142
 50
155.87939999171297
 51
171.51038776159578
  0
ARC
  8
_0-2_決定
  6
CONTINUOUS
 62
    7
 10
780.43920996962527
 20
1056.846451452667
 40
2.9228323866350436
 50
169.93407367420136
 51
198.12245365876123
  0
ARC
  8
_0-2_決定
  6
CONTINUOUS
 62
    7
 10
778.39554989333237
 20
1056.1707292934143
 40
0.770395288510734
 50
197.63724563604043
 51
240.9415680889847
  0
ARC
  8
_0-2_決定
  6
CONTINUOUS
 62
    7
 10
778.12998753384534
 20
1056.5448033725233
 40
1.0531123077403157
 50
264.07989497869033
 51
308.20878258192818
  0
ARC
  8
_0-2_決定
  6
CONTINUOUS
 62
    7
 10
776.23450662252765
 20
1059.2353831039366
 40
4.3431966561344897
 50
305.90213011311101
 51
325.21037434106171
  0
ARC
  8
_0-2_決定
  6
CONTINUOUS
 62
    7
 10
772.01768742115405
 20
1062.3035000174575
 40
9.5575065410624074
 50
324.52856524522605
 51
340.39928853845703
  0
ARC
  8
_0-2_決定
  6
CONTINUOUS
 62
    7
 10
771.73571250889268
 20
1063.4793799988724
 40
10.26771414365605
 50
334.73650944556698
 51
350.45805788578775
  0
ARC
  8
_0-2_決定
  6
CONTINUOUS
 62
    7
 10
778.67867003657182
 20
1062.4429670342272
 40
3.251564335481925
 50
348.18687086405095
 51
14.868180020389492
  0
ARC
  8
_0-2_決定
  6
CONTINUOUS
 62
    7
 10
781.24727441249377
 20
1063.1310261537465
 40
0.5924364898425212
 50
14.29483632103085
 51
72.910801624314956
  0
ARC
  8
_0-2_決定
  6
CONTINUOUS
 62
    7
 10
781.15087180756689
 20
1063.0127624017446
 40
0.736048621265834
 50
68.438632411625917
 51
121.95022540375049
  0
ARC
  8
_0-2_決定
  6
CONTINUOUS
 62
    7
 10
782.35240116993054
 20
1061.0476601576818
 40
3.0393503716908334
 50
121.56584466337254
 51
144.39142545598048
  0
ARC
  8
_0-2_決定
  6
CONTINUOUS
 62
    7
 10
789.7583093736273
 20
1055.4120141409978
 40
12.344728250199886
 50
143.13906796691961
 51
156.68792292506549
  0
ARC
  8
_0-2_決定
  6
CONTINUOUS
 62
    7
 10
702.507032487174
 20
940.11523428771375
 40
10.267721120706899
 50
154.73652164852891
 51
170.45807008874974
  0
ARC
  8
_0-2_決定
  6
CONTINUOUS
 62
    7
 10
695.5640677164638
 20
941.15164625235911
 40
3.2515643354819157
 50
168.18687086405095
 51
194.86818002038947
  0
ARC
  8
_0-2_決定
  6
CONTINUOUS
 62
    7
 10
692.99546334054185
 20
940.46358713283985
 40
0.5924364898425246
 50
194.29483632103054
 51
252.91080162431464
  0
ARC
  8
_0-2_決定
  6
CONTINUOUS
 62
    7
 10
693.10861682932682
 20
940.65942652719002
 40
0.8144544217388378
 50
249.34828775328657
 51
300.44989715420729
  0
ARC
  8
_0-2_決定
  6
CONTINUOUS
 62
    7
 10
691.99607315927949
 20
942.59471371629184
 40
3.0467098433407784
 50
300.04217516048408
 51
323.37933948254954
  0
ARC
  8
_0-2_決定
  6
CONTINUOUS
 62
    7
 10
687.63150521356181
 20
946.14437638729316
 40
8.6706218710423641
 50
321.75724276796967
 51
340.8308521452272
  0
ARC
  8
_0-2_決定
  6
CONTINUOUS
 62
    7
 10
686.53570726585883
 20
947.67938099887272
 40
10.267721120710075
 50
334.73652164853445
 51
350.45807008875528
  0
ARC
  8
_0-2_決定
  6
CONTINUOUS
 62
    7
 10
693.47867203657188
 20
946.64296903422769
 40
3.2515643354819179
 50
348.18687086405095
 51
14.868180020389495
  0
ARC
  8
_0-2_決定
  6
CONTINUOUS
 62
    7
 10
696.04727641249383
 20
947.33102815374707
 40
0.5924364898425237
 50
14.294836321030624
 51
72.910801624314729
  0
ARC
  8
_0-2_決定
  6
CONTINUOUS
 62
    7
 10
695.95087380756809
 20
947.21276440174461
 40
0.7360486212659258
 50
68.438632411704532
 51
121.95022540382912
  0
ARC
  8
_0-2_決定
  6
CONTINUOUS
 62
    7
 10
697.15240316992833
 20
945.24766215768182
 40
3.0393503716892796
 50
121.5658446633411
 51
144.39142545594905
  0
ARC
  8
_0-2_決定
  6
CONTINUOUS
 62
    7
 10
704.55831137363134
 20
939.61201614099775
 40
12.344728250203223
 50
143.13906796692856
 51
156.68792292507445
  0
ARC
  8
_0-2_決定
  6
CONTINUOUS
 62
    7
 10
843.4802789558529
 20
1024.2558292983174
 40
5.5412441635268008
 50
321.90820888015935
 51
0.4288849637322634
  0
ARC
  8
_0-2_決定
  6
CONTINUOUS
 62
    7
 10
845.83602106301782
 20
1022.488085516241
 40
2.5973993586333712
 50
274.09202513362266
 51
320.5391908132375
  0
ARC
  8
_0-2_決定
  6
CONTINUOUS
 62
    7
 10
846.07774228390724
 20
1022.0944702767647
 40
2.197885736732311
 50
235.7691258281865
 51
268.53023756736889
  0
ARC
  8
_0-2_決定
  6
CONTINUOUS
 62
    7
 10
847.12701446105314
 20
1023.5459041745725
 40
3.9884713354474877
 50
191.69684911201875
 51
235.03588289009247
  0
ARC
  8
_0-2_決定
  6
CONTINUOUS
 62
    7
 10
849.07836427283485
 20
1024.2810251300002
 40
6.0570182817316773
 50
179.84597695239202
 51
194.76554211422123
  0
ARC
  8
_0-2_決定
  6
CONTINUOUS
 62
    7
 10
848.56242588821033
 20
1024.3387965294796
 40
5.5412133343354411
 50
141.90809749549948
 51
180.42899634840896
  0
ARC
  8
_0-2_決定
  6
CONTINUOUS
 62
    7
 10
846.20671469001763
 20
1026.1065297703451
 40
2.5973993586333761
 50
94.092025133622911
 51
140.5391908132377
  0
ARC
  8
_0-2_決定
  6
CONTINUOUS
 62
    7
 10
845.96499346912992
 20
1026.5001450098218
 40
2.1978857367318185
 50
55.769125828226343
 51
88.53023756740869
  0
ARC
  8
_0-2_決定
  6
CONTINUOUS
 62
    7
 10
844.91572129198232
 20
1025.0487111120146
 40
3.9884713354474877
 50
11.696849112018748
 51
55.035882890092466
  0
ARC
  8
_0-2_決定
  6
CONTINUOUS
 62
    7
 10
842.9643714801972
 20
1024.3135901565843
 40
6.0570182817354477
 50
359.84597695240831
 51
14.765542114237519
  0
ARC
  8
_0-2_決定
  6
CONTINUOUS
 62
    7
 10
892.26715759363401
 20
1201.0181102715646
 40
3.7550454642033464
 50
1.2084493885554135
 51
49.590169752989887
  0
ARC
  8
_0-2_決定
  6
CONTINUOUS
 62
    7
 10
890.43224483615347
 20
1199.0759016551256
 40
6.4248636239028638
 50
48.3583946166288
 51
91.88090065408602
  0
ARC
  8
_0-2_決定
  6
CONTINUOUS
 62
    7
 10
890.20669550773562
 20
1198.4719552969798
 40
7.0253636678436369
 50
89.880338519459869
 51
139.04002404504254
  0
ARC
  8
_0-2_決定
  6
CONTINUOUS
 62
    7
 10
887.69519823433086
 20
1201.0110386719232
 40
3.4749012935840113
 50
143.51405948216711
 51
178.57747711882732
  0
ARC
  8
_0-2_決定
  6
CONTINUOUS
 62
    7
 10
888.12091526553615
 20
1201.1481652426414
 40
3.89987906754651
 50
180.74726358152432
 51
227.40373292862964
  0
ARC
  8
_0-2_決定
  6
CONTINUOUS
 62
    7
 10
889.98909304236861
 20
1203.0798976242686
 40
6.5866907561348125
 50
226.81401871558185
 51
272.02091278198588
  0
ARC
  8
_0-2_決定
  6
CONTINUOUS
 62
    7
 10
890.28015454645015
 20
1203.0256179220091
 40
6.5285789567292181
 50
269.48407247282637
 51
320.54971448337631
  0
ARC
  8
_0-2_決定
  6
CONTINUOUS
 62
    7
 10
892.06493119209313
 20
1201.1244683636075
 40
3.9565299392134627
 50
325.39166158351122
 51
359.60661587857703
  0
ARC
  8
_0-2_決定
  6
CONTINUOUS
 62
    7
 10
898.70240556472083
 20
886.5728753534421
 40
8.3252842760878867
 50
2.233368023583278
 51
89.181256743182743
  0
ARC
  8
_0-2_決定
  6
CONTINUOUS
 62
    7
 10
899.07914562379119
 20
886.43058745233861
 40
8.4706454314764574
 50
91.743888080927306
 51
176.84147318198862
  0
ARC
  8
_0-2_決定
  6
CONTINUOUS
 62
    7
 10
898.78991058526879
 20
887.2744955678769
 40
8.1772464317999969
 50
182.64377899518638
 51
270.22041337313715
  0
ARC
  8
_0-2_決定
  6
CONTINUOUS
 62
    7
 10
898.57855512906838
 20
887.56282857194162
 40
8.4690004582378453
 50
271.64293914125528
 51
355.49288244754126
  0
ARC
  8
_0-2_決定
  6
CONTINUOUS
 62
    7
 10
869.39094156750627
 20
944.819696144923
 40
3.2327438938594959
 50
305.78706357790867
 51
357.83031967449989
  0
ARC
  8
_0-2_決定
  6
CONTINUOUS
 62
    7
 10
866.27393577100463
 20
948.38602312005162
 40
7.960815004985232
 50
278.72382927773504
 51
308.97711853839735
  0
ARC
  8
_0-2_決定
  6
CONTINUOUS
 62
    7
 10
865.21747794040095
 20
952.05544971429038
 40
11.758142714449423
 50
270.01895511319594
 51
281.10093941343882
  0
ARC
  8
_0-2_決定
  6
CONTINUOUS
 62
    7
 10
865.07626982399643
 20
951.19756348497629
 40
10.901221530589883
 50
243.08343213026504
 51
270.76264402988886
  0
ARC
  8
_0-2_決定
  6
CONTINUOUS
 62
    7
 10
862.18872162894456
 20
945.39819606119113
 40
4.4232367530101202
 50
189.11728849180966
 51
242.42797711962925
  0
ARC
  8
_0-2_決定
  6
CONTINUOUS
 62
    7
 10
861.35557541850915
 20
944.60520387229735
 40
3.5354074806870699
 50
128.36272541696195
 51
178.50717222888207
  0
ARC
  8
_0-2_決定
  6
CONTINUOUS
 62
    7
 10
863.96302529867853
 20
941.75704989527969
 40
7.392104649820137
 50
99.041417756253239
 51
130.50886338142107
  0
ARC
  8
_0-2_決定
  6
CONTINUOUS
 62
    7
 10
865.20800708448405
 20
937.11119562961881
 40
12.186119338024673
 50
89.937181220156262
 51
101.39023129587373
  0
ARC
  8
_0-2_決定
  6
CONTINUOUS
 62
    7
 10
865.28510879536555
 20
938.70263927791768
 40
10.594860106533803
 50
62.230820677854645
 51
90.344705605075802
  0
ARC
  8
_0-2_決定
  6
CONTINUOUS
 62
    7
 10
867.81515762902643
 20
943.60748127798604
 40
5.0763368181322965
 50
24.310413846071597
 51
61.705399007987701
  0
ARC
  8
_0-2_決定
  6
CONTINUOUS
 62
    7
 10
869.63131327312169
 20
944.67529781468056
 40
2.9901356096079263
 50
0.4217473185159857
 51
19.986200124979678
  0
ARC
  8
_0-2_決定
  6
CONTINUOUS
 62
    7
 10
764.86786032129601
 20
955.71765722025259
 40
26.850947286040903
 50
147.8216396083869
 51
157.72100203743176
  0
ARC
  8
_0-2_決定
  6
CONTINUOUS
 62
    7
 10
748.87822413634694
 20
965.99990629821809
 40
7.8437694309297212
 50
131.68963771760934
 51
149.19102634441103
  0
ARC
  8
_0-2_決定
  6
CONTINUOUS
 62
    7
 10
744.2393608754503
 20
971.35033614667373
 40
0.7688261788152825
 50
76.306011052991153
 51
138.74512569441504
  0
ARC
  8
_0-2_決定
  6
CONTINUOUS
 62
    7
 10
744.05887860709754
 20
971.63941148474828
 40
0.5840109694313743
 50
355.86571623317479
 51
51.633272752542275
  0
ARC
  8
_0-2_決定
  6
CONTINUOUS
 62
    7
 10
738.11019814445785
 20
971.42931406198318
 40
6.5333319246016996
 50
346.43838920789096
 51
1.4734264676061448
  0
ARC
  8
_0-2_決定
  6
CONTINUOUS
 62
    7
 10
721.0047931415761
 20
974.8221048123537
 40
23.967991557045281
 50
335.53826231554774
 51
348.14275675088135
  0
ARC
  8
_0-2_決定
  6
CONTINUOUS
 62
    7
 10
717.97487943173962
 20
975.07695806633421
 40
26.850947286040903
 50
327.82163960838687
 51
337.72100203743179
  0
ARC
  8
_0-2_決定
  6
CONTINUOUS
 62
    7
 10
733.96451561668869
 20
964.79470898836882
 40
7.8437694309297212
 50
311.68963771760934
 51
329.191026344411
  0
ARC
  8
_0-2_決定
  6
CONTINUOUS
 62
    7
 10
738.60337887758476
 20
959.44427913991262
 40
0.7688261788155469
 50
256.30601105305357
 51
318.74512569447745
  0
ARC
  8
_0-2_決定
  6
CONTINUOUS
 62
    7
 10
738.78386114593809
 20
959.1552038018375
 40
0.5840109694313765
 50
175.86571623317471
 51
231.63327275254218
  0
ARC
  8
_0-2_決定
  6
CONTINUOUS
 62
    7
 10
744.73254160858119
 20
959.36530122460317
 40
6.5333319246051511
 50
166.43838920789418
 51
181.47342646760936
  0
ARC
  8
_0-2_決定
  6
CONTINUOUS
 62
    7
 10
761.83794661145953
 20
955.9725104742331
 40
23.967991557045281
 50
155.53826231554777
 51
168.14275675088135
  0
ARC
  8
_0-2_決定
  6
CONTINUOUS
 62
    7
 10
861.90224749873948
 20
877.41643002107128
 40
7.7257140266868563
 50
272.36734807815418
 51
357.63265192184588
  0
ARC
  8
_0-2_決定
  6
CONTINUOUS
 62
    7
 10
862.54048825429606
 20
877.41643002107128
 40
7.7257140266868563
 50
182.36734807815412
 51
267.63265192184576
  0
ARC
  8
_0-2_決定
  6
CONTINUOUS
 62
    7
 10
862.24012848159475
 20
877.07854903821567
 40
7.4187843260031787
 50
90.144889592478023
 51
179.85511040752198
  0
ARC
  8
_0-2_決定
  6
CONTINUOUS
 62
    7
 10
862.200522109041
 20
877.07646387581622
 40
7.4208750461587671
 50
0.1609481443209872
 51
89.839051855679003
  0
ARC
  8
_0-2_決定
  6
CONTINUOUS
 62
    7
 10
772.70728268116954
 20
902.70005627859996
 40
8.3293738972171045
 50
316.22260835197039
 51
18.168859517449398
  0
ARC
  8
_0-2_決定
  6
CONTINUOUS
 62
    7
 10
770.32979084291298
 20
904.51238460359593
 40
11.304880617022357
 50
286.92767055047665
 51
317.92743944107303
  0
ARC
  8
_0-2_決定
  6
CONTINUOUS
 62
    7
 10
770.14231822822694
 20
904.19800265951358
 40
11.062022431552753
 50
236.65260714529148
 51
288.3308697599424
  0
ARC
  8
_0-2_決定
  6
CONTINUOUS
 62
    7
 10
768.69686578376388
 20
901.29218486577474
 40
7.8497430779932644
 50
197.76355642753529
 51
233.80548879279482
  0
ARC
  8
_0-2_決定
  6
CONTINUOUS
 62
    7
 10
768.69671767102034
 20
901.41842069770814
 40
7.889031981014063
 50
150.04717864843465
 51
198.63702274676103
  0
ARC
  8
_0-2_決定
  6
CONTINUOUS
 62
    7
 10
771.4606397815993
 20
899.98439979965087
 40
11.000642840239632
 50
107.12527178999845
 51
150.76335847813019
  0
ARC
  8
_0-2_決定
  6
CONTINUOUS
 62
    7
 10
771.70041952480915
 20
899.99661662707263
 40
11.062022431552684
 50
56.652607145294148
 51
108.33086975994506
  0
ARC
  8
_0-2_決定
  6
CONTINUOUS
 62
    7
 10
773.14587196927221
 20
902.90243442081089
 40
7.8497430779938018
 50
17.763556427540681
 51
53.805488792800219
  0
ARC
  8
_0-2_決定
  6
CONTINUOUS
 62
    7
 10
732.80931592940703
 20
1109.5093595904038
 40
1.2121138842317443
 50
270.56979108053343
 51
359.43020891945639
  0
ARC
  8
_0-2_決定
  6
CONTINUOUS
 62
    7
 10
732.93462279329844
 20
1109.6105585600744
 40
1.3181272497726488
 50
184.92890538575608
 51
265.07109461425409
  0
ARC
  8
_0-2_決定
  6
CONTINUOUS
 62
    7
 10
733.04301451955212
 20
1109.4930388064058
 40
1.4216510461312806
 50
98.969374226061348
 51
179.82803648391271
  0
ARC
  8
_0-2_決定
  6
CONTINUOUS
 62
    7
 10
732.78964300022153
 20
1109.6558254636104
 40
1.2418855145396857
 50
352.6665035427809
 51
88.536085747245039
  0
ARC
  8
_0-2_決定
  6
CONTINUOUS
 62
    7
 10
807.6673674605496
 20
1066.0153463162426
 40
2.3569581156332569
 50
297.10819654690272
 51
357.12932412251854
  0
ARC
  8
_0-2_決定
  6
CONTINUOUS
 62
    7
 10
806.49672271930172
 20
1067.6659778444891
 40
4.3693220473927816
 50
269.01180813173193
 51
300.91250237692037
  0
ARC
  8
_0-2_決定
  6
CONTINUOUS
 62
    7
 10
806.40749988701032
 20
1067.2238245158251
 40
3.9265433624859707
 50
224.38489740095608
 51
270.202360918419
  0
ARC
  8
_0-2_決定
  6
CONTINUOUS
 62
    7
 10
805.23490063508802
 20
1065.9729739531322
 40
2.2148257191879894
 50
181.95785998144487
 51
222.47732855761046
  0
ARC
  8
_0-2_決定
  6
CONTINUOUS
 62
    7
 10
805.63571386447279
 20
1065.8403900722735
 40
2.6149654542573315
 50
121.1929112355304
 51
178.7528402980592
  0
ARC
  8
_0-2_決定
  6
CONTINUOUS
 62
    7
 10
806.3885133831559
 20
1064.8074808300571
 40
3.8899635596491455
 50
89.516076138051673
 51
122.79860359111883
  0
ARC
  8
_0-2_決定
  6
CONTINUOUS
 62
    7
 10
806.48439504893759
 20
1064.5513572699433
 40
4.1464274187477264
 50
46.0648480041936
 51
90.870949780496332
  0
ARC
  8
_0-2_決定
  6
CONTINUOUS
 62
    7
 10
807.56218596936037
 20
1065.8604397538265
 40
2.4594582221089243
 50
0.8588635340965394
 51
42.984693653832664
  0
ARC
  8
_0-2_決定
  6
CONTINUOUS
 62
    7
 10
842.92914783498418
 20
1164.1468109923167
 40
1.4930410014251185
 50
320.50922555770643
 51
358.09987297419997
  0
ARC
  8
_0-2_決定
  6
CONTINUOUS
 62
    7
 10
841.5121326561632
 20
1165.3487933564188
 40
3.3510996698462803
 50
297.53604334128624
 51
320.05706085529107
  0
ARC
  8
_0-2_決定
  6
CONTINUOUS
 62
    7
 10
839.84329762056745
 20
1168.4869988471537
 40
6.9053839297705446
 50
282.18974044140094
 51
297.77647260241997
  0
ARC
  8
_0-2_決定
  6
CONTINUOUS
 62
    7
 10
839.09091415117246
 20
1171.7866160340816
 40
10.289545422529883
 50
269.61273912553679
 51
282.40527278944171
  0
ARC
  8
_0-2_決定
  6
CONTINUOUS
 62
    7
 10
838.82161127549466
 20
1170.6833053176613
 40
9.1881713478333218
 50
241.38621620834772
 51
271.24574428715897
  0
ARC
  8
_0-2_決定
  6
CONTINUOUS
 62
    7
 10
835.46882248558745
 20
1164.4028830818536
 40
2.0701323501547702
 50
188.48859344788008
 51
239.60328126531758
  0
ARC
  8
_0-2_決定
  6
CONTINUOUS
 62
    7
 10
834.91159600153253
 20
1164.0232143932874
 40
1.4920688247904657
 50
139.24347228847517
 51
177.15370873880408
  0
ARC
  8
_0-2_決定
  6
CONTINUOUS
 62
    7
 10
836.32638995018283
 20
1162.8759367223918
 40
3.3132074269519451
 50
117.40554617656589
 51
140.18755802004256
  0
ARC
  8
_0-2_決定
  6
CONTINUOUS
 62
    7
 10
838.04760784257667
 20
1159.5385057387552
 40
7.0683380053912757
 50
101.80656482858886
 51
117.33968683224828
  0
ARC
  8
_0-2_決定
  6
CONTINUOUS
 62
    7
 10
838.9255269157826
 20
1155.3428686640279
 40
11.35484146106217
 50
89.516387104320756
 51
101.81102541170993
  0
ARC
  8
_0-2_決定
  6
CONTINUOUS
 62
    7
 10
839.18563764793419
 20
1158.1207773845952
 40
8.578101277674568
 50
60.102681934543135
 51
91.097275451890226
  0
ARC
  8
_0-2_決定
  6
CONTINUOUS
 62
    7
 10
842.38676172524038
 20
1163.8050988588918
 40
2.0554821808195411
 50
8.1728396363411111
 51
58.479739737889766
  0
ARC
  8
_0-2_決定
  6
CONTINUOUS
 62
    7
 10
874.41816233989016
 20
1187.4046597380186
 40
2.60485361003161
 50
305.24533522097488
 51
2.0382485664234711
  0
ARC
  8
_0-2_決定
  6
CONTINUOUS
 62
    7
 10
875.21462322424725
 20
1186.5746459576826
 40
1.4773557103331394
 50
270.26157644302265
 51
298.5799698119103
  0
ARC
  8
_0-2_決定
  6
CONTINUOUS
 62
    7
 10
875.30053736799573
 20
1186.8517178903621
 40
1.7561976372395136
 50
197.03240408925541
 51
267.41622729885239
  0
ARC
  8
_0-2_決定
  6
CONTINUOUS
 62
    7
 10
876.6259563744444
 20
1187.4525795222457
 40
3.2049006017263793
 50
179.20038045570828
 51
200.36443360789127
  0
ARC
  8
_0-2_決定
  6
CONTINUOUS
 62
    7
 10
876.41169680573626
 20
1187.5631521429907
 40
2.9910538053404405
 50
128.70477424178225
 51
181.26143880200183
  0
ARC
  8
_0-2_決定
  6
CONTINUOUS
 62
    7
 10
875.23700623600689
 20
1188.7881352210359
 40
1.3092638209321059
 50
90.684379488463804
 51
122.09470117972276
  0
ARC
  8
_0-2_決定
  6
CONTINUOUS
 62
    7
 10
875.17216805397595
 20
1188.6693060869413
 40
1.4288468621513484
 50
48.370450243100514
 51
88.026730784121
  0
ARC
  8
_0-2_決定
  6
CONTINUOUS
 62
    7
 10
874.19333417387975
 20
1187.6618456734827
 40
2.8328162744507996
 50
356.67018354289394
 51
47.108929996933867
  0
ARC
  8
_0-2_決定
  6
CONTINUOUS
 62
    7
 10
910.61816033989032
 20
1165.6046597380189
 40
2.6048536100307396
 50
305.24533522096544
 51
2.0382485664139862
  0
ARC
  8
_0-2_決定
  6
CONTINUOUS
 62
    7
 10
911.41462122424571
 20
1164.7746459576817
 40
1.4773557103324664
 50
270.26157644310206
 51
298.57996981198971
  0
ARC
  8
_0-2_決定
  6
CONTINUOUS
 62
    7
 10
911.50053536799589
 20
1165.0517178903619
 40
1.7561976372394947
 50
197.03240408925623
 51
267.41622729885324
  0
ARC
  8
_0-2_決定
  6
CONTINUOUS
 62
    7
 10
912.825954374444
 20
1165.6525795222469
 40
3.2049006017266417
 50
179.20038045573551
 51
200.36443360791853
  0
ARC
  8
_0-2_決定
  6
CONTINUOUS
 62
    7
 10
912.61169480573699
 20
1165.7631521429905
 40
2.9910538053416582
 50
128.70477424177955
 51
181.26143880199913
  0
ARC
  8
_0-2_決定
  6
CONTINUOUS
 62
    7
 10
911.43700423600535
 20
1166.9881352210361
 40
1.3092638209316427
 50
90.684379488394924
 51
122.09470117965388
  0
ARC
  8
_0-2_決定
  6
CONTINUOUS
 62
    7
 10
911.37216605397612
 20
1166.8693060869414
 40
1.4288468621513484
 50
48.370450243100514
 51
88.026730784121
  0
ARC
  8
_0-2_決定
  6
CONTINUOUS
 62
    7
 10
910.39333217387934
 20
1165.861845673483
 40
2.8328162744505896
 50
356.67018354288109
 51
47.108929996921027
  0
ARC
  8
_0-2_決定
  6
CONTINUOUS
 62
    7
 10
878.26736746054905
 20
1122.4153463162427
 40
2.3569581156340473
 50
297.10819654691517
 51
357.12932412253099
  0
ARC
  8
_0-2_決定
  6
CONTINUOUS
 62
    7
 10
877.09672271930174
 20
1124.0659778444888
 40
4.3693220473927656
 50
269.01180813173107
 51
300.91250237691958
  0
ARC
  8
_0-2_決定
  6
CONTINUOUS
 62
    7
 10
876.96520999955681
 20
1123.9607966145479
 40
4.263860805551424
 50
226.7072350564211
 51
270.75464526512695
  0
ARC
  8
_0-2_決定
  6
CONTINUOUS
 62
    7
 10
875.60704333040349
 20
1122.3848881303825
 40
2.1874295146961575
 50
182.29467901769524
 51
224.29444749008661
  0
ARC
  8
_0-2_決定
  6
CONTINUOUS
 62
    7
 10
875.55185043613108
 20
1122.2015972151719
 40
2.1326312480197323
 50
113.50286621335815
 51
177.42781064383882
  0
ARC
  8
_0-2_決定
  6
CONTINUOUS
 62
    7
 10
876.90326592418501
 20
1119.9510029199816
 40
4.747771857667165
 50
88.574606853579738
 51
117.63097302894144
  0
ARC
  8
_0-2_決定
  6
CONTINUOUS
 62
    7
 10
877.14195963273198
 20
1120.2265881651235
 40
4.4723435848866782
 50
48.910194882459265
 51
91.545104052413762
  0
ARC
  8
_0-2_決定
  6
CONTINUOUS
 62
    7
 10
878.69496722500912
 20
1122.2592622957432
 40
1.9267762626799347
 50
1.1313534149703151
 51
43.983139854458663
  0
ARC
  8
_0-2_決定
  6
CONTINUOUS
 62
    7
 10
913.06257324116814
 20
1131.4672546163624
 40
7.5588523711232893
 50
311.4003423024883
 51
0.2277861061826445
  0
ARC
  8
_0-2_決定
  6
CONTINUOUS
 62
    7
 10
914.91483954064165
 20
1129.7424329715316
 40
5.0462518385802912
 50
271.20960329735419
 51
308.57491080936461
  0
ARC
  8
_0-2_決定
  6
CONTINUOUS
 62
    7
 10
915.13135903147543
 20
1129.6983551002315
 40
5.0022589062227425
 50
208.16398179060349
 51
268.74003892366164
  0
ARC
  8
_0-2_決定
  6
CONTINUOUS
 62
    7
 10
917.49010078284414
 20
1131.3525480464089
 40
7.8700663140728722
 50
178.9460740528414
 51
210.67659870501257
  0
ARC
  8
_0-2_決定
  6
CONTINUOUS
 62
    7
 10
917.01288845049874
 20
1131.5135554657702
 40
7.3915404360936554
 50
131.64235955980678
 51
180.12596115840876
  0
ARC
  8
_0-2_決定
  6
CONTINUOUS
 62
    7
 10
915.11728669040224
 20
1133.2811841559912
 40
4.817076601320597
 50
91.140986851620369
 51
128.76219453792359
  0
ARC
  8
_0-2_決定
  6
CONTINUOUS
 62
    7
 10
914.86787037871466
 20
1132.7799590228151
 40
5.3195616313901617
 50
28.97995302390456
 51
88.346505656338465
  0
ARC
  8
_0-2_決定
  6
CONTINUOUS
 62
    7
 10
913.35170747475843
 20
1131.5123770832056
 40
7.2696740247806595
 50
359.88121468530375
 51
31.931143481277083
  0
ARC
  8
_0-2_決定
  6
CONTINUOUS
 62
    7
 10
831.74859636741587
 20
1146.0297275990581
 40
0.882760262737924
 50
303.93255925291572
 51
351.37255374813822
  0
ARC
  8
_0-2_決定
  6
CONTINUOUS
 62
    7
 10
829.97207538017108
 20
1148.4058434690744
 40
3.8487265229279064
 50
285.51181976614669
 51
306.13016418226954
  0
ARC
  8
_0-2_決定
  6
CONTINUOUS
 62
    7
 10
828.29155027350907
 20
1153.6700379842162
 40
9.3729950978025727
 50
269.57098102818844
 51
286.80462299560469
  0
ARC
  8
_0-2_決定
  6
CONTINUOUS
 62
    7
 10
828.0333886626164
 20
1151.3804391164169
 40
7.0856274233792522
 50
238.21704485078288
 51
271.52021532593244
  0
ARC
  8
_0-2_決定
  6
CONTINUOUS
 62
    7
 10
824.75795673879873
 20
1145.9366480163271
 40
0.7376387831130731
 50
183.05735283570513
 51
231.75779803987447
  0
ARC
  8
_0-2_決定
  6
CONTINUOUS
 62
    7
 10
824.89131087156466
 20
1145.7833398462651
 40
0.8773762120797118
 50
125.53594680619189
 51
172.53654012969102
  0
ARC
  8
_0-2_決定
  6
CONTINUOUS
 62
    7
 10
826.65694605717704
 20
1143.4106300092881
 40
3.8348171437310481
 50
105.9776087365333
 51
126.39861265845174
  0
ARC
  8
_0-2_決定
  6
CONTINUOUS
 62
    7
 10
828.19676042006392
 20
1138.8779844830585
 40
8.6193562863001656
 50
89.836425683337779
 51
107.52441116678925
  0
ARC
  8
_0-2_決定
  6
CONTINUOUS
 62
    7
 10
828.28427578161666
 20
1137.9549029420664
 40
9.5426100578878863
 50
74.207313909397229
 51
90.377714644686861
  0
ARC
  8
_0-2_決定
  6
CONTINUOUS
 62
    7
 10
830.01397556225982
 20
1143.435768977808
 40
3.801807874257674
 50
52.632886904791128
 51
76.811668624067778
  0
ARC
  8
_0-2_決定
  6
CONTINUOUS
 62
    7
 10
831.86674004818258
 20
1145.8533978781131
 40
0.7559041282739305
 50
3.329981121839185
 51
53.027199098092083
  0
ARC
  8
_0-2_決定
  6
CONTINUOUS
 62
    7
 10
839.16852917649351
 20
1047.1805062055253
 40
1.4552189831932762
 50
317.49642900479927
 51
356.72246768271731
  0
ARC
  8
_0-2_決定
  6
CONTINUOUS
 62
    7
 10
837.58219155845495
 20
1048.5396575178629
 40
3.5437016840369533
 50
296.82537731995626
 51
318.62461276424818
  0
ARC
  8
_0-2_決定
  6
CONTINUOUS
 62
    7
 10
835.34099016290043
 20
1053.259093198574
 40
8.7676133880711919
 50
267.9108263710209
 51
295.977528005875
  0
ARC
  8
_0-2_決定
  6
CONTINUOUS
 62
    7
 10
834.85709810510286
 20
1053.0738359019911
 40
8.5781012776749996
 50
240.10268193453194
 51
271.097275451879
  0
ARC
  8
_0-2_決定
  6
CONTINUOUS
 62
    7
 10
831.65597402779554
 20
1047.3895144276948
 40
2.0554821808195411
 50
188.17283963634114
 51
238.47973973788979
  0
ARC
  8
_0-2_決定
  6
CONTINUOUS
 62
    7
 10
831.016221559006
 20
1047.0640687205141
 40
1.3952496627979405
 50
139.11564369058988
 51
178.63491801727878
  0
ARC
  8
_0-2_決定
  6
CONTINUOUS
 62
    7
 10
832.26380104563987
 20
1045.8766565182864
 40
3.1167184100055101
 50
114.29715180379186
 51
137.62388258949522
  0
ARC
  8
_0-2_決定
  6
CONTINUOUS
 62
    7
 10
834.06184721624811
 20
1042.1964931634473
 40
7.2118218532541398
 50
100.06583245673055
 51
115.28638494056923
  0
ARC
  8
_0-2_決定
  6
CONTINUOUS
 62
    7
 10
834.98144573622881
 20
1037.5194434004907
 40
11.977930772728806
 50
89.809034262587232
 51
100.48673538567438
  0
ARC
  8
_0-2_決定
  6
CONTINUOUS
 62
    7
 10
835.2590832754845
 20
1039.8325980889006
 40
9.6676325634390388
 50
62.109984203604498
 51
91.408975966020378
  0
ARC
  8
_0-2_決定
  6
CONTINUOUS
 62
    7
 10
838.89130666971312
 20
1046.8775799763268
 40
1.7439587228260247
 50
7.2381395050460249
 51
59.31163646467229
  0
ARC
  8
_0-2_決定
  6
CONTINUOUS
 62
    7
 10
870.6181623398902
 20
1070.4046597380186
 40
2.60485361003161
 50
305.24533522097488
 51
2.0382485664234711
  0
ARC
  8
_0-2_決定
  6
CONTINUOUS
 62
    7
 10
871.41462322424729
 20
1069.5746459576826
 40
1.4773557103331305
 50
270.26157644302128
 51
298.57996981190894
  0
ARC
  8
_0-2_決定
  6
CONTINUOUS
 62
    7
 10
871.50053736799578
 20
1069.8517178903621
 40
1.7561976372395041
 50
197.03240408925583
 51
267.41622729885285
  0
ARC
  8
_0-2_決定
  6
CONTINUOUS
 62
    7
 10
872.82595637444444
 20
1070.4525795222455
 40
3.2049006017263793
 50
179.20038045570828
 51
200.36443360789127
  0
ARC
  8
_0-2_決定
  6
CONTINUOUS
 62
    7
 10
872.61169680573573
 20
1070.5631521429914
 40
2.9910538053401692
 50
128.70477424179339
 51
181.26143880201298
  0
ARC
  8
_0-2_決定
  6
CONTINUOUS
 62
    7
 10
871.43700623600637
 20
1071.7881352210347
 40
1.3092638209331224
 50
90.684379488452237
 51
122.09470117971119
  0
ARC
  8
_0-2_決定
  6
CONTINUOUS
 62
    7
 10
871.372168053976
 20
1071.6693060869416
 40
1.4288468621513484
 50
48.370450243100514
 51
88.026730784121
  0
ARC
  8
_0-2_決定
  6
CONTINUOUS
 62
    7
 10
870.39333417387979
 20
1070.6618456734825
 40
2.8328162744508187
 50
356.67018354289377
 51
47.108929996933703
  0
ARC
  8
_0-2_決定
  6
CONTINUOUS
 62
    7
 10
906.81816033989094
 20
1048.604661738018
 40
2.6048536100304749
 50
305.24533522097721
 51
2.0382485664257666
  0
ARC
  8
_0-2_決定
  6
CONTINUOUS
 62
    7
 10
907.61462122424575
 20
1047.7746479576838
 40
1.477355710334717
 50
270.26157644307966
 51
298.57996981196726
  0
ARC
  8
_0-2_決定
  6
CONTINUOUS
 62
    7
 10
907.70053536799594
 20
1048.0517198903615
 40
1.7561976372391048
 50
197.03240408924637
 51
267.41622729884335
  0
ARC
  8
_0-2_決定
  6
CONTINUOUS
 62
    7
 10
909.02595437444461
 20
1048.6525815222451
 40
3.2049006017263793
 50
179.20038045570828
 51
200.36443360789127
  0
ARC
  8
_0-2_決定
  6
CONTINUOUS
 62
    7
 10
908.81169480573703
 20
1048.7631541429914
 40
2.9910538053411151
 50
128.70477424180183
 51
181.26143880202142
  0
ARC
  8
_0-2_決定
  6
CONTINUOUS
 62
    7
 10
907.63700423600483
 20
1049.9881372210359
 40
1.3092638209316427
 50
90.684379488394924
 51
122.09470117965388
  0
ARC
  8
_0-2_決定
  6
CONTINUOUS
 62
    7
 10
907.5721660539773
 20
1049.8693080869407
 40
1.4288468621516304
 50
48.370450243162701
 51
88.026730784183187
  0
ARC
  8
_0-2_決定
  6
CONTINUOUS
 62
    7
 10
906.59333217387825
 20
1048.8618476734832
 40
2.8328162744515764
 50
356.67018354287308
 51
47.108929996913012
  0
ARC
  8
_0-2_決定
  6
CONTINUOUS
 62
    7
 10
874.69088531690431
 20
1005.1930160714146
 40
2.1326312480197531
 50
293.50286621335852
 51
357.42781064383922
  0
ARC
  8
_0-2_決定
  6
CONTINUOUS
 62
    7
 10
873.33946982884925
 20
1007.4436103666033
 40
4.7477718576664625
 50
268.57460685360365
 51
297.63097302896534
  0
ARC
  8
_0-2_決定
  6
CONTINUOUS
 62
    7
 10
873.10077612030511
 20
1007.1680251214633
 40
4.472343584887831
 50
228.9101948824478
 51
271.54510405240228
  0
ARC
  8
_0-2_決定
  6
CONTINUOUS
 62
    7
 10
871.54776852802627
 20
1005.1353509908425
 40
1.926776262679659
 50
181.13135341494865
 51
223.98313985443701
  0
ARC
  8
_0-2_決定
  6
CONTINUOUS
 62
    7
 10
871.97536829248577
 20
1004.9792669703438
 40
2.3569581156329482
 50
117.10819654691436
 51
177.12932412253016
  0
ARC
  8
_0-2_決定
  6
CONTINUOUS
 62
    7
 10
873.14601303373422
 20
1003.3286354420959
 40
4.3693220473937764
 50
89.01180813172823
 51
120.91250237691668
  0
ARC
  8
_0-2_決定
  6
CONTINUOUS
 62
    7
 10
873.27752575347915
 20
1003.4338166720377
 40
4.263860805551424
 50
46.707235056421105
 51
90.754645265126939
  0
ARC
  8
_0-2_決定
  6
CONTINUOUS
 62
    7
 10
874.63569242263304
 20
1005.0097251562042
 40
2.1874295146946712
 50
2.2946790176893868
 51
44.294447490080728
  0
ARC
  8
_0-2_決定
  6
CONTINUOUS
 62
    7
 10
909.26257324116818
 20
1014.4672566163621
 40
7.5588523711232813
 50
311.4003423024883
 51
0.2277861061826129
  0
ARC
  8
_0-2_決定
  6
CONTINUOUS
 62
    7
 10
911.1148395406417
 20
1012.7424349715312
 40
5.0462518385802957
 50
271.20960329735431
 51
308.57491080936478
  0
ARC
  8
_0-2_決定
  6
CONTINUOUS
 62
    7
 10
911.33135903147547
 20
1012.6983571002314
 40
5.0022589062227487
 50
208.1639817906034
 51
268.74003892366159
  0
ARC
  8
_0-2_決定
  6
CONTINUOUS
 62
    7
 10
913.69010078284475
 20
1014.3525500464075
 40
7.8700663140725915
 50
178.94607405283409
 51
210.67659870500526
  0
ARC
  8
_0-2_決定
  6
CONTINUOUS
 62
    7
 10
913.21288845049935
 20
1014.5135574657706
 40
7.3915404360933934
 50
131.64235955981172
 51
180.1259611584137
  0
ARC
  8
_0-2_決定
  6
CONTINUOUS
 62
    7
 10
911.31728669040228
 20
1016.281186155991
 40
4.8170766013205917
 50
91.140986851620212
 51
128.76219453792345
  0
ARC
  8
_0-2_決定
  6
CONTINUOUS
 62
    7
 10
911.06787037871584
 20
1015.7799610228153
 40
5.3195616313896856
 50
28.979953023912984
 51
88.346505656346878
  0
ARC
  8
_0-2_決定
  6
CONTINUOUS
 62
    7
 10
909.55170747475677
 20
1014.5123790832059
 40
7.2696740247822511
 50
359.88121468530017
 51
31.931143481273502
  0
ARC
  8
_0-2_決定
  6
CONTINUOUS
 62
    7
 10
827.94859636741421
 20
1029.0297295990583
 40
0.8827602627388755
 50
303.93255925295483
 51
351.37255374817732
  0
ARC
  8
_0-2_決定
  6
CONTINUOUS
 62
    7
 10
826.17207538017055
 20
1031.4058454690742
 40
3.8487265229279277
 50
285.51181976614731
 51
306.13016418227022
  0
ARC
  8
_0-2_決定
  6
CONTINUOUS
 62
    7
 10
824.49155027350855
 20
1036.6700399842143
 40
9.3729950978006968
 50
269.57098102819009
 51
286.80462299560634
  0
ARC
  8
_0-2_決定
  6
CONTINUOUS
 62
    7
 10
824.23338866261815
 20
1034.3804411164163
 40
7.0856274233787122
 50
238.21704485076833
 51
271.52021532591789
  0
ARC
  8
_0-2_決定
  6
CONTINUOUS
 62
    7
 10
820.95795673879934
 20
1028.9366500163285
 40
0.7376387831134
 50
183.05735283575228
 51
231.75779803992165
  0
ARC
  8
_0-2_決定
  6
CONTINUOUS
 62
    7
 10
821.09131087156356
 20
1028.7833418462653
 40
0.8773762120787186
 50
125.53594680615296
 51
172.53654012965208
  0
ARC
  8
_0-2_決定
  6
CONTINUOUS
 62
    7
 10
822.85694605717708
 20
1026.4106320092892
 40
3.8348171437295981
 50
105.97760873654356
 51
126.398612658462
  0
ARC
  8
_0-2_決定
  6
CONTINUOUS
 62
    7
 10
824.39676042006397
 20
1021.8779864830562
 40
8.6193562863019917
 50
89.836425683335918
 51
107.52441116678739
  0
ARC
  8
_0-2_決定
  6
CONTINUOUS
 62
    7
 10
824.48427578161613
 20
1020.9549049420682
 40
9.5426100578858737
 50
74.207313909395978
 51
90.377714644685625
  0
ARC
  8
_0-2_決定
  6
CONTINUOUS
 62
    7
 10
826.21397556225929
 20
1026.4357709778064
 40
3.8018078742588912
 50
52.632886904800145
 51
76.811668624076802
  0
ARC
  8
_0-2_決定
  6
CONTINUOUS
 62
    7
 10
828.06674004818319
 20
1028.853399878114
 40
0.7559041282726607
 50
3.3299811218325823
 51
53.027199098085475
  0
ARC
  8
_0-2_決定
  6
CONTINUOUS
 62
    7
 10
684.10806527759689
 20
1147.8106102422137
 40
4.5147266068692016
 50
271.43808419711428
 51
358.5619158028889
  0
ARC
  8
_0-2_決定
  6
CONTINUOUS
 62
    7
 10
684.28352326504807
 20
1147.7594590318233
 40
4.4625862351865457
 50
180.79802199860717
 51
269.20197800139704
  0
ARC
  8
_0-2_決定
  6
CONTINUOUS
 62
    7
 10
684.35152027971185
 20
1147.5671552401
 40
4.5320196163527742
 50
91.645644727529159
 51
178.35435527247827
  0
ARC
  8
_0-2_決定
  6
CONTINUOUS
 62
    7
 10
684.03820382404149
 20
1147.5141395908172
 40
4.5868247042316401
 50
2.2886056591734469
 51
87.711394340811751
  0
ARC
  8
_0-2_決定
  6
CONTINUOUS
 62
    7
 10
672.74273407772398
 20
997.60630987043498
 40
1.0841294535071535
 50
310.12227875521091
 51
354.22952847622645
  0
ARC
  8
_0-2_決定
  6
CONTINUOUS
 62
    7
 10
671.4330787845779
 20
999.02497599699177
 40
3.0141742050156886
 50
287.93725269253304
 51
311.78077963737456
  0
ARC
  8
_0-2_決定
  6
CONTINUOUS
 62
    7
 10
670.80471703336968
 20
1000.68671294503
 40
4.7894342527575402
 50
270.19921759052494
 51
288.96667185649102
  0
ARC
  8
_0-2_決定
  6
CONTINUOUS
 62
    7
 10
670.69441943139282
 20
999.35144899591046
 40
3.4564734773142081
 50
223.84059183828072
 51
272.10485082339574
  0
ARC
  8
_0-2_決定
  6
CONTINUOUS
 62
    7
 10
668.9794383970019
 20
997.5166638167882
 40
0.9582640301064218
 50
181.15740802442667
 51
215.71248962147502
  0
ARC
  8
_0-2_決定
  6
CONTINUOUS
 62
    7
 10
669.00256307134157
 20
997.43526542881102
 40
0.983152745989865
 50
129.18585214165304
 51
176.38192474364439
  0
ARC
  8
_0-2_決定
  6
CONTINUOUS
 62
    7
 10
670.04623411532179
 20
996.19199702102674
 40
2.6063467968440266
 50
104.32493686902227
 51
129.70039382690445
  0
ARC
  8
_0-2_決定
  6
CONTINUOUS
 62
    7
 10
670.78181403907479
 20
993.51824813868404
 40
5.3792049429636366
 50
89.578673244404285
 51
104.86995814370994
  0
ARC
  8
_0-2_決定
  6
CONTINUOUS
 62
    7
 10
670.90504699784447
 20
993.62662498400505
 40
5.2713468445508287
 50
68.682503743545979
 51
90.909548812957226
  0
ARC
  8
_0-2_決定
  6
CONTINUOUS
 62
    7
 10
672.40224880764572
 20
997.13353738476155
 40
1.4650028700004469
 50
14.377343315253132
 51
73.376051256611419
  0
ARC
  8
_0-2_決定
  6
CONTINUOUS
 62
    7
 10
693.84017668169406
 20
1024.1593498577749
 40
0.983152745989865
 50
309.18585214165307
 51
356.38192474364439
  0
ARC
  8
_0-2_決定
  6
CONTINUOUS
 62
    7
 10
692.79650563771384
 20
1025.4026182655593
 40
2.6063467968440266
 50
284.32493686902228
 51
309.70039382690442
  0
ARC
  8
_0-2_決定
  6
CONTINUOUS
 62
    7
 10
692.06092571396084
 20
1028.0763671479021
 40
5.3792049429636366
 50
269.57867324440429
 51
284.86995814370994
  0
ARC
  8
_0-2_決定
  6
CONTINUOUS
 62
    7
 10
691.93769275519116
 20
1027.967990302581
 40
5.2713468445508287
 50
248.68250374354602
 51
270.90954881295727
  0
ARC
  8
_0-2_決定
  6
CONTINUOUS
 62
    7
 10
690.44049094538991
 20
1024.4610779018244
 40
1.4650028700004469
 50
194.37734331525314
 51
253.37605125661145
  0
ARC
  8
_0-2_決定
  6
CONTINUOUS
 62
    7
 10
690.1666265053251
 20
1024.0629421603303
 40
1.14577211182938
 50
133.26325644438808
 51
178.28125291971199
  0
ARC
  8
_0-2_決定
  6
CONTINUOUS
 62
    7
 10
691.079054243462
 20
1023.0638600011382
 40
2.4987321717808157
 50
106.69155885093237
 51
132.79820374290009
  0
ARC
  8
_0-2_決定
  6
CONTINUOUS
 62
    7
 10
691.95249289150752
 20
1020.3128734562754
 40
5.384874701734975
 50
89.267119778882673
 51
107.18632514931959
  0
ARC
  8
_0-2_決定
  6
CONTINUOUS
 62
    7
 10
692.15726989312827
 20
1021.3835959674921
 40
4.3158518552486811
 50
67.032268336910533
 51
91.804460621250328
  0
ARC
  8
_0-2_決定
  6
CONTINUOUS
 62
    7
 10
693.29174744260854
 20
1023.9187124169194
 40
1.5400133263066826
 50
6.6595718541750841
 51
69.090395448018825
  0
ARC
  8
_0-2_決定
  6
CONTINUOUS
 62
    7
 10
704.17907413382125
 20
1188.7328928770949
 40
10.843542250103795
 50
345.16911754915509
 51
0.868767637160973
  0
ARC
  8
_0-2_決定
  6
CONTINUOUS
 62
    7
 10
711.92752062090676
 20
1186.5242302710983
 40
2.792012766091144
 50
318.58540418930693
 51
348.28449345655366
  0
ARC
  8
_0-2_決定
  6
CONTINUOUS
 62
    7
 10
713.60815272138154
 20
1185.0611215435949
 40
0.5639707994417551
 50
271.3429002822607
 51
317.11259035369505
  0
ARC
  8
_0-2_決定
  6
CONTINUOUS
 62
    7
 10
713.72969930934403
 20
1185.2952821460281
 40
0.8052960728412952
 50
211.26751477121132
 51
262.26906309280827
  0
ARC
  8
_0-2_決定
  6
CONTINUOUS
 62
    7
 10
716.21999332027031
 20
1186.8798150964199
 40
3.7568192805931107
 50
191.7105011886014
 51
212.2106268516078
  0
ARC
  8
_0-2_決定
  6
CONTINUOUS
 62
    7
 10
723.55649406622092
 20
1188.7936508737594
 40
11.33559811863636
 50
179.47606967649051
 51
193.65652756497303
  0
ARC
  8
_0-2_決定
  6
CONTINUOUS
 62
    7
 10
723.06366561921777
 20
1189.0617184094954
 40
10.843542250106644
 50
165.16911754917911
 51
180.86876763718499
  0
ARC
  8
_0-2_決定
  6
CONTINUOUS
 62
    7
 10
715.31521913212885
 20
1191.2703810154869
 40
2.7920127660916405
 50
138.58540418928658
 51
168.28449345653331
  0
ARC
  8
_0-2_決定
  6
CONTINUOUS
 62
    7
 10
713.6345870316535
 20
1192.7334897429921
 40
0.5639707994410885
 50
91.342900282291183
 51
137.11259035372549
  0
ARC
  8
_0-2_決定
  6
CONTINUOUS
 62
    7
 10
713.51304044369101
 20
1192.4993291405583
 40
0.8052960728412952
 50
31.267514771211317
 51
82.269063092808281
  0
ARC
  8
_0-2_決定
  6
CONTINUOUS
 62
    7
 10
711.02274643276473
 20
1190.9147961901665
 40
3.7568192805931107
 50
11.710501188601393
 51
32.210626851607799
  0
ARC
  8
_0-2_決定
  6
CONTINUOUS
 62
    7
 10
703.68624568681071
 20
1189.000960412822
 40
11.335598118640604
 50
359.47606967651149
 51
13.656527564993965
  0
ARC
  8
_0-2_決定
  6
CONTINUOUS
 62
    7
 10
741.52790724727311
 20
1143.0541105650123
 40
9.2823468478555036
 50
60.05494310621247
 51
76.965859296591915
  0
ARC
  8
_0-2_決定
  6
CONTINUOUS
 62
    7
 10
744.61986167046234
 20
1148.1901862883892
 40
3.290530427301122
 50
35.420873522773782
 51
62.065103068615997
  0
ARC
  8
_0-2_決定
  6
CONTINUOUS
 62
    7
 10
746.67048896265442
 20
1149.6591294605207
 40
0.768120494861803
 50
347.83808566804919
 51
34.781779279979524
  0
ARC
  8
_0-2_決定
  6
CONTINUOUS
 62
    7
 10
746.63824163028323
 20
1149.7687087596782
 40
0.8288241681044988
 50
291.45269206608401
 51
340.88558658972948
  0
ARC
  8
_0-2_決定
  6
CONTINUOUS
 62
    7
 10
745.81941849889233
 20
1152.0094041845759
 40
3.2142670262682032
 50
267.89525598802709
 51
290.42943810339648
  0
ARC
  8
_0-2_決定
  6
CONTINUOUS
 62
    7
 10
745.7313501912779
 20
1157.5143922563116
 40
8.7171381678927702
 50
250.49902520101119
 51
269.80294577675522
  0
ARC
  8
_0-2_決定
  6
CONTINUOUS
 62
    7
 10
745.08005828257978
 20
1159.0697932825153
 40
10.030114055903258
 50
240.76465397049878
 51
256.98590773736805
  0
ARC
  8
_0-2_決定
  6
CONTINUOUS
 62
    7
 10
741.56430773866191
 20
1153.0121302770008
 40
3.028959712011519
 50
214.94193724738358
 51
242.83388187431683
  0
ARC
  8
_0-2_決定
  6
CONTINUOUS
 62
    7
 10
739.60567285386162
 20
1151.6409478669066
 40
0.6380668294519144
 50
156.31096015323621
 51
214.74412015002619
  0
ARC
  8
_0-2_決定
  6
CONTINUOUS
 62
    7
 10
739.72521596101558
 20
1151.6432923377297
 40
0.7482794064159008
 50
107.40642090512311
 51
160.15582862461579
  0
ARC
  8
_0-2_決定
  6
CONTINUOUS
 62
    7
 10
740.57021549675596
 20
1149.0065406814026
 40
3.5171091523769018
 50
86.55810103558909
 51
107.69193166227714
  0
ARC
  8
_0-2_決定
  6
CONTINUOUS
 62
    7
 10
740.3592319577217
 20
1139.8509444781066
 40
12.673393609820479
 50
75.084126945130706
 51
88.091182474009784
  0
ARC
  8
_0-2_決定
  6
CONTINUOUS
 62
    7
 10
712.07240508131804
 20
1074.0145524725053
 40
5.9495403370174937
 50
323.28015600816946
 51
0.7969624634770053
  0
ARC
  8
_0-2_決定
  6
CONTINUOUS
 62
    7
 10
714.82750159337797
 20
1072.0700559300801
 40
2.580044369651382
 50
274.30934990783732
 51
321.31148097985289
  0
ARC
  8
_0-2_決定
  6
CONTINUOUS
 62
    7
 10
715.12058217267622
 20
1071.8221809139138
 40
2.326991212629181
 50
206.68109218126838
 51
267.5564284882023
  0
ARC
  8
_0-2_決定
  6
CONTINUOUS
 62
    7
 10
718.25671896874155
 20
1073.8266990937809
 40
6.0414126303076667
 50
177.43275234452332
 51
210.3146530264215
  0
ARC
  8
_0-2_決定
  6
CONTINUOUS
 62
    7
 10
718.00597923842247
 20
1074.2008959059169
 40
5.7855368300910879
 50
143.06709597604836
 51
181.02593798978779
  0
ARC
  8
_0-2_決定
  6
CONTINUOUS
 62
    7
 10
715.14551433499378
 20
1076.1990167263416
 40
2.3016393706122544
 50
93.09188616620402
 51
140.03821618793904
  0
ARC
  8
_0-2_決定
  6
CONTINUOUS
 62
    7
 10
714.96499546912844
 20
1076.3001430098227
 40
2.1978857367313518
 50
55.769125828178431
 51
88.530237567360771
  0
ARC
  8
_0-2_決定
  6
CONTINUOUS
 62
    7
 10
713.91572329198254
 20
1074.8487091120135
 40
3.988471335447902
 50
11.696849112028085
 51
55.035882890101803
  0
ARC
  8
_0-2_決定
  6
CONTINUOUS
 62
    7
 10
711.96437348020083
 20
1074.1135881565865
 40
6.0570182817316773
 50
359.84597695239199
 51
14.765542114221219
  0
ARC
  8
_0-2_決定
  6
CONTINUOUS
 62
    7
 10
724.08882139935713
 20
1090.016737227829
 40
26.334043136931374
 50
342.77211330111919
 51
0.6104527940537216
  0
ARC
  8
_0-2_決定
  6
CONTINUOUS
 62
    7
 10
739.66237253976828
 20
1085.4490291433926
 40
10.109462238840759
 50
327.63487973694032
 51
341.35684128944473
  0
ARC
  8
_0-2_決定
  6
CONTINUOUS
 62
    7
 10
744.66149271381312
 20
1082.2344792695426
 40
4.1663295922100954
 50
305.84665341182375
 51
328.17245421422535
  0
ARC
  8
_0-2_決定
  6
CONTINUOUS
 62
    7
 10
745.98440382246451
 20
1080.4082038054539
 40
1.9112556802536382
 50
271.10824050284634
 51
305.76165714296548
  0
ARC
  8
_0-2_決定
  6
CONTINUOUS
 62
    7
 10
746.06874225807758
 20
1080.4394227879743
 40
1.9426948155073469
 50
234.52739160944111
 51
268.60271074474701
  0
ARC
  8
_0-2_決定
  6
CONTINUOUS
 62
    7
 10
747.30333589224244
 20
1082.1291960430272
 40
4.0353624678971487
 50
213.57877817080242
 51
234.17461640102857
  0
ARC
  8
_0-2_決定
  6
CONTINUOUS
 62
    7
 10
751.57097669286713
 20
1085.001688289138
 40
9.1796308404687448
 50
200.29761380625479
 51
213.78343401280139
  0
ARC
  8
_0-2_決定
  6
CONTINUOUS
 62
    7
 10
759.78088653515272
 20
1088.0928170922989
 40
17.952108081690547
 50
190.70780943211116
 51
200.46099290169039
  0
ARC
  8
_0-2_決定
  6
CONTINUOUS
 62
    7
 10
769.92297103042574
 20
1090.1593692895096
 40
28.301937289037198
 50
179.72075402045203
 51
191.00371104608897
  0
ARC
  8
_0-2_決定
  6
CONTINUOUS
 62
    7
 10
767.00830471175721
 20
1090.5434596805594
 40
25.388128173198503
 50
162.45387802831681
 51
180.55552769890554
  0
ARC
  8
_0-2_決定
  6
CONTINUOUS
 62
    7
 10
752.25788657356532
 20
1095.0182708072182
 40
9.9765710808126364
 50
147.09988832355501
 51
161.41869496399659
  0
ARC
  8
_0-2_決定
  6
CONTINUOUS
 62
    7
 10
747.239133921438
 20
1098.2396802420337
 40
4.0129959862449365
 50
124.23670318817736
 51
146.79562527138614
  0
ARC
  8
_0-2_決定
  6
CONTINUOUS
 62
    7
 10
746.07470738801624
 20
1099.9735673728239
 40
1.9244775455688954
 50
91.588174245805718
 51
124.61935182313705
  0
ARC
  8
_0-2_決定
  6
CONTINUOUS
 62
    7
 10
745.97226192813821
 20
1099.9499817981534
 40
1.947942953076973
 50
54.57469101799861
 51
88.555411336189579
  0
ARC
  8
_0-2_決定
  6
CONTINUOUS
 62
    7
 10
744.72558729260697
 20
1098.2521300818398
 40
4.0542226573760418
 50
33.627202840417809
 51
54.126191731446745
  0
ARC
  8
_0-2_決定
  6
CONTINUOUS
 62
    7
 10
740.53154511483399
 20
1095.3901328714787
 40
9.131563975780022
 50
20.561852551214287
 51
34.006562036019901
  0
ARC
  8
_0-2_決定
  6
CONTINUOUS
 62
    7
 10
732.53981868478149
 20
1092.3541084097658
 40
17.680509820860632
 50
10.899648192448129
 51
20.67776729210847
  0
ARC
  8
_0-2_決定
  6
CONTINUOUS
 62
    7
 10
723.25969177727586
 20
1090.4067736781824
 40
27.16189868947858
 50
359.76908560621587
 51
11.231737334181121
  0
ARC
  8
_0-2_決定
  6
CONTINUOUS
 62
    7
 10
738.3909435675065
 20
994.61969614492261
 40
3.2327438938591868
 50
305.78706357791873
 51
357.83031967450995
  0
ARC
  8
_0-2_決定
  6
CONTINUOUS
 62
    7
 10
735.27393777100485
 20
998.1860231200518
 40
7.9608150049852338
 50
278.72382927773509
 51
308.97711853839741
  0
ARC
  8
_0-2_決定
  6
CONTINUOUS
 62
    7
 10
734.21747994040174
 20
1001.8554497142906
 40
11.758142714449423
 50
270.01895511319583
 51
281.10093941343871
  0
ARC
  8
_0-2_決定
  6
CONTINUOUS
 62
    7
 10
734.13298679053014
 20
1000.9060233806302
 40
10.809077086432774
 50
242.97382909538746
 51
270.46849829986036
  0
ARC
  8
_0-2_決定
  6
CONTINUOUS
 62
    7
 10
731.55151380922405
 20
995.75000952759467
 40
5.0432760080087142
 50
205.01656454331828
 51
242.48183382718145
  0
ARC
  8
_0-2_決定
  6
CONTINUOUS
 62
    7
 10
729.43690884231842
 20
994.51831472798278
 40
2.6156233251803584
 50
180.46016955916971
 51
200.14952337831286
  0
ARC
  8
_0-2_決定
  6
CONTINUOUS
 62
    7
 10
730.05179618552916
 20
994.37491914166321
 40
3.2327438938591917
 50
125.78706357791877
 51
177.83031967451001
  0
ARC
  8
_0-2_決定
  6
CONTINUOUS
 62
    7
 10
733.16880198203194
 20
990.8085921665355
 40
7.9608150049849433
 50
98.723829277749743
 51
128.97711853841204
  0
ARC
  8
_0-2_決定
  6
CONTINUOUS
 62
    7
 10
734.22525981263391
 20
987.13916557229027
 40
11.758142714455282
 50
90.01895511319303
 51
101.10093941343594
  0
ARC
  8
_0-2_決定
  6
CONTINUOUS
 62
    7
 10
734.30975296250608
 20
988.08859190595638
 40
10.809077086432774
 50
62.973829095387458
 51
90.468498299860386
  0
ARC
  8
_0-2_決定
  6
CONTINUOUS
 62
    7
 10
736.89122594381047
 20
993.24460575899241
 40
5.043276008009121
 50
25.016564543299932
 51
62.481833827163094
  0
ARC
  8
_0-2_決定
  6
CONTINUOUS
 62
    7
 10
739.00583091071724
 20
994.47630055860304
 40
2.6156233251803842
 50
0.4601695591696071
 51
20.149523378312779
  0
CIRCLE
  8
_0-2_決定
  6
CONTINUOUS
 62
    7
 10
731.26136987651819
 20
926.75730764329296
 40
7.3599999999999994
  0
ARC
  8
_0-2_決定
  6
CONTINUOUS
 62
    7
 10
676.40702388856369
 20
1115.7542212143126
 40
2.6149654542565015
 50
301.19291123551989
 51
358.75284029804868
  0
ARC
  8
_0-2_決定
  6
CONTINUOUS
 62
    7
 10
675.65422436987774
 20
1116.7871304565299
 40
3.8899635596505382
 50
269.51607613806999
 51
302.79860359113712
  0
ARC
  8
_0-2_決定
  6
CONTINUOUS
 62
    7
 10
675.55834270409889
 20
1117.0432540166421
 40
4.1464274187474599
 50
226.06484800417488
 51
270.87094978047759
  0
ARC
  8
_0-2_決定
  6
CONTINUOUS
 62
    7
 10
674.4805517836744
 20
1115.7341715327593
 40
2.459458222107755
 50
180.85886353410751
 51
222.98469365384364
  0
ARC
  8
_0-2_決定
  6
CONTINUOUS
 62
    7
 10
674.37537029248688
 20
1115.579264970344
 40
2.3569581156337387
 50
117.10819654692676
 51
177.12932412254258
  0
ARC
  8
_0-2_決定
  6
CONTINUOUS
 62
    7
 10
675.54601503373362
 20
1113.9286334420974
 40
4.3693220473927656
 50
89.011808131731101
 51
120.91250237691955
  0
ARC
  8
_0-2_決定
  6
CONTINUOUS
 62
    7
 10
675.63523786602502
 20
1114.3707867707608
 40
3.9265433624866271
 50
44.384897400960774
 51
90.202360918423707
  0
ARC
  8
_0-2_決定
  6
CONTINUOUS
 62
    7
 10
676.80783711794618
 20
1115.6216373334541
 40
2.2148257191892484
 50
1.9578599814315631
 51
42.477328557597154
  0
ARC
  8
_0-2_決定
  6
CONTINUOUS
 62
    7
 10
828.17470007758232
 20
842.7896775507935
 40
5.3828075809798381
 50
339.64460576647315
 51
37.914206455859286
  0
ARC
  8
_0-2_決定
  6
CONTINUOUS
 62
    7
 10
824.83517309509011
 20
844.11525266702756
 40
8.9752494391577429
 50
309.9751347335436
 51
339.12643938085751
  0
ARC
  8
_0-2_決定
  6
CONTINUOUS
 62
    7
 10
818.79847552361298
 20
850.46610390076637
 40
17.728769427143284
 50
291.37943850228908
 51
311.73973364037511
  0
ARC
  8
_0-2_決定
  6
CONTINUOUS
 62
    7
 10
815.45028164507301
 20
857.83704508782739
 40
25.81664536576703
 50
278.39935499820081
 51
292.33550853106362
  0
ARC
  8
_0-2_決定
  6
CONTINUOUS
 62
    7
 10
809.54891400135864
 20
854.04713409588612
 40
23.803596948479854
 50
266.94754495681201
 51
293.97538992496908
  0
ARC
  8
_0-2_決定
  6
CONTINUOUS
 62
    7
 10
809.20450065229545
 20
842.01121373866818
 40
11.770160552905411
 50
240.79472300569984
 51
265.5016766900219
  0
ARC
  8
_0-2_決定
  6
CONTINUOUS
 62
    7
 10
806.41793368624349
 20
836.50532005757168
 40
5.61027670421932
 50
175.99348409760938
 51
238.19762088989745
  0
ARC
  8
_0-2_決定
  6
CONTINUOUS
 62
    7
 10
805.26962504073538
 20
840.4190474780396
 40
5.6735905012340773
 50
142.95180547719045
 51
218.36907618013183
  0
ARC
  8
_0-2_決定
  6
CONTINUOUS
 62
    7
 10
810.8002716845948
 20
837.03717603480925
 40
12.141802292632724
 50
121.25033931402452
 51
145.94007658589948
  0
ARC
  8
_0-2_決定
  6
CONTINUOUS
 62
    7
 10
816.23133183040011
 20
828.96826572555278
 40
21.862279749332952
 50
96.328797980191226
 51
122.44833744916217
  0
ARC
  8
_0-2_決定
  6
CONTINUOUS
 62
    7
 10
823.80956206942585
 20
829.22022500123012
 40
23.68605471490725
 50
88.423104339940238
 51
114.94138841690202
  0
ARC
  8
_0-2_決定
  6
CONTINUOUS
 62
    7
 10
823.80578291808888
 20
840.54172925426212
 40
12.372960776933148
 50
63.526919539699747
 51
86.962744020192162
  0
ARC
  8
_0-2_決定
  6
CONTINUOUS
 62
    7
 10
826.50919117912395
 20
846.40753649801707
 40
5.9203102961415999
 50
356.99630037057415
 51
61.64032766430212
  0
ARC
  8
_0-2_決定
  6
CONTINUOUS
 62
    7
 10
855.64887623209643
 20
797.50563776834167
 40
4.214745303431668
 50
273.16212575131897
 51
340.47956035284557
  0
ARC
  8
_0-2_決定
  6
CONTINUOUS
 62
    7
 10
855.09040692693645
 20
802.43987038096452
 40
9.1767116150487347
 50
246.2967254959712
 51
274.94458443832917
  0
ARC
  8
_0-2_決定
  6
CONTINUOUS
 62
    7
 10
857.91194126006928
 20
810.69539841959681
 40
17.885175074956074
 50
223.8843331093575
 51
248.65267461593373
  0
ARC
  8
_0-2_決定
  6
CONTINUOUS
 62
    7
 10
853.06128881963048
 20
812.98324181604869
 40
16.742668023772904
 50
209.58436623330775
 51
241.30117687264669
  0
ARC
  8
_0-2_決定
  6
CONTINUOUS
 62
    7
 10
844.2972234027485
 20
807.66002981824295
 40
6.5001187149918156
 50
173.30970772983895
 51
206.91819656175477
  0
ARC
  8
_0-2_決定
  6
CONTINUOUS
 62
    7
 10
841.47772952465175
 20
807.68601546682567
 40
3.7091666461019228
 50
113.11877485159485
 51
168.62914818078087
  0
ARC
  8
_0-2_決定
  6
CONTINUOUS
 62
    7
 10
843.83283819850305
 20
809.91271544589836
 40
3.9913117427573019
 50
93.324650821760855
 51
162.73490311169778
  0
ARC
  8
_0-2_決定
  6
CONTINUOUS
 62
    7
 10
844.46951247133597
 20
806.13268397900413
 40
7.8130075351331172
 50
81.373783462614398
 51
96.37961110923645
  0
ARC
  8
_0-2_決定
  6
CONTINUOUS
 62
    7
 10
843.47055533112439
 20
800.50870991428678
 40
13.523961765417241
 50
57.678686653335987
 51
80.763150752681028
  0
ARC
  8
_0-2_決定
  6
CONTINUOUS
 62
    7
 10
840.43819135026524
 20
794.63765588355363
 40
20.114940035105707
 50
45.959735050826282
 51
59.321078471226429
  0
ARC
  8
_0-2_決定
  6
CONTINUOUS
 62
    7
 10
845.18463439178618
 20
792.63312031291912
 40
18.878209019246775
 50
40.117019097127738
 51
60.706719207507852
  0
ARC
  8
_0-2_決定
  6
CONTINUOUS
 62
    7
 10
851.81507124090558
 20
798.30152961165413
 40
10.155462834485272
 50
12.718160828812332
 51
39.764538475496472
  0
ARC
  8
_0-2_決定
  6
CONTINUOUS
 62
    7
 10
857.48605067190681
 20
799.82387859141966
 40
4.2949849463588947
 50
299.81263007458392
 51
9.5616023216727175
  0
ARC
  8
_0-2_決定
  6
CONTINUOUS
 62
    7
 10
806.1623241360104
 20
779.45736532149499
 40
13.161612642638222
 50
342.30690768069093
 51
7.1576980632284322
  0
ARC
  8
_0-2_決定
  6
CONTINUOUS
 62
    7
 10
812.93269235616549
 20
777.48024192489697
 40
6.1130895775656597
 50
322.48207449079609
 51
340.67550706012304
  0
ARC
  8
_0-2_決定
  6
CONTINUOUS
 62
    7
 10
815.82050048923008
 20
775.19149070016988
 40
2.4293765615302738
 50
250.795212742655
 51
323.81825003957533
  0
ARC
  8
_0-2_決定
  6
CONTINUOUS
 62
    7
 10
814.15559443028314
 20
774.68991648662541
 40
1.9907274510953039
 50
229.4487885439774
 51
295.77912515348203
  0
ARC
  8
_0-2_決定
  6
CONTINUOUS
 62
    7
 10
815.38912905637062
 20
776.07256591613805
 40
3.8434455748454099
 50
208.18361259788981
 51
228.87674743174043
  0
ARC
  8
_0-2_決定
  6
CONTINUOUS
 62
    7
 10
818.50485766126951
 20
777.88253837132675
 40
7.4456462587219985
 50
194.03142289384607
 51
209.13651558969104
  0
ARC
  8
_0-2_決定
  6
CONTINUOUS
 62
    7
 10
824.36100310957386
 20
779.27147601791387
 40
13.464009205355723
 50
172.20618545825431
 51
193.7235371600685
  0
ARC
  8
_0-2_決定
  6
CONTINUOUS
 62
    7
 10
824.96034083887764
 20
782.85931053728928
 40
14.04989705826514
 50
163.04174869424151
 51
187.20443873246825
  0
ARC
  8
_0-2_決定
  6
CONTINUOUS
 62
    7
 10
817.04727642497005
 20
785.11980350705903
 40
5.8234097774914231
 50
143.5781555443678
 51
161.60669358000365
  0
ARC
  8
_0-2_決定
  6
CONTINUOUS
 62
    7
 10
814.12892360464696
 20
787.32078631437253
 40
2.1686652932762169
 50
65.699786511866421
 51
144.59162577698436
  0
ARC
  8
_0-2_決定
  6
CONTINUOUS
 62
    7
 10
815.97087445503689
 20
787.60571213098046
 40
1.9398638232378245
 50
52.142517074050126
 51
119.30580070070042
  0
ARC
  8
_0-2_決定
  6
CONTINUOUS
 62
    7
 10
814.91979184813374
 20
786.23936582188821
 40
3.6637075585839769
 50
31.567225432276096
 51
52.27786376885129
  0
ARC
  8
_0-2_決定
  6
CONTINUOUS
 62
    7
 10
811.95923704714517
 20
784.36227556950917
 40
7.1690037122970605
 50
16.824763585370402
 51
31.962715186935473
  0
ARC
  8
_0-2_決定
  6
CONTINUOUS
 62
    7
 10
806.5699798867837
 20
782.8346234043612
 40
12.770116296335548
 50
352.18094265297771
 51
16.386694399572534
  0
ARC
  8
_0-2_決定
  6
CONTINUOUS
 62
    7
 10
758.11965408613901
 20
787.85661748654047
 40
6.2664976256530753
 50
279.56902789906133
 51
315.92075009675852
  0
ARC
  8
_0-2_決定
  6
CONTINUOUS
 62
    7
 10
757.24313762761483
 20
792.160608603019
 40
10.657350989177708
 50
253.97648800596571
 51
280.36926283771646
  0
ARC
  8
_0-2_決定
  6
CONTINUOUS
 62
    7
 10
759.51765912842404
 20
801.6605732973826
 40
20.420726096331663
 50
227.1173297149472
 51
255.20028615133634
  0
ARC
  8
_0-2_決定
  6
CONTINUOUS
 62
    7
 10
760.64307042919438
 20
803.01414468637188
 40
22.178605187206863
 50
199.53690470616135
 51
227.36652498503969
  0
ARC
  8
_0-2_決定
  6
CONTINUOUS
 62
    7
 10
749.99570969772265
 20
798.85861326340205
 40
10.760464045350936
 50
172.74604456622558
 51
197.6428132492367
  0
ARC
  8
_0-2_決定
  6
CONTINUOUS
 62
    7
 10
745.27792840295604
 20
799.22164802327507
 40
6.0391995777966576
 50
137.55611135055952
 51
170.51052146988499
  0
ARC
  8
_0-2_決定
  6
CONTINUOUS
 62
    7
 10
745.03801124095276
 20
799.46224576301404
 40
5.6998052038718079
 50
98.643912213283429
 51
137.71326800662595
  0
ARC
  8
_0-2_決定
  6
CONTINUOUS
 62
    7
 10
745.89421610477586
 20
794.76542363454769
 40
10.472903642226715
 50
73.313395127733301
 51
99.413027109879209
  0
ARC
  8
_0-2_決定
  6
CONTINUOUS
 62
    7
 10
743.61696264892771
 20
785.18420127092907
 40
20.312532579004131
 50
46.413678846214957
 51
74.920739589071829
  0
ARC
  8
_0-2_決定
  6
CONTINUOUS
 62
    7
 10
742.48405996706822
 20
783.37230145532988
 40
22.41013268383249
 50
19.403348020930267
 51
47.509557360264296
  0
ARC
  8
_0-2_決定
  6
CONTINUOUS
 62
    7
 10
753.91696445264586
 20
787.83097231550403
 40
10.153507138500181
 50
350.16886170658216
 51
17.104716055819054
  0
ARC
  8
_0-2_決定
  6
CONTINUOUS
 62
    7
 10
758.21475967787137
 20
787.32561674261649
 40
5.8373053180656509
 50
319.01705801187495
 51
347.85283963396904
  0
ARC
  8
_0-2_決定
  6
CONTINUOUS
 62
    7
 10
724.71112625422734
 20
847.1276197080258
 40
4.0992277371526473
 50
273.77999415290554
 51
342.53445902183864
  0
ARC
  8
_0-2_決定
  6
CONTINUOUS
 62
    7
 10
724.02060531914515
 20
852.05060476900508
 40
9.0643564337403078
 50
247.15435343305569
 51
276.08442012109208
  0
ARC
  8
_0-2_決定
  6
CONTINUOUS
 62
    7
 10
726.31762363265523
 20
859.18904145008742
 40
16.547584782361056
 50
223.02986266140914
 51
249.4217328642149
  0
ARC
  8
_0-2_決定
  6
CONTINUOUS
 62
    7
 10
723.45810336124998
 20
864.36149897366874
 40
18.878209019247969
 50
220.11701909713096
 51
240.70671920751107
  0
ARC
  8
_0-2_決定
  6
CONTINUOUS
 62
    7
 10
716.82766651213001
 20
858.69308967493214
 40
10.155462834485302
 50
192.71816082881224
 51
219.76453847549638
  0
ARC
  8
_0-2_決定
  6
CONTINUOUS
 62
    7
 10
711.15668708112878
 20
857.17074069516661
 40
4.2949849463588805
 50
119.81263007458386
 51
189.56160232167264
  0
ARC
  8
_0-2_決定
  6
CONTINUOUS
 62
    7
 10
712.76782790282937
 20
859.65319122322057
 40
3.9476294641312974
 50
92.416683477734836
 51
161.62977894720757
  0
ARC
  8
_0-2_決定
  6
CONTINUOUS
 62
    7
 10
713.47659395089181
 20
854.47671389361528
 40
9.1624933292965363
 50
67.103867055859538
 51
95.481392401104429
  0
ARC
  8
_0-2_決定
  6
CONTINUOUS
 62
    7
 10
710.79947393368741
 20
846.54771340745106
 40
17.519273554734603
 50
43.907716122620258
 51
69.127634890930949
  0
ARC
  8
_0-2_決定
  6
CONTINUOUS
 62
    7
 10
714.12397003458466
 20
842.15975634607162
 40
18.971882164909395
 50
40.168399629367649
 51
60.655338675267949
  0
ARC
  8
_0-2_決定
  6
CONTINUOUS
 62
    7
 10
720.85095467698693
 20
847.89800350134578
 40
10.130169430954973
 50
13.002982765272577
 51
39.909678561388667
  0
ARC
  8
_0-2_決定
  6
CONTINUOUS
 62
    7
 10
726.71381170436177
 20
849.48844799879055
 40
4.0663316230335074
 50
297.97656165812111
 51
9.7532940201241018
  0
ARC
  8
_0-2_決定
  6
CONTINUOUS
 62
    7
 10
674.58663730340106
 20
829.15116589959644
 40
13.746088545984867
 50
342.84787119315831
 51
7.2979089115416995
  0
ARC
  8
_0-2_決定
  6
CONTINUOUS
 62
    7
 10
682.28008814681857
 20
826.97342624373186
 40
5.7556372679660814
 50
322.09351772779416
 51
340.97615798690543
  0
ARC
  8
_0-2_決定
  6
CONTINUOUS
 62
    7
 10
685.02656758322473
 20
824.80580418729596
 40
2.2570096563765127
 50
249.09900551213659
 51
322.6753314934017
  0
ARC
  8
_0-2_決定
  6
CONTINUOUS
 62
    7
 10
683.34012232627913
 20
824.55607889141356
 40
2.0570902660217634
 50
230.12785364183091
 51
295.36575713270992
  0
ARC
  8
_0-2_決定
  6
CONTINUOUS
 62
    7
 10
684.57950246962469
 20
826.02408680421695
 40
3.9783028331492094
 50
209.62860683840466
 51
229.98253534614904
  0
ARC
  8
_0-2_決定
  6
CONTINUOUS
 62
    7
 10
687.48674107674731
 20
827.86246872910453
 40
7.416008777303742
 50
195.52659548304689
 51
210.8705855442322
  0
ARC
  8
_0-2_決定
  6
CONTINUOUS
 62
    7
 10
692.66444396172972
 20
829.18304344952139
 40
12.758762906616898
 50
172.27839196593683
 51
195.01637933897291
  0
ARC
  8
_0-2_決定
  6
CONTINUOUS
 62
    7
 10
693.08041361702408
 20
832.53725596509128
 40
13.161612642637195
 50
162.30690768069053
 51
187.15769806322803
  0
ARC
  8
_0-2_決定
  6
CONTINUOUS
 62
    7
 10
686.31004539687126
 20
834.51437936168929
 40
6.1130895775669458
 50
142.48207449080263
 51
160.67550706012958
  0
ARC
  8
_0-2_決定
  6
CONTINUOUS
 62
    7
 10
683.42223726380553
 20
836.80313058641582
 40
2.4293765615306198
 50
70.795212742643272
 51
143.81825003956362
  0
ARC
  8
_0-2_決定
  6
CONTINUOUS
 62
    7
 10
685.08714332275304
 20
837.30470479996166
 40
1.9907274510942212
 50
49.448788543985124
 51
115.77912515348976
  0
ARC
  8
_0-2_決定
  6
CONTINUOUS
 62
    7
 10
683.85360869666442
 20
835.92205537044697
 40
3.843445574846434
 50
28.18361259790781
 51
48.876747431758425
  0
ARC
  8
_0-2_決定
  6
CONTINUOUS
 62
    7
 10
680.7378800917661
 20
834.11208291525963
 40
7.4456462587219985
 50
14.03142289384607
 51
29.136515589691051
  0
ARC
  8
_0-2_決定
  6
CONTINUOUS
 62
    7
 10
674.88173464346175
 20
832.72314526867251
 40
13.464009205355723
 50
352.20618545825431
 51
13.723537160068521
  0
ARC
  8
_0-2_決定
  6
CONTINUOUS
 62
    7
 10
875.57907213382009
 20
843.132896877093
 40
10.843542250105283
 50
345.16911754916714
 51
0.8687676371730147
  0
ARC
  8
_0-2_決定
  6
CONTINUOUS
 62
    7
 10
883.32751862090618
 20
840.92423427109816
 40
2.7920127660919194
 50
318.58540418931489
 51
348.28449345656162
  0
ARC
  8
_0-2_決定
  6
CONTINUOUS
 62
    7
 10
885.00815072138266
 20
839.46112554359479
 40
0.5639707994415114
 50
271.34290028220568
 51
317.11259035364003
  0
ARC
  8
_0-2_決定
  6
CONTINUOUS
 62
    7
 10
885.08836349352066
 20
839.84607914207618
 40
0.9511319438008347
 50
218.24458983195825
 51
265.96086810615884
  0
ARC
  8
_0-2_決定
  6
CONTINUOUS
 62
    7
 10
886.73489018999533
 20
841.11485696081809
 40
3.0297575978879756
 50
194.47961996590806
 51
217.81406250523554
  0
ARC
  8
_0-2_決定
  6
CONTINUOUS
 62
    7
 10
893.26136803683823
 20
843.07458857557981
 40
9.8425204002381257
 50
178.70337414019173
 51
196.02611834977745
  0
ARC
  8
_0-2_決定
  6
CONTINUOUS
 62
    7
 10
893.55587151360055
 20
843.47429519946434
 40
10.136048927325325
 50
164.65085904404006
 51
181.0004924829932
  0
ARC
  8
_0-2_決定
  6
CONTINUOUS
 62
    7
 10
886.5911775423649
 20
845.52264441619604
 40
2.8805954781560059
 50
138.87272661226328
 51
167.27191768564856
  0
ARC
  8
_0-2_決定
  6
CONTINUOUS
 62
    7
 10
885.05436342444511
 20
846.84374775487663
 40
0.8541993933150362
 50
92.213740844011255
 51
137.82004611214609
  0
ARC
  8
_0-2_決定
  6
CONTINUOUS
 62
    7
 10
884.91303844369213
 20
846.89933314055816
 40
0.8052960728410013
 50
31.267514771243253
 51
82.269063092840227
  0
ARC
  8
_0-2_決定
  6
CONTINUOUS
 62
    7
 10
882.42274443276415
 20
845.31480019016635
 40
3.7568192805943141
 50
11.710501188593989
 51
32.210626851600395
  0
ARC
  8
_0-2_決定
  6
CONTINUOUS
 62
    7
 10
875.08624368681467
 20
843.40096441282435
 40
11.335598118636696
 50
359.47606967650199
 51
13.656527564984524
  0
ARC
  8
_0-2_決定
  6
CONTINUOUS
 62
    7
 10
904.00997156358699
 20
804.87939360247753
 40
11.813404378771835
 50
345.77914377090855
 51
1.0569669187344419
  0
ARC
  8
_0-2_決定
  6
CONTINUOUS
 62
    7
 10
912.63709422333818
 20
802.55515997530199
 40
2.8827801472115255
 50
319.8744401092892
 51
348.43678478158847
  0
ARC
  8
_0-2_決定
  6
CONTINUOUS
 62
    7
 10
914.40303103747851
 20
801.07681280527595
 40
0.5797931364468228
 50
271.81217057575361
 51
319.11451954791738
  0
ARC
  8
_0-2_決定
  6
CONTINUOUS
 62
    7
 10
914.54939651808616
 20
801.36314749840028
 40
0.8752525558471708
 50
213.71643500407492
 51
261.58867799697907
  0
ARC
  8
_0-2_決定
  6
CONTINUOUS
 62
    7
 10
916.92060511239163
 20
803.15906664454451
 40
3.8485969981200063
 50
196.01455715593713
 51
216.36166423907727
  0
ARC
  8
_0-2_決定
  6
CONTINUOUS
 62
    7
 10
922.97854201136431
 20
804.92493312793795
 40
10.158638722650652
 50
179.02773185459199
 51
196.16155488257724
  0
ARC
  8
_0-2_決定
  6
CONTINUOUS
 62
    7
 10
922.36376857774474
 20
805.16021754839232
 40
9.5426100578881421
 50
164.20731390940281
 51
180.37771464469245
  0
ARC
  8
_0-2_決定
  6
CONTINUOUS
 62
    7
 10
916.88290254200297
 20
806.88991732903469
 40
3.801807874258051
 50
142.63288690478959
 51
166.81166862406624
  0
ARC
  8
_0-2_決定
  6
CONTINUOUS
 62
    7
 10
914.46527364169754
 20
808.74268181495813
 40
0.7559041282732642
 50
93.329981121853507
 51
143.02719909810639
  0
ARC
  8
_0-2_決定
  6
CONTINUOUS
 62
    7
 10
914.31303644369109
 20
808.69933314055811
 40
0.8052960728412952
 50
31.267514771211317
 51
82.269063092808281
  0
ARC
  8
_0-2_決定
  6
CONTINUOUS
 62
    7
 10
911.82274243276481
 20
807.11480019016653
 40
3.7568192805931107
 50
11.710501188601393
 51
32.210626851607799
  0
ARC
  8
_0-2_決定
  6
CONTINUOUS
 62
    7
 10
904.48624168681306
 20
805.20096441282192
 40
11.335598118638748
 50
359.47606967651257
 51
13.656527564995047
  0
ARC
  8
_0-2_決定
  6
CONTINUOUS
 62
    7
 10
738.33281596068389
 20
1347.9620059788315
 40
3.289190403181828
 50
307.63673253487173
 51
358.8728154842405
  0
ARC
  8
_0-2_決定
  6
CONTINUOUS
 62
    7
 10
736.24813069393269
 20
1350.2772203215122
 40
6.4000161567089995
 50
293.70749837925251
 51
309.75953992761225
  0
ARC
  8
_0-2_決定
  6
CONTINUOUS
 62
    7
 10
734.46390595570278
 20
1354.2446212473792
 40
10.750055926462371
 50
268.70721854959572
 51
293.91264639842495
  0
ARC
  8
_0-2_決定
  6
CONTINUOUS
 62
    7
 10
734.07278709793957
 20
1354.6348308959346
 40
11.138520309965953
 50
243.37673584588669
 51
270.76432222424233
  0
ARC
  8
_0-2_決定
  6
CONTINUOUS
 62
    7
 10
731.0638833349617
 20
1348.4718607787222
 40
4.2812426519855968
 50
187.71258342043089
 51
242.41463669269467
  0
ARC
  8
_0-2_決定
  6
CONTINUOUS
 62
    7
 10
730.05179618552916
 20
1347.7749131416635
 40
3.2327438938591917
 50
125.78706357791877
 51
177.83031967451001
  0
ARC
  8
_0-2_決定
  6
CONTINUOUS
 62
    7
 10
733.16880198203194
 20
1344.208586166536
 40
7.9608150049849318
 50
98.723829277749516
 51
128.97711853841182
  0
ARC
  8
_0-2_決定
  6
CONTINUOUS
 62
    7
 10
734.22525981262936
 20
1340.5391595722901
 40
11.758142714454827
 50
90.018955113170279
 51
101.10093941341319
  0
ARC
  8
_0-2_決定
  6
CONTINUOUS
 62
    7
 10
734.30975296250779
 20
1341.4885859059564
 40
10.809077086432335
 50
62.973829095397292
 51
90.46849829987022
  0
ARC
  8
_0-2_決定
  6
CONTINUOUS
 62
    7
 10
736.89122594381047
 20
1346.6445997589926
 40
5.0432760080091423
 50
25.016564543299715
 51
62.481833827162873
  0
ARC
  8
_0-2_決定
  6
CONTINUOUS
 62
    7
 10
739.00583091071724
 20
1347.8762945586031
 40
2.6156233251802821
 50
0.4601695591700142
 51
20.149523378313184
  0
CIRCLE
  8
_0-2_決定
  6
CONTINUOUS
 62
    7
 10
731.26136987651819
 20
1280.0973036432927
 40
7.3599999999999994
  0
ARC
  8
_0-2_決定
  6
CONTINUOUS
 62
    7
 10
769.57311200574622
 20
659.77557480854728
 40
5.6735888664106238
 50
322.95180566749775
 51
38.369076370439103
  0
ARC
  8
_0-2_決定
  6
CONTINUOUS
 62
    7
 10
764.04246406844095
 20
663.15744725177581
 40
12.141802292631764
 50
301.25033931402885
 51
325.9400765859038
  0
ARC
  8
_0-2_決定
  6
CONTINUOUS
 62
    7
 10
758.61140492263416
 20
671.22635325008127
 40
21.862275574887349
 50
276.32880183040027
 51
302.44834129937118
  0
ARC
  8
_0-2_決定
  6
CONTINUOUS
 62
    7
 10
751.03317568361092
 20
670.97439828535369
 40
23.686054714904635
 50
268.42310433993924
 51
294.94138841690102
  0
ARC
  8
_0-2_決定
  6
CONTINUOUS
 62
    7
 10
751.03695483494562
 20
659.65289403232669
 40
12.372960776935564
 50
243.52691953970816
 51
266.9627440202006
  0
ARC
  8
_0-2_決定
  6
CONTINUOUS
 62
    7
 10
748.33354657391169
 20
653.78708678856799
 40
5.9203102961410936
 50
176.99630037056508
 51
241.64032766429307
  0
ARC
  8
_0-2_決定
  6
CONTINUOUS
 62
    7
 10
746.45436615211793
 20
657.3426848807884
 40
5.1766295432612477
 50
159.00606227100772
 51
218.82379852309256
  0
ARC
  8
_0-2_決定
  6
CONTINUOUS
 62
    7
 10
750.10270044483661
 20
655.93163607563099
 40
9.0883224591958864
 50
130.16041712299509
 51
158.94115699140602
  0
ARC
  8
_0-2_決定
  6
CONTINUOUS
 62
    7
 10
756.23536152332065
 20
649.64009146547085
 40
17.862805873090679
 50
111.87021500348501
 51
132.17912144119342
  0
ARC
  8
_0-2_決定
  6
CONTINUOUS
 62
    7
 10
759.32232163541414
 20
642.89388984344964
 40
25.275841145697999
 50
98.419661488868513
 51
112.6676969645325
  0
ARC
  8
_0-2_決定
  6
CONTINUOUS
 62
    7
 10
765.37164428782887
 20
645.89683657937655
 40
24.064263008325799
 50
87.452198511146705
 51
113.90218944403399
  0
ARC
  8
_0-2_決定
  6
CONTINUOUS
 62
    7
 10
765.58402697896383
 20
657.81465764094605
 40
12.152932851974548
 50
61.722600636371567
 51
85.954641845961646
  0
ARC
  8
_0-2_決定
  6
CONTINUOUS
 62
    7
 10
768.56217194206522
 20
663.79247541640939
 40
5.4816062803663286
 50
354.81730010469045
 51
59.535531624672807
  0
ARC
  8
_0-2_決定
  6
CONTINUOUS
 62
    7
 10
820.81224156042026
 20
717.43595827022261
 40
27.107216866988644
 50
283.67629472941502
 51
301.0687674702765
  0
ARC
  8
_0-2_決定
  6
CONTINUOUS
 62
    7
 10
831.96103574694064
 20
698.64703521172532
 40
5.2621229080124552
 50
302.66793200020788
 51
322.96046638624097
  0
ARC
  8
_0-2_決定
  6
CONTINUOUS
 62
    7
 10
835.12850361067933
 20
696.28372802478168
 40
1.3103877181881429
 50
322.01879957676789
 51
9.3806455248490277
  0
ARC
  8
_0-2_決定
  6
CONTINUOUS
 62
    7
 10
835.31327280263554
 20
696.14159749193504
 40
1.163790037007979
 50
17.797363002139754
 51
60.781450722846529
  0
ARC
  8
_0-2_決定
  6
CONTINUOUS
 62
    7
 10
834.07225585999583
 20
693.97625850431928
 40
3.6595061635829627
 50
60.372469261132984
 51
81.686715121899653
  0
ARC
  8
_0-2_決定
  6
CONTINUOUS
 62
    7
 10
832.83526330081372
 20
686.13058832109982
 40
11.601933852597908
 50
81.244108378917986
 51
92.934215968752952
  0
ARC
  8
_0-2_決定
  6
CONTINUOUS
 62
    7
 10
833.53392396112497
 20
668.86769393429449
 40
28.87855853721274
 50
92.565320477821714
 51
105.48990542360802
  0
ARC
  8
_0-2_決定
  6
CONTINUOUS
 62
    7
 10
832.13041736935338
 20
669.7596879112042
 40
27.666580522982098
 50
103.18162594285175
 51
120.42119302985188
  0
ARC
  8
_0-2_決定
  6
CONTINUOUS
 62
    7
 10
821.03794575152108
 20
688.96889178217759
 40
5.4876437298873304
 50
122.1055685563429
 51
141.86885643528296
  0
ARC
  8
_0-2_決定
  6
CONTINUOUS
 62
    7
 10
817.73547954150558
 20
691.49784607773074
 40
1.3293244628200052
 50
139.71852899625299
 51
188.6764430959017
  0
ARC
  8
_0-2_決定
  6
CONTINUOUS
 62
    7
 10
817.47045811667306
 20
691.69849285943292
 40
1.1231815081151904
 50
200.92728806278558
 51
243.04713692888788
  0
ARC
  8
_0-2_決定
  6
CONTINUOUS
 62
    7
 10
818.86725413050954
 20
694.45684808478836
 40
4.2150345986816626
 50
243.11740097357989
 51
262.55876142067774
  0
ARC
  8
_0-2_決定
  6
CONTINUOUS
 62
    7
 10
820.2458979462449
 20
703.63455149901245
 40
13.495172194251527
 50
261.80116653137668
 51
272.95403054754451
  0
ARC
  8
_0-2_決定
  6
CONTINUOUS
 62
    7
 10
819.71937578388406
 20
719.769131155781
 40
29.63702278425783
 50
272.36308632091846
 51
284.6627521547569
  0
ARC
  8
_0-2_決定
  6
CONTINUOUS
 62
    7
 10
803.89177381229615
 20
752.57618113286776
 40
0.9329338243528485
 50
307.62860890919637
 51
355.15047175897001
  0
ARC
  8
_0-2_決定
  6
CONTINUOUS
 62
    7
 10
802.70887250352814
 20
754.04230238927403
 40
2.8165979873268099
 50
284.65292302565717
 51
308.47717932848002
  0
ARC
  8
_0-2_決定
  6
CONTINUOUS
 62
    7
 10
801.83348007530185
 20
756.93740474304934
 40
5.8401056599327097
 50
269.8811702375109
 51
285.77698278259231
  0
ARC
  8
_0-2_決定
  6
CONTINUOUS
 62
    7
 10
801.73769075518862
 20
756.36799430258111
 40
5.2713468445504201
 50
248.68250374357063
 51
270.90954881298188
  0
ARC
  8
_0-2_決定
  6
CONTINUOUS
 62
    7
 10
800.24048894539021
 20
752.86108190182449
 40
1.4650028700007853
 50
194.37734331524041
 51
253.37605125659871
  0
ARC
  8
_0-2_決定
  6
CONTINUOUS
 62
    7
 10
799.90000367531195
 20
752.38830941615151
 40
1.0841294535076558
 50
130.12227875522493
 51
174.22952847624046
  0
ARC
  8
_0-2_決定
  6
CONTINUOUS
 62
    7
 10
801.20965896845519
 20
750.96964328959439
 40
3.0141742050146174
 50
107.93725269249761
 51
131.78077963733912
  0
ARC
  8
_0-2_決定
  6
CONTINUOUS
 62
    7
 10
801.83802071966852
 20
749.30790634155619
 40
4.7894342527579967
 50
90.199217590557382
 51
108.96667185652348
  0
ARC
  8
_0-2_決定
  6
CONTINUOUS
 62
    7
 10
801.92209989787216
 20
750.13866747682857
 40
3.9599255771808108
 50
46.630807449874141
 51
91.457639088869129
  0
ARC
  8
_0-2_決定
  6
CONTINUOUS
 62
    7
 10
803.96976686689698
 20
752.49368052457862
 40
0.8516087509005505
 50
0.2443004577361329
 51
37.942683543183179
  0
ARC
  8
_0-2_決定
  6
CONTINUOUS
 62
    7
 10
702.50703248717514
 20
744.91523828771369
 40
10.267721120708462
 50
154.73652164853164
 51
170.45807008875244
  0
ARC
  8
_0-2_決定
  6
CONTINUOUS
 62
    7
 10
695.5640677164638
 20
745.95165025235883
 40
3.2515643354819632
 50
168.18687086405092
 51
194.86818002038947
  0
ARC
  8
_0-2_決定
  6
CONTINUOUS
 62
    7
 10
692.99546334054185
 20
745.26359113283957
 40
0.5924364898425081
 50
194.29483632103205
 51
252.91080162431615
  0
ARC
  8
_0-2_決定
  6
CONTINUOUS
 62
    7
 10
693.10861682932682
 20
745.45943052718997
 40
0.8144544217388815
 50
249.34828775332232
 51
300.44989715424299
  0
ARC
  8
_0-2_決定
  6
CONTINUOUS
 62
    7
 10
691.99607315928063
 20
747.39471771629178
 40
3.0467098433400652
 50
300.04217516046907
 51
323.37933948253453
  0
ARC
  8
_0-2_決定
  6
CONTINUOUS
 62
    7
 10
687.63150521356067
 20
750.94438038729311
 40
8.6706218710434939
 50
321.75724276797376
 51
340.83085214523129
  0
ARC
  8
_0-2_決定
  6
CONTINUOUS
 62
    7
 10
685.5416478460171
 20
752.70008747534484
 40
11.26313590366745
 50
335.87941049440013
 51
351.51039826428297
  0
ARC
  8
_0-2_決定
  6
CONTINUOUS
 62
    7
 10
693.80352778341091
 20
751.54816783391834
 40
2.9228323866341799
 50
349.93407367422549
 51
18.122453658785393
  0
ARC
  8
_0-2_決定
  6
CONTINUOUS
 62
    7
 10
695.84718785970381
 20
752.2238899931732
 40
0.7703952885092926
 50
17.637245635980101
 51
60.941568088924399
  0
ARC
  8
_0-2_決定
  6
CONTINUOUS
 62
    7
 10
696.10706124570413
 20
751.92725885602954
 40
0.9767644921658218
 50
83.279398848901877
 51
129.8347439023388
  0
ARC
  8
_0-2_決定
  6
CONTINUOUS
 62
    7
 10
698.34580133587281
 20
749.11335498315395
 40
4.5723904755271754
 50
128.78961643323663
 51
147.68978415895026
  0
ARC
  8
_0-2_決定
  6
CONTINUOUS
 62
    7
 10
706.65982094856872
 20
743.28631679781552
 40
14.721549723050893
 50
145.81761406399644
 51
155.90111846922846
  0
ARC
  8
_0-2_決定
  6
CONTINUOUS
 62
    7
 10
898.85282416776647
 20
691.52012676192498
 40
8.1772453847451292
 50
2.6437720166263499
 51
90.220406394577083
  0
ARC
  8
_0-2_決定
  6
CONTINUOUS
 62
    7
 10
899.06417962396688
 20
691.2317916011034
 40
8.4690015426504797
 50
91.642932162695288
 51
175.49287546898125
  0
ARC
  8
_0-2_決定
  6
CONTINUOUS
 62
    7
 10
898.94032918831442
 20
692.22174698788399
 40
8.3252853164309553
 50
182.23337500874229
 51
269.18126372834172
  0
ARC
  8
_0-2_決定
  6
CONTINUOUS
 62
    7
 10
898.56358912924406
 20
692.36403274480358
 40
8.4706443729689269
 50
271.74389506608634
 51
356.84148016714772
  0
ARC
  8
_0-2_決定
  6
CONTINUOUS
 62
    7
 10
869.39094156750627
 20
749.81970014492344
 40
3.2327438938594972
 50
305.78706357790867
 51
357.83031967449989
  0
ARC
  8
_0-2_決定
  6
CONTINUOUS
 62
    7
 10
866.27393577100406
 20
753.38602712005184
 40
7.9608150049855961
 50
278.72382927774095
 51
308.97711853840326
  0
ARC
  8
_0-2_決定
  6
CONTINUOUS
 62
    7
 10
865.21747794040152
 20
757.05545371429037
 40
11.758142714449416
 50
270.01895511319537
 51
281.10093941343825
  0
ARC
  8
_0-2_決定
  6
CONTINUOUS
 62
    7
 10
865.07626982399643
 20
756.19756748497639
 40
10.901221530589872
 50
243.08343213026529
 51
270.76264402988915
  0
ARC
  8
_0-2_決定
  6
CONTINUOUS
 62
    7
 10
862.18872162894513
 20
750.39820006119135
 40
4.4232367530105439
 50
189.11728849180568
 51
242.4279771196253
  0
ARC
  8
_0-2_決定
  6
CONTINUOUS
 62
    7
 10
861.11946496954261
 20
749.58083522413835
 40
3.30015320723692
 50
126.39404370053987
 51
177.97736858790344
  0
ARC
  8
_0-2_決定
  6
CONTINUOUS
 62
    7
 10
864.03855996891025
 20
746.23919490055846
 40
7.7307442827691606
 50
97.859921957653228
 51
129.11526959765618
  0
ARC
  8
_0-2_決定
  6
CONTINUOUS
 62
    7
 10
865.19864780776516
 20
741.70777641333518
 40
12.389556062099063
 50
89.894930474275355
 51
100.30940003045312
  0
ARC
  8
_0-2_決定
  6
CONTINUOUS
 62
    7
 10
865.30975096250586
 20
743.28859590595607
 40
10.809077086432781
 50
62.973829095387266
 51
90.468498299860201
  0
ARC
  8
_0-2_決定
  6
CONTINUOUS
 62
    7
 10
867.89122394381138
 20
748.44460975899233
 40
5.0432760080085828
 50
25.016564543305783
 51
62.481833827168948
  0
ARC
  8
_0-2_決定
  6
CONTINUOUS
 62
    7
 10
870.00582891071701
 20
749.6763045586016
 40
2.6156233251806817
 50
0.4601695592054329
 51
20.149523378348604
  0
ARC
  8
_0-2_決定
  6
CONTINUOUS
 62
    7
 10
765.51132423257854
 20
759.78163585644086
 40
27.80820061191389
 50
146.72874108924159
 51
156.43891577350846
  0
ARC
  8
_0-2_決定
  6
CONTINUOUS
 62
    7
 10
748.85680462994799
 20
771.0180976211592
 40
7.7235898999411674
 50
130.88513491850472
 51
148.64214846293973
  0
ARC
  8
_0-2_決定
  6
CONTINUOUS
 62
    7
 10
744.34941362344887
 20
776.36236529705457
 40
0.7384604486397912
 50
84.408174763413527
 51
137.91434487027715
  0
ARC
  8
_0-2_決定
  6
CONTINUOUS
 62
    7
 10
743.76336987651769
 20
776.51331164329326
 40
0.8797840644161658
 50
356.35054286043038
 51
41.59027275651124
  0
ARC
  8
_0-2_決定
  6
CONTINUOUS
 62
    7
 10
736.95407959887461
 20
776.36554282093948
 40
7.6878380140002047
 50
346.24278344679527
 51
0.6839492556132945
  0
ARC
  8
_0-2_決定
  6
CONTINUOUS
 62
    7
 10
717.63929429418454
 20
780.70642753828054
 40
27.483405237044558
 50
336.38598242198907
 51
347.02846564887642
  0
ARC
  8
_0-2_決定
  6
CONTINUOUS
 62
    7
 10
717.97487943174019
 20
779.87696206633382
 40
26.850947286040871
 50
327.82163960838687
 51
337.72100203743173
  0
ARC
  8
_0-2_決定
  6
CONTINUOUS
 62
    7
 10
733.96451561668869
 20
769.59471298836843
 40
7.8437694309297381
 50
311.68963771760946
 51
329.19102634441111
  0
ARC
  8
_0-2_決定
  6
CONTINUOUS
 62
    7
 10
738.60337887758533
 20
764.2442831399128
 40
0.768826178815287
 50
256.30601105299218
 51
318.74512569441606
  0
ARC
  8
_0-2_決定
  6
CONTINUOUS
 62
    7
 10
739.0793657165375
 20
764.08131021330007
 40
0.8797800038949545
 50
176.35043267627194
 51
221.59038294069316
  0
ARC
  8
_0-2_決定
  6
CONTINUOUS
 62
    7
 10
745.88866015416272
 20
764.2290804656468
 40
7.6878380140018896
 50
166.24278344679672
 51
180.68394925561475
  0
ARC
  8
_0-2_決定
  6
CONTINUOUS
 62
    7
 10
765.20344545884882
 20
759.88819574830575
 40
27.483405237042192
 50
156.38598242198739
 51
167.0284656488748
  0
CIRCLE
  8
_0-2_決定
  6
CONTINUOUS
 62
    7
 10
862.22136787651777
 20
681.89731164329282
 40
7.3599999999999994
  0
ARC
  8
_0-2_決定
  6
CONTINUOUS
 62
    7
 10
772.70728268116954
 20
707.50005827859991
 40
8.3293738972171045
 50
316.22260835197039
 51
18.168859517449398
  0
ARC
  8
_0-2_決定
  6
CONTINUOUS
 62
    7
 10
770.32979084291355
 20
709.31238660359611
 40
11.304880617021924
 50
286.92767055047318
 51
317.92743944106957
  0
ARC
  8
_0-2_決定
  6
CONTINUOUS
 62
    7
 10
770.14231822822637
 20
708.99800465951375
 40
11.062022431552684
 50
236.65260714529416
 51
288.33086975994507
  0
ARC
  8
_0-2_決定
  6
CONTINUOUS
 62
    7
 10
768.69686578376388
 20
706.09218686577469
 40
7.8497430779932644
 50
197.76355642753529
 51
233.80548879279482
  0
ARC
  8
_0-2_決定
  6
CONTINUOUS
 62
    7
 10
768.69671767102034
 20
706.21842269770809
 40
7.8890319810140745
 50
150.04717864843465
 51
198.63702274676103
  0
ARC
  8
_0-2_決定
  6
CONTINUOUS
 62
    7
 10
771.4606397815993
 20
704.78440179965082
 40
11.000642840239642
 50
107.12527178999855
 51
150.7633584781303
  0
ARC
  8
_0-2_決定
  6
CONTINUOUS
 62
    7
 10
771.77892592220019
 20
704.71194479514736
 40
11.167192858010067
 50
56.997841578548275
 51
108.57659332233078
  0
ARC
  8
_0-2_決定
  6
CONTINUOUS
 62
    7
 10
773.19323835108605
 20
707.89313136937494
 40
7.74825909004878
 50
16.52742517278914
 51
52.952663714381117
  0
ARC
  8
_0-2_決定
  6
CONTINUOUS
 62
    7
 10
795.02404819836613
 20
622.27406935742488
 40
3.6802253064522712
 50
347.81540458120941
 51
36.001195541408073
  0
ARC
  8
_0-2_決定
  6
CONTINUOUS
 62
    7
 10
790.97428840389568
 20
619.98898864741921
 40
8.3166965306828047
 50
32.334879677501867
 51
46.857537602010112
  0
ARC
  8
_0-2_決定
  6
CONTINUOUS
 62
    7
 10
785.58669379882303
 20
613.99668090599721
 40
16.373981432476874
 50
47.440300773774609
 51
68.749548079581857
  0
ARC
  8
_0-2_決定
  6
CONTINUOUS
 62
    7
 10
781.51338478418211
 20
605.91370694350985
 40
25.398497973908761
 50
66.793985990357186
 51
73.748246033095839
  0
ARC
  8
_0-2_決定
  6
CONTINUOUS
 62
    7
 10
783.22480090103284
 20
609.60653984482497
 40
21.38296180374175
 50
75.381786649925346
 51
95.322271967302456
  0
ARC
  8
_0-2_決定
  6
CONTINUOUS
 62
    7
 10
782.17901207594025
 20
621.81252033138833
 40
9.1330524012918541
 50
95.892649870677872
 51
123.6262915997513
  0
ARC
  8
_0-2_決定
  6
CONTINUOUS
 62
    7
 10
779.32305495901232
 20
626.52648384785425
 40
3.6337752978714506
 50
127.29328875907392
 51
164.50416285243563
  0
ARC
  8
_0-2_決定
  6
CONTINUOUS
 62
    7
 10
779.15616536731022
 20
626.54651325726093
 40
3.4676931350211708
 50
164.08636059156728
 51
213.40596393353582
  0
ARC
  8
_0-2_決定
  6
CONTINUOUS
 62
    7
 10
782.57909418501299
 20
628.39130809736832
 40
7.3488869953402967
 50
210.71879145560646
 51
225.86153492888138
  0
ARC
  8
_0-2_決定
  6
CONTINUOUS
 62
    7
 10
787.55793906403653
 20
633.55592391415496
 40
14.52258014719057
 50
225.95424449691825
 51
248.35563889752552
  0
ARC
  8
_0-2_決定
  6
CONTINUOUS
 62
    7
 10
791.31975946420425
 20
641.31929573802836
 40
23.134756271533014
 50
246.78749282648704
 51
255.74055783948478
  0
ARC
  8
_0-2_決定
  6
CONTINUOUS
 62
    7
 10
791.15533569108834
 20
638.01332780444329
 40
19.900924530835105
 50
253.85459713877992
 51
274.62888253248184
  0
ARC
  8
_0-2_決定
  6
CONTINUOUS
 62
    7
 10
791.89225333798447
 20
628.20212036466546
 40
10.062410739080594
 50
274.95494771570151
 51
301.44338239038706
  0
ARC
  8
_0-2_決定
  6
CONTINUOUS
 62
    7
 10
794.89341933014487
 20
622.90952845639458
 40
3.9864710011170286
 50
304.32554943895377
 51
339.25239970993874
  0
ARC
  8
_0-2_決定
  6
CONTINUOUS
 62
    7
 10
815.02462255562193
 20
549.69845647877503
 40
4.6011439866019561
 50
269.95947108101348
 51
357.49446887887717
  0
ARC
  8
_0-2_決定
  6
CONTINUOUS
 62
    7
 10
815.20453392899412
 20
549.68047969576924
 40
4.5868247042317138
 50
182.28860565917989
 51
267.71139434081823
  0
ARC
  8
_0-2_決定
  6
CONTINUOUS
 62
    7
 10
815.20453392899412
 20
549.31414759081702
 40
4.5868247042316765
 50
92.288605659181314
 51
177.71139434081962
  0
ARC
  8
_0-2_決定
  6
CONTINUOUS
 62
    7
 10
814.90185107067532
 20
549.16781880082124
 40
4.7310047275232634
 50
3.9936462355463664
 51
88.552413804563884
  0
ARC
  8
_0-2_決定
  6
CONTINUOUS
 62
    7
 10
835.17907213382102
 20
590.53290087709297
 40
10.84354225010367
 50
345.16911754916612
 51
0.8687676371719709
  0
ARC
  8
_0-2_決定
  6
CONTINUOUS
 62
    7
 10
842.92751862090597
 20
588.32423827109835
 40
2.7920127660919496
 50
318.58540418931517
 51
348.2844934565619
  0
ARC
  8
_0-2_決定
  6
CONTINUOUS
 62
    7
 10
844.60815072138246
 20
586.86112954359487
 40
0.5639707994415301
 50
271.34290028220994
 51
317.11259035364424
  0
ARC
  8
_0-2_決定
  6
CONTINUOUS
 62
    7
 10
844.75378983228268
 20
587.17008515239581
 40
0.8827602627382373
 50
213.93255925296933
 51
261.37255374819182
  0
ARC
  8
_0-2_決定
  6
CONTINUOUS
 62
    7
 10
847.1299057023009
 20
588.94660613963936
 40
3.8487265229289469
 50
195.5118197661244
 51
216.13016418224728
  0
ARC
  8
_0-2_決定
  6
CONTINUOUS
 62
    7
 10
852.39410021743993
 20
590.62713124630238
 40
9.372995097801164
 50
179.57098102818969
 51
196.80462299560597
  0
ARC
  8
_0-2_決定
  6
CONTINUOUS
 62
    7
 10
852.56377057774557
 20
590.76022154839029
 40
9.5426100578882878
 50
164.20731390939068
 51
180.37771464468031
  0
ARC
  8
_0-2_決定
  6
CONTINUOUS
 62
    7
 10
847.08290454200494
 20
592.48992132903606
 40
3.8018078742584294
 50
142.63288690481488
 51
166.81166862409154
  0
ARC
  8
_0-2_決定
  6
CONTINUOUS
 62
    7
 10
844.66527564169724
 20
594.34268581495826
 40
0.7559041282730147
 50
93.329981121818221
 51
143.02719909807109
  0
ARC
  8
_0-2_決定
  6
CONTINUOUS
 62
    7
 10
844.51303844369193
 20
594.29933714055835
 40
0.8052960728409785
 50
31.267514771245708
 51
82.269063092842671
  0
ARC
  8
_0-2_決定
  6
CONTINUOUS
 62
    7
 10
842.02274443276394
 20
592.71480419016655
 40
3.7568192805943141
 50
11.710501188593989
 51
32.210626851600395
  0
ARC
  8
_0-2_決定
  6
CONTINUOUS
 62
    7
 10
834.68624368681276
 20
590.8009684128242
 40
11.335598118638483
 50
359.47606967650097
 51
13.656527564983483
  0
ARC
  8
_0-2_決定
  6
CONTINUOUS
 62
    7
 10
864.57907213381986
 20
552.13290087709515
 40
10.843542250105472
 50
345.16911754915617
 51
0.8687676371620587
  0
ARC
  8
_0-2_決定
  6
CONTINUOUS
 62
    7
 10
872.32751862090595
 20
549.92423827109815
 40
2.7920127660919496
 50
318.58540418931517
 51
348.2844934565619
  0
ARC
  8
_0-2_決定
  6
CONTINUOUS
 62
    7
 10
874.00815072138244
 20
548.46112954359467
 40
0.5639707994414926
 50
271.34290028220147
 51
317.11259035363577
  0
ARC
  8
_0-2_決定
  6
CONTINUOUS
 62
    7
 10
874.12969730934435
 20
548.69529014602881
 40
0.8052960728418473
 50
211.26751477123707
 51
262.26906309283402
  0
ARC
  8
_0-2_決定
  6
CONTINUOUS
 62
    7
 10
876.61999132027006
 20
550.27982309641834
 40
3.7568192805924205
 50
191.7105011885794
 51
212.2106268515858
  0
ARC
  8
_0-2_決定
  6
CONTINUOUS
 62
    7
 10
883.95649206622295
 20
552.19365887376193
 40
11.335598118638483
 50
179.476069676501
 51
193.65652756498349
  0
ARC
  8
_0-2_決定
  6
CONTINUOUS
 62
    7
 10
883.44168472195747
 20
552.57217682200189
 40
10.823807389394345
 50
165.52694359748693
 51
181.4551435215111
  0
ARC
  8
_0-2_決定
  6
CONTINUOUS
 62
    7
 10
875.57645941531121
 20
554.71587368095527
 40
2.6746810253894253
 50
138.23797085436678
 51
167.88297301801461
  0
ARC
  8
_0-2_決定
  6
CONTINUOUS
 62
    7
 10
874.04052938438724
 20
556.0711583259797
 40
0.6264484374499526
 50
91.752809538655839
 51
137.13510002215492
  0
ARC
  8
_0-2_決定
  6
CONTINUOUS
 62
    7
 10
873.93026520891624
 20
555.90331490104541
 40
0.7992081698372506
 50
32.890547070050502
 51
83.454559776645581
  0
ARC
  8
_0-2_決定
  6
CONTINUOUS
 62
    7
 10
871.66941717518739
 20
554.36681006567665
 40
3.532593843683471
 50
12.266033915357943
 51
33.904233430268043
  0
ARC
  8
_0-2_決定
  6
CONTINUOUS
 62
    7
 10
863.98575071142886
 20
552.50671607253776
 40
11.437534232685602
 50
358.95094995603938
 51
13.193962858388931
  0
ARC
  8
_0-2_決定
  6
CONTINUOUS
 62
    7
 10
892.26715759363458
 20
652.41812027156459
 40
3.7550454642028774
 50
1.2084493885588168
 51
49.59016975299329
  0
ARC
  8
_0-2_決定
  6
CONTINUOUS
 62
    7
 10
890.43224483615347
 20
650.4759116551254
 40
6.4248636239028638
 50
48.3583946166288
 51
91.88090065408602
  0
ARC
  8
_0-2_決定
  6
CONTINUOUS
 62
    7
 10
890.20669550773562
 20
649.87196529697951
 40
7.0253636678436369
 50
89.880338519459869
 51
139.04002404504254
  0
ARC
  8
_0-2_決定
  6
CONTINUOUS
 62
    7
 10
887.69519823433029
 20
652.41104867192337
 40
3.4749012935833417
 50
143.5140594821633
 51
178.57747711882351
  0
ARC
  8
_0-2_決定
  6
CONTINUOUS
 62
    7
 10
887.85710373157087
 20
652.6021178390971
 40
3.6372460910938047
 50
181.65115837102917
 51
230.45583224995744
  0
ARC
  8
_0-2_決定
  6
CONTINUOUS
 62
    7
 10
890.0332833948147
 20
654.87141048189869
 40
6.7767074417497275
 50
228.48268849654212
 51
271.59042294645104
  0
ARC
  8
_0-2_決定
  6
CONTINUOUS
 62
    7
 10
890.2785299679573
 20
654.75018942719021
 40
6.6531213502132083
 50
269.50772175780656
 51
319.81615007403354
  0
ARC
  8
_0-2_決定
  6
CONTINUOUS
 62
    7
 10
892.3952358056863
 20
652.54370931326844
 40
3.6264288705701757
 50
324.87720907430713
 51
359.26695140166163
  0
ARC
  8
_0-2_決定
  6
CONTINUOUS
 62
    7
 10
732.90014615872735
 20
561.01853736108319
 40
1.123987690312434
 50
265.9810486362793
 51
4.0189513637104692
  0
ARC
  8
_0-2_決定
  6
CONTINUOUS
 62
    7
 10
732.83342382362832
 20
561.10936759040385
 40
1.2121138842317443
 50
180.56979108054361
 51
269.43020891946662
  0
ARC
  8
_0-2_決定
  6
CONTINUOUS
 62
    7
 10
732.93462279329901
 20
560.98406072651198
 40
1.3181272497728826
 50
94.928905385756082
 51
175.07109461425406
  0
ARC
  8
_0-2_決定
  6
CONTINUOUS
 62
    7
 10
732.82092194358938
 20
561.09686571036514
 40
1.2004480164985163
 50
0.0213792405104342
 51
89.978620759479369
  0
ARC
  8
_0-2_決定
  6
CONTINUOUS
 62
    7
 10
807.45846261364079
 20
517.55311121617535
 40
2.5635125379912487
 50
301.06778479361952
 51
358.75284272882556
  0
ARC
  8
_0-2_決定
  6
CONTINUOUS
 62
    7
 10
806.51803068068489
 20
518.90106682839337
 40
4.2048623906068414
 50
268.68274913162816
 51
302.56572003073831
  0
ARC
  8
_0-2_決定
  6
CONTINUOUS
 62
    7
 10
806.42581021195213
 20
518.16699562203416
 40
3.4696828225674259
 50
191.12843776970809
 51
269.92664253359703
  0
ARC
  8
_0-2_決定
  6
CONTINUOUS
 62
    7
 10
805.43050952839565
 20
517.375194778224
 40
2.4122348568280958
 50
117.37409736401064
 51
177.0981256548462
  0
ARC
  8
_0-2_決定
  6
CONTINUOUS
 62
    7
 10
806.40361317097927
 20
516.06987578403505
 40
4.0274789942978666
 50
89.747416934947083
 51
121.13187413568264
  0
ARC
  8
_0-2_決定
  6
CONTINUOUS
 62
    7
 10
806.47752575347852
 20
515.83382467203876
 40
4.2638608055509239
 50
46.70723505641029
 51
90.754645265116125
  0
ARC
  8
_0-2_決定
  6
CONTINUOUS
 62
    7
 10
807.83569242263297
 20
517.40973315620283
 40
2.1874295146953324
 50
2.294679017727165
 51
44.294447490118507
  0
ARC
  8
_0-2_決定
  6
CONTINUOUS
 62
    7
 10
842.92914783498588
 20
615.74681899231655
 40
1.4930410014238291
 50
320.50922555768773
 51
358.09987297418127
  0
ARC
  8
_0-2_決定
  6
CONTINUOUS
 62
    7
 10
841.51213265616207
 20
616.94880135641915
 40
3.3510996698470215
 50
297.53604334130199
 51
320.05706085530682
  0
ARC
  8
_0-2_決定
  6
CONTINUOUS
 62
    7
 10
839.84329762056916
 20
620.08700684715393
 40
6.9053839297699611
 50
282.1897404413877
 51
297.77647260240667
  0
ARC
  8
_0-2_決定
  6
CONTINUOUS
 62
    7
 10
839.09091415117075
 20
623.38662403408182
 40
10.289545422530082
 50
269.61273912554736
 51
282.40527278945228
  0
ARC
  8
_0-2_決定
  6
CONTINUOUS
 62
    7
 10
838.82161127549523
 20
622.2833133176614
 40
9.1881713478335154
 50
241.38621620834272
 51
271.24574428715403
  0
ARC
  8
_0-2_決定
  6
CONTINUOUS
 62
    7
 10
835.46882248558632
 20
616.00289108185348
 40
2.0701323501539175
 50
188.48859344789605
 51
239.60328126533355
  0
ARC
  8
_0-2_決定
  6
CONTINUOUS
 62
    7
 10
834.70759672936367
 20
615.59930515051076
 40
1.2899574902106119
 50
134.63002935242247
 51
175.64257750406924
  0
ARC
  8
_0-2_決定
  6
CONTINUOUS
 62
    7
 10
836.35286416472184
 20
614.03887154953009
 40
3.5570786497989526
 50
114.43628790066269
 51
135.83209821318201
  0
ARC
  8
_0-2_決定
  6
CONTINUOUS
 62
    7
 10
838.6885822542007
 20
608.91649959011124
 40
9.1868434703941322
 50
87.92405474936858
 51
114.48281498108338
  0
ARC
  8
_0-2_決定
  6
CONTINUOUS
 62
    7
 10
839.17291773004422
 20
609.16749376429129
 40
8.9311057786547607
 50
60.716744015067754
 51
90.972285399580898
  0
ARC
  8
_0-2_決定
  6
CONTINUOUS
 62
    7
 10
842.62706952134579
 20
615.38145447460147
 40
1.8218873735276406
 50
9.983769970784957
 51
59.878104631441694
  0
ARC
  8
_0-2_決定
  6
CONTINUOUS
 62
    7
 10
874.03103894729952
 20
639.03146714359514
 40
2.9910538053409135
 50
308.70477424178648
 51
1.2614388020060463
  0
ARC
  8
_0-2_決定
  6
CONTINUOUS
 62
    7
 10
875.20572951703059
 20
637.80648406555031
 40
1.3092638209316427
 50
270.68437948839494
 51
302.0947011796539
  0
ARC
  8
_0-2_決定
  6
CONTINUOUS
 62
    7
 10
875.27056769905869
 20
637.92531319964564
 40
1.4288468621518735
 50
228.37045024313835
 51
268.02673078415887
  0
ARC
  8
_0-2_決定
  6
CONTINUOUS
 62
    7
 10
876.24940157915603
 20
638.932773613103
 40
2.8328162744505896
 50
176.67018354288109
 51
227.10892999692103
  0
ARC
  8
_0-2_決定
  6
CONTINUOUS
 62
    7
 10
876.02457341314562
 20
639.18995954856757
 40
2.60485361003161
 50
125.24533522097491
 51
182.03824856642348
  0
ARC
  8
_0-2_決定
  6
CONTINUOUS
 62
    7
 10
875.2281125287891
 20
640.01997332890369
 40
1.4773557103333566
 50
90.26157644305539
 51
118.57996981194303
  0
ARC
  8
_0-2_決定
  6
CONTINUOUS
 62
    7
 10
875.14219838503948
 20
639.74290139622485
 40
1.7561976372391048
 50
17.032404089246349
 51
87.416227298843353
  0
ARC
  8
_0-2_決定
  6
CONTINUOUS
 62
    7
 10
873.81677937859024
 20
639.14203976433919
 40
3.2049006017278812
 50
359.2003804557317
 51
20.364433607914712
  0
ARC
  8
_0-2_決定
  6
CONTINUOUS
 62
    7
 10
910.23103694729912
 20
617.23146714359484
 40
2.9910538053406421
 50
308.70477424179762
 51
1.2614388020171878
  0
ARC
  8
_0-2_決定
  6
CONTINUOUS
 62
    7
 10
911.40572751703019
 20
616.00648406555035
 40
1.3092638209318654
 50
270.68437948842796
 51
302.09470117968692
  0
ARC
  8
_0-2_決定
  6
CONTINUOUS
 62
    7
 10
911.47056569905885
 20
616.12531319964546
 40
1.4288468621518544
 50
228.37045024314028
 51
268.0267307841608
  0
ARC
  8
_0-2_決定
  6
CONTINUOUS
 62
    7
 10
912.44939957915619
 20
617.13277361310361
 40
2.8328162744513414
 50
176.67018354288953
 51
227.10892999692948
  0
ARC
  8
_0-2_決定
  6
CONTINUOUS
 62
    7
 10
912.22457141314521
 20
617.38995954856762
 40
2.6048536100311752
 50
125.24533522097019
 51
182.03824856641873
  0
ARC
  8
_0-2_決定
  6
CONTINUOUS
 62
    7
 10
911.42811052878926
 20
618.21997332890237
 40
1.4773557103345001
 50
90.261576443046891
 51
118.57996981193453
  0
ARC
  8
_0-2_決定
  6
CONTINUOUS
 62
    7
 10
911.34219638503964
 20
617.94290139622467
 40
1.7561976372391235
 50
17.03240408924556
 51
87.416227298842557
  0
ARC
  8
_0-2_決定
  6
CONTINUOUS
 62
    7
 10
910.01677737859097
 20
617.34203976434071
 40
3.2049006017263793
 50
359.20038045570823
 51
20.364433607891264
  0
ARC
  8
_0-2_決定
  6
CONTINUOUS
 62
    7
 10
878.49088531690427
 20
573.79302207141473
 40
2.1326312480200369
 50
293.50286621334629
 51
357.42781064382694
  0
ARC
  8
_0-2_決定
  6
CONTINUOUS
 62
    7
 10
877.13946982885091
 20
576.04361636660337
 40
4.7477718576660779
 50
268.57460685358365
 51
297.63097302894539
  0
ARC
  8
_0-2_決定
  6
CONTINUOUS
 62
    7
 10
876.9007761203045
 20
575.76803112146297
 40
4.472343584886894
 50
228.91019488245161
 51
271.54510405240615
  0
ARC
  8
_0-2_決定
  6
CONTINUOUS
 62
    7
 10
875.34776852802622
 20
573.73535699084312
 40
1.9267762626793963
 50
181.13135341497699
 51
223.98313985446535
  0
ARC
  8
_0-2_決定
  6
CONTINUOUS
 62
    7
 10
875.77536829248629
 20
573.57927297034382
 40
2.3569581156333212
 50
117.10819654692023
 51
177.12932412253602
  0
ARC
  8
_0-2_決定
  6
CONTINUOUS
 62
    7
 10
876.94601303373474
 20
571.92864144209625
 40
4.3693220473939807
 50
89.011808131738249
 51
120.9125023769267
  0
ARC
  8
_0-2_決定
  6
CONTINUOUS
 62
    7
 10
877.07752575347854
 20
572.03382267203801
 40
4.2638608055516301
 50
46.707235056413978
 51
90.754645265119819
  0
ARC
  8
_0-2_決定
  6
CONTINUOUS
 62
    7
 10
878.435692422633
 20
573.60973115620345
 40
2.1874295146955651
 50
2.2946790177019243
 51
44.294447490093269
  0
ARC
  8
_0-2_決定
  6
CONTINUOUS
 62
    7
 10
913.5686853011282
 20
582.9544069224977
 40
7.0529116640581719
 50
295.28709124848268
 51
359.53618592997253
  0
ARC
  8
_0-2_決定
  6
CONTINUOUS
 62
    7
 10
914.99843615012765
 20
580.9107792617549
 40
4.613522600473476
 50
270.28476764290167
 51
290.06625404316787
  0
ARC
  8
_0-2_決定
  6
CONTINUOUS
 62
    7
 10
915.15025309619148
 20
581.37414795795439
 40
5.0784701017054665
 50
207.39648595432431
 51
268.54572606504883
  0
ARC
  8
_0-2_決定
  6
CONTINUOUS
 62
    7
 10
917.13573121321815
 20
582.81820811050466
 40
7.5147817066582787
 50
179.39685581663869
 51
210.20714035023664
  0
ARC
  8
_0-2_決定
  6
CONTINUOUS
 62
    7
 10
917.36535770707917
 20
582.95722658061084
 40
7.7442235912884048
 50
132.82265611599544
 51
180.44327138162117
  0
ARC
  8
_0-2_決定
  6
CONTINUOUS
 62
    7
 10
915.09786471663233
 20
584.93469419694009
 40
4.7632337821397357
 50
90.920225485625096
 51
128.98295590390285
  0
ARC
  8
_0-2_決定
  6
CONTINUOUS
 62
    7
 10
914.87198055883482
 20
584.43582154150317
 40
5.2636123632288099
 50
28.871169947265862
 51
88.373683875306924
  0
ARC
  8
_0-2_決定
  6
CONTINUOUS
 62
    7
 10
913.00851159855085
 20
582.96945730092045
 40
7.6131961070822012
 50
359.45704945621321
 51
31.764927611140759
  0
ARC
  8
_0-2_決定
  6
CONTINUOUS
 62
    7
 10
831.68259837773576
 20
597.54169839268502
 40
0.9398181621052436
 50
309.57680968578342
 51
357.29308795998401
  0
ARC
  8
_0-2_決定
  6
CONTINUOUS
 62
    7
 10
830.41382055899248
 20
599.25926363519716
 40
3.0742239258316251
 50
284.07348708657372
 51
307.4079296259012
  0
ARC
  8
_0-2_決定
  6
CONTINUOUS
 62
    7
 10
828.44408894423111
 20
605.73731380361255
 40
9.8425204002373654
 50
268.7033741401923
 51
286.02611834977802
  0
ARC
  8
_0-2_決定
  6
CONTINUOUS
 62
    7
 10
828.088589777729
 20
605.20647790237047
 40
9.3101111285526681
 50
253.99354980634899
 51
270.81716345646066
  0
ARC
  8
_0-2_決定
  6
CONTINUOUS
 62
    7
 10
826.17566506241246
 20
599.04626444096436
 40
2.8646729934320616
 50
228.6038676003343
 51
256.79698797701928
  0
ARC
  8
_0-2_決定
  6
CONTINUOUS
 62
    7
 10
824.87169951204407
 20
597.5094573520214
 40
0.8504183441333079
 50
180.81819367005824
 51
226.03919194745774
  0
ARC
  8
_0-2_決定
  6
CONTINUOUS
 62
    7
 10
824.81525763936645
 20
597.40627861807684
 40
0.7990921920351491
 50
122.8866193713002
 51
173.45848747534521
  0
ARC
  8
_0-2_決定
  6
CONTINUOUS
 62
    7
 10
826.42828344042414
 20
594.90401823844377
 40
3.7761974328944383
 50
102.02792232064799
 51
122.82380152206287
  0
ARC
  8
_0-2_決定
  6
CONTINUOUS
 62
    7
 10
828.12731678623607
 20
588.46215301972074
 40
10.435584451641338
 50
89.483612680240242
 51
103.78141655004146
  0
ARC
  8
_0-2_決定
  6
CONTINUOUS
 62
    7
 10
828.38578064271815
 20
588.05501790059589
 40
10.843542250104477
 50
75.169117549165236
 51
90.868767637171118
  0
ARC
  8
_0-2_決定
  6
CONTINUOUS
 62
    7
 10
830.59444324871208
 20
595.80346438768197
 40
2.7920127660915162
 50
48.585404189301187
 51
78.284493456547921
  0
ARC
  8
_0-2_決定
  6
CONTINUOUS
 62
    7
 10
832.05755197621613
 20
597.48409648815721
 40
0.5639707994416717
 50
1.3429002822645115
 51
47.112590353698835
  0
ARC
  8
_0-2_決定
  6
CONTINUOUS
 62
    7
 10
870.23103894729957
 20
522.03146914359536
 40
2.9910538053409135
 50
308.70477424178648
 51
1.2614388020060463
  0
ARC
  8
_0-2_決定
  6
CONTINUOUS
 62
    7
 10
871.40572951703064
 20
520.80648606555064
 40
1.3092638209316427
 50
270.68437948839494
 51
302.0947011796539
  0
ARC
  8
_0-2_決定
  6
CONTINUOUS
 62
    7
 10
871.47056769905817
 20
520.92531519964496
 40
1.4288468621508428
 50
228.3704502431512
 51
268.02673078417166
  0
ARC
  8
_0-2_決定
  6
CONTINUOUS
 62
    7
 10
872.44940157915664
 20
521.93277561310356
 40
2.8328162744513414
 50
176.67018354288953
 51
227.10892999692948
  0
ARC
  8
_0-2_決定
  6
CONTINUOUS
 62
    7
 10
872.22457156341079
 20
522.1899605485678
 40
2.6048517259004726
 50
125.24531468617377
 51
182.03822803162234
  0
ARC
  8
_0-2_決定
  6
CONTINUOUS
 62
    7
 10
871.42811252878914
 20
523.01997332890369
 40
1.4773557103333743
 50
90.261576443058146
 51
118.57996981194577
  0
ARC
  8
_0-2_決定
  6
CONTINUOUS
 62
    7
 10
871.34219980305488
 20
522.74290239622428
 40
1.75619657433256
 50
17.032448834127546
 51
87.416272043724547
  0
ARC
  8
_0-2_決定
  6
CONTINUOUS
 62
    7
 10
870.01677937859142
 20
522.14204176434077
 40
3.2049006017263793
 50
359.20038045570823
 51
20.364433607891264
  0
ARC
  8
_0-2_決定
  6
CONTINUOUS
 62
    7
 10
684.03820382404149
 20
599.2804796957688
 40
4.5868247042313808
 50
272.28860565918501
 51
357.71139434082335
  0
ARC
  8
_0-2_決定
  6
CONTINUOUS
 62
    7
 10
684.33467447543876
 20
599.21061824221385
 40
4.5147266068696936
 50
181.43808419711223
 51
268.56191580288686
  0
ARC
  8
_0-2_決定
  6
CONTINUOUS
 62
    7
 10
684.35152027971128
 20
598.96716324009969
 40
4.5320196163525548
 50
91.64564472752636
 51
178.35435527247546
  0
ARC
  8
_0-2_決定
  6
CONTINUOUS
 62
    7
 10
684.03820382404149
 20
598.91414759081715
 40
4.5868247042314181
 50
2.2886056591762203
 51
87.711394340814536
  0
ARC
  8
_0-2_決定
  6
CONTINUOUS
 62
    7
 10
704.17907413381954
 20
640.13290087709504
 40
10.843542250105472
 50
345.16911754915617
 51
0.8687676371620587
  0
ARC
  8
_0-2_決定
  6
CONTINUOUS
 62
    7
 10
711.92752062090563
 20
637.92423827109815
 40
2.7920127660919496
 50
318.58540418931517
 51
348.2844934565619
  0
ARC
  8
_0-2_決定
  6
CONTINUOUS
 62
    7
 10
713.60815272138211
 20
636.46112954359467
 40
0.5639707994415114
 50
271.34290028220568
 51
317.11259035364003
  0
ARC
  8
_0-2_決定
  6
CONTINUOUS
 62
    7
 10
713.72969930934403
 20
636.69529014602813
 40
0.8052960728412952
 50
211.26751477121132
 51
262.26906309280827
  0
ARC
  8
_0-2_決定
  6
CONTINUOUS
 62
    7
 10
716.21999332027031
 20
638.27982309641993
 40
3.7568192805931107
 50
191.7105011886014
 51
212.2106268516078
  0
ARC
  8
_0-2_決定
  6
CONTINUOUS
 62
    7
 10
723.55649406622263
 20
640.19365887375966
 40
11.335598118638224
 50
179.4760696764894
 51
193.65652756497192
  0
ARC
  8
_0-2_決定
  6
CONTINUOUS
 62
    7
 10
723.04168672195715
 20
640.57217682200394
 40
10.823807389394114
 50
165.52694359749771
 51
181.4551435215219
  0
ARC
  8
_0-2_決定
  6
CONTINUOUS
 62
    7
 10
715.17646141531145
 20
642.71587368095425
 40
2.6746810253899911
 50
138.23797085434626
 51
167.88297301799406
  0
ARC
  8
_0-2_決定
  6
CONTINUOUS
 62
    7
 10
713.64053138438749
 20
644.07115832598038
 40
0.626448437449282
 50
91.752809538683735
 51
137.1351000221828
  0
ARC
  8
_0-2_決定
  6
CONTINUOUS
 62
    7
 10
713.53026720891592
 20
643.90331490104563
 40
0.7992081698372723
 50
32.890547070047973
 51
83.454559776643038
  0
ARC
  8
_0-2_決定
  6
CONTINUOUS
 62
    7
 10
711.26941917518764
 20
642.36681006567505
 40
3.5325938436841513
 50
12.266033915379939
 51
33.904233430290041
  0
ARC
  8
_0-2_決定
  6
CONTINUOUS
 62
    7
 10
703.58575271142911
 20
640.50671607254003
 40
11.437534232685218
 50
358.95094995602807
 51
13.193962858377585
  0
ARC
  8
_0-2_決定
  6
CONTINUOUS
 62
    7
 10
740.411163454703
 20
593.38909680958864
 40
10.796516084428626
 50
56.936685338582109
 51
72.702257720621276
  0
ARC
  8
_0-2_決定
  6
CONTINUOUS
 62
    7
 10
744.71879991243497
 20
599.81474367921066
 40
3.0630705032246555
 50
31.108562848686347
 51
58.89143715130583
  0
ARC
  8
_0-2_決定
  6
CONTINUOUS
 62
    7
 10
746.74252297247278
 20
601.04509813864547
 40
0.6947469871819091
 50
347.71837687442348
 51
30.462176967307521
  0
ARC
  8
_0-2_決定
  6
CONTINUOUS
 62
    7
 10
746.71752379202019
 20
601.15132694885619
 40
0.7482794064159286
 50
287.40642090512529
 51
340.15582862461798
  0
ARC
  8
_0-2_決定
  6
CONTINUOUS
 62
    7
 10
745.87252425628208
 20
603.78807860518373
 40
3.5171091523765883
 50
266.55810103554836
 51
287.69193166223641
  0
ARC
  8
_0-2_決定
  6
CONTINUOUS
 62
    7
 10
746.08350779531179
 20
612.94367480848234
 40
12.67339360982271
 50
255.08412694514007
 51
268.09118247401915
  0
ARC
  8
_0-2_決定
  6
CONTINUOUS
 62
    7
 10
746.20482050369219
 20
611.74541423454582
 40
11.554577656538083
 50
237.5283312649731
 51
252.97293575358356
  0
ARC
  8
_0-2_決定
  6
CONTINUOUS
 62
    7
 10
741.29197552520566
 20
604.24230717900764
 40
2.5895287053488514
 50
208.73635554191176
 51
240.10619332687958
  0
ARC
  8
_0-2_決定
  6
CONTINUOUS
 62
    7
 10
739.53633209540499
 20
603.24731364329307
 40
0.5724387188872517
 50
154.10470160075965
 51
205.89529839924035
  0
ARC
  8
_0-2_決定
  6
CONTINUOUS
 62
    7
 10
739.74978597204995
 20
603.07845191432511
 40
0.840258981638591
 50
102.95794107618286
 51
150.09976965782283
  0
ARC
  8
_0-2_決定
  6
CONTINUOUS
 62
    7
 10
740.82155753839345
 20
599.22553085546701
 40
4.8387629989259242
 50
86.92208264043559
 51
105.09592927454342
  0
ARC
  8
_0-2_決定
  6
CONTINUOUS
 62
    7
 10
740.73711378685516
 20
592.48784012178976
 40
11.574594153577749
 50
75.570501287454974
 51
88.295635252949566
  0
ARC
  8
_0-2_決定
  6
CONTINUOUS
 62
    7
 10
712.48028381775384
 20
525.45583629831685
 40
5.5412412942200557
 50
321.9081987620803
 51
0.428874845653233
  0
ARC
  8
_0-2_決定
  6
CONTINUOUS
 62
    7
 10
714.83602306301748
 20
523.688093516241
 40
2.5973993586336142
 50
274.09202513363306
 51
320.53919081324784
  0
ARC
  8
_0-2_決定
  6
CONTINUOUS
 62
    7
 10
715.13253311794074
 20
523.45679755317519
 40
2.3620990981125218
 50
206.64966990205627
 51
267.30259498637275
  0
ARC
  8
_0-2_決定
  6
CONTINUOUS
 62
    7
 10
717.91823532400883
 20
525.31424854389206
 40
5.6998060280530893
 50
178.15947039996706
 51
210.78113568761191
  0
ARC
  8
_0-2_決定
  6
CONTINUOUS
 62
    7
 10
718.00597923842247
 20
525.60090390591643
 40
5.7855368300910639
 50
143.06709597604825
 51
181.02593798978768
  0
ARC
  8
_0-2_決定
  6
CONTINUOUS
 62
    7
 10
715.14551433499435
 20
527.59902472634155
 40
2.301639370612504
 50
93.09188616621644
 51
140.03821618795146
  0
ARC
  8
_0-2_決定
  6
CONTINUOUS
 62
    7
 10
714.96499546912844
 20
527.70015100982278
 40
2.1978857367313518
 50
55.769125828178431
 51
88.530237567360771
  0
ARC
  8
_0-2_決定
  6
CONTINUOUS
 62
    7
 10
713.91572329198254
 20
526.24871711201354
 40
3.988471335447902
 50
11.696849112028085
 51
55.035882890101803
  0
ARC
  8
_0-2_決定
  6
CONTINUOUS
 62
    7
 10
711.96437348019913
 20
525.51359615658623
 40
6.0570182817333054
 50
359.84597695239006
 51
14.765542114219244
  0
ARC
  8
_0-2_決定
  6
CONTINUOUS
 62
    7
 10
724.23941003419429
 20
541.47212772003536
 40
26.182928214488616
 50
342.72596831443605
 51
0.492777659059411
  0
ARC
  8
_0-2_決定
  6
CONTINUOUS
 62
    7
 10
739.37848189422141
 20
536.97341847701296
 40
10.392758162915426
 50
327.68232224685386
 51
341.62532586924584
  0
ARC
  8
_0-2_決定
  6
CONTINUOUS
 62
    7
 10
744.63143968855263
 20
533.60521466597322
 40
4.1529890460910277
 50
305.81033211762087
 51
328.20877550840845
  0
ARC
  8
_0-2_決定
  6
CONTINUOUS
 62
    7
 10
745.98389364378761
 20
531.77253506105376
 40
1.8755958609592536
 50
271.14490168926147
 51
305.06262437976972
  0
ARC
  8
_0-2_決定
  6
CONTINUOUS
 62
    7
 10
746.06967688812347
 20
531.80566450232209
 40
1.9089621705330546
 50
235.24252014539368
 51
268.5499537855751
  0
ARC
  8
_0-2_決定
  6
CONTINUOUS
 62
    7
 10
747.28949700808982
 20
533.45743588519008
 40
3.9618982960515465
 50
213.385684705838
 51
234.36770986602465
  0
ARC
  8
_0-2_決定
  6
CONTINUOUS
 62
    7
 10
751.65366691444831
 20
536.40348608973568
 40
9.2272306673727513
 50
200.33255817750819
 51
213.74848964153142
  0
ARC
  8
_0-2_決定
  6
CONTINUOUS
 62
    7
 10
759.92544604064392
 20
539.64670541653823
 40
18.111295046294497
 50
191.23727042958046
 51
200.86073915550753
  0
ARC
  8
_0-2_決定
  6
CONTINUOUS
 62
    7
 10
769.38230758328984
 20
541.56772696975349
 40
27.761240157190947
 50
179.73254809955992
 51
191.32253220374719
  0
ARC
  8
_0-2_決定
  6
CONTINUOUS
 62
    7
 10
767.9539183536798
 20
541.97788205875565
 40
26.334043136933229
 50
162.77211330111578
 51
180.61045279405027
  0
ARC
  8
_0-2_決定
  6
CONTINUOUS
 62
    7
 10
752.3803672132658
 20
546.54559014319375
 40
10.109462238838949
 50
147.63487973693543
 51
161.35684128943984
  0
ARC
  8
_0-2_決定
  6
CONTINUOUS
 62
    7
 10
747.38124703922097
 20
549.76014001704471
 40
4.1663295922081875
 50
125.84665341182691
 51
148.17245421422851
  0
ARC
  8
_0-2_決定
  6
CONTINUOUS
 62
    7
 10
746.05833593057127
 20
551.58641548113212
 40
1.9112556802538929
 50
91.108240502869222
 51
125.76165714298838
  0
ARC
  8
_0-2_決定
  6
CONTINUOUS
 62
    7
 10
745.97399749495708
 20
551.55519649861174
 40
1.9426948155076058
 50
54.527391609418245
 51
88.602710744724163
  0
ARC
  8
_0-2_決定
  6
CONTINUOUS
 62
    7
 10
744.73940386079335
 20
549.86542324355707
 40
4.0353624678981443
 50
33.578778170820172
 51
54.174616401046329
  0
ARC
  8
_0-2_決定
  6
CONTINUOUS
 62
    7
 10
740.47176306016866
 20
546.99293099745023
 40
9.1796308404676434
 50
20.297613806241323
 51
33.783434012787943
  0
ARC
  8
_0-2_決定
  6
CONTINUOUS
 62
    7
 10
732.26185321788819
 20
543.90180219428407
 40
17.952108081686415
 50
10.707809432125895
 51
20.460992901705129
  0
ARC
  8
_0-2_決定
  6
CONTINUOUS
 62
    7
 10
722.11919681109009
 20
541.83519631585432
 40
28.302508932191696
 50
359.72086833449799
 51
11.003596732030404
  0
ARC
  8
_0-2_決定
  6
CONTINUOUS
 62
    7
 10
676.61222822463969
 20
567.21943450836295
 40
2.4122348568284044
 50
297.37409736399923
 51
357.0981256548348
  0
ARC
  8
_0-2_決定
  6
CONTINUOUS
 62
    7
 10
675.63912458205607
 20
568.52475350255133
 40
4.0274789942978666
 50
269.74741693494707
 51
301.13187413568266
  0
ARC
  8
_0-2_決定
  6
CONTINUOUS
 62
    7
 10
675.56521199955625
 20
568.76080461454751
 40
4.2638608055507179
 50
226.70723505641746
 51
270.75464526512326
  0
ARC
  8
_0-2_決定
  6
CONTINUOUS
 62
    7
 10
674.20704533040293
 20
567.18489613038264
 40
2.1874295146955651
 50
182.29467901770192
 51
224.29444749009326
  0
ARC
  8
_0-2_決定
  6
CONTINUOUS
 62
    7
 10
674.58427513939512
 20
567.04151807041103
 40
2.5635125379912487
 50
121.06778479361952
 51
178.75284272882558
  0
ARC
  8
_0-2_決定
  6
CONTINUOUS
 62
    7
 10
675.52470707235045
 20
565.69356245819404
 40
4.2048623906059017
 50
88.682749131631724
 51
122.5657200307419
  0
ARC
  8
_0-2_決定
  6
CONTINUOUS
 62
    7
 10
675.61692754108378
 20
566.42763366455199
 40
3.4696828225677718
 50
11.128437769712805
 51
89.926642533601736
  0
ARC
  8
_0-2_決定
  6
CONTINUOUS
 62
    7
 10
731.00024249775515
 20
731.91843902205517
 40
7.6243347146459781
 50
271.66197352264123
 51
358.33802647736314
  0
ARC
  8
_0-2_決定
  6
CONTINUOUS
 62
    7
 10
731.50048237772296
 20
731.97642414449797
 40
7.6841832743949041
 50
182.08161184767746
 51
267.91838815232256
  0
ARC
  8
_0-2_決定
  6
CONTINUOUS
 62
    7
 10
731.19079880141328
 20
731.52595413715051
 40
7.371420899256492
 50
89.762379787589992
 51
178.66797100642401
  0
ARC
  8
_0-2_決定
  6
CONTINUOUS
 62
    7
 10
731.29347959637812
 20
731.56864663314968
 40
7.3290197600087028
 50
1.0059108879815157
 51
90.563738318000091
  0
ARC
  8
_0-2_決定
  6
CONTINUOUS
 62
    7
 10
1017.3882106910401
 20
623.61936072754759
 40
5.7932964240454972
 50
321.80724937220674
 51
36.894318278531642
  0
ARC
  8
_0-2_決定
  6
CONTINUOUS
 62
    7
 10
1011.7465068594333
 20
627.14724663353547
 40
12.429251687208032
 50
300.85663169055101
 51
325.10793632447292
  0
ARC
  8
_0-2_決定
  6
CONTINUOUS
 62
    7
 10
1006.6062658496963
 20
634.81888919174548
 40
21.656659997037735
 50
276.40280936127448
 51
302.12118224978866
  0
ARC
  8
_0-2_決定
  6
CONTINUOUS
 62
    7
 10
998.92762317310826
 20
635.41853856128625
 40
24.315267500791947
 50
268.0526567729994
 51
294.5268448237623
  0
ARC
  8
_0-2_決定
  6
CONTINUOUS
 62
    7
 10
998.85814907728047
 20
623.01240595645925
 40
11.919141829498548
 50
242.32027681446704
 51
266.35966492183962
  0
ARC
  8
_0-2_決定
  6
CONTINUOUS
 62
    7
 10
996.22494509621504
 20
617.49815550673486
 40
5.8172896590495409
 50
176.06551127052106
 51
240.05759398331793
  0
ARC
  8
_0-2_決定
  6
CONTINUOUS
 62
    7
 10
994.45436389054805
 20
621.14268588078858
 40
5.1766315245608849
 50
159.0060588311101
 51
218.82379508319491
  0
ARC
  8
_0-2_決定
  6
CONTINUOUS
 62
    7
 10
998.1026964448364
 20
619.73163807562992
 40
9.0883224591964904
 50
130.16041712298897
 51
158.94115699139988
  0
ARC
  8
_0-2_決定
  6
CONTINUOUS
 62
    7
 10
1004.235357523321
 20
613.4400934654708
 40
17.862805873090728
 50
111.87021500348527
 51
132.17912144119367
  0
ARC
  8
_0-2_決定
  6
CONTINUOUS
 62
    7
 10
1007.3223176354139
 20
606.69389184344959
 40
25.275841145697928
 50
98.419661488867874
 51
112.66769696453186
  0
ARC
  8
_0-2_決定
  6
CONTINUOUS
 62
    7
 10
1013.2938197516773
 20
609.94748919070037
 40
23.803596948480042
 50
86.947544956814525
 51
113.97538992497159
  0
ARC
  8
_0-2_決定
  6
CONTINUOUS
 62
    7
 10
1013.63823310074
 20
621.98340954791718
 40
11.770160552906706
 50
60.794723005701329
 51
85.501676690023373
  0
ARC
  8
_0-2_決定
  6
CONTINUOUS
 62
    7
 10
1016.4248000667914
 20
627.48930322901515
 40
5.6102767042194372
 50
355.99348409760245
 51
58.197620889890523
  0
ARC
  8
_0-2_決定
  6
CONTINUOUS
 62
    7
 10
1068.8122440983211
 20
681.2359592702245
 40
27.107214349547991
 50
283.67628180198892
 51
301.0687545428504
  0
ARC
  8
_0-2_決定
  6
CONTINUOUS
 62
    7
 10
1079.9610317469421
 20
662.44703521172369
 40
5.2621229080103804
 50
302.66793200020936
 51
322.96046638624244
  0
ARC
  8
_0-2_決定
  6
CONTINUOUS
 62
    7
 10
1083.1284996106792
 20
660.08372802478129
 40
1.3103877181881858
 50
322.0187995767684
 51
9.3806455248495109
  0
ARC
  8
_0-2_決定
  6
CONTINUOUS
 62
    7
 10
1083.3132688026349
 20
659.94159749193398
 40
1.1637900370084702
 50
17.797363002169316
 51
60.78145072287608
  0
ARC
  8
_0-2_決定
  6
CONTINUOUS
 62
    7
 10
1082.0722518599955
 20
657.77625850432196
 40
3.6595061635800255
 50
60.372469261118759
 51
81.686715121885427
  0
ARC
  8
_0-2_決定
  6
CONTINUOUS
 62
    7
 10
1080.8352593008112
 20
649.93058832109693
 40
11.601933852600819
 50
81.244108378906631
 51
92.934215968741597
  0
ARC
  8
_0-2_決定
  6
CONTINUOUS
 62
    7
 10
1081.5339199611249
 20
632.66769393429468
 40
28.878558537212765
 50
92.565320477822013
 51
105.48990542360833
  0
ARC
  8
_0-2_決定
  6
CONTINUOUS
 62
    7
 10
1080.1304067725687
 20
633.55968891120426
 40
27.666578045008997
 50
103.18161311352391
 51
120.42118020052402
  0
ARC
  8
_0-2_決定
  6
CONTINUOUS
 62
    7
 10
1069.0379417515214
 20
652.76889378217925
 40
5.4876437298860994
 50
122.1055685563545
 51
141.86885643529456
  0
ARC
  8
_0-2_決定
  6
CONTINUOUS
 62
    7
 10
1065.7354755415054
 20
655.29784807773012
 40
1.3293244628201919
 50
139.71852899622453
 51
188.67644309587325
  0
ARC
  8
_0-2_決定
  6
CONTINUOUS
 62
    7
 10
1065.527554932072
 20
655.45146996147355
 40
1.1615013340909055
 50
197.75290198521958
 51
240.8259117397667
  0
ARC
  8
_0-2_決定
  6
CONTINUOUS
 62
    7
 10
1066.7707820840894
 20
657.61925751986666
 40
3.6604318165426712
 50
240.37519574616184
 51
261.68398863687361
  0
ARC
  8
_0-2_決定
  6
CONTINUOUS
 62
    7
 10
1068.0328369946919
 20
665.76677600678511
 40
11.905025000343173
 50
261.34523159612485
 51
272.92995795165672
  0
ARC
  8
_0-2_決定
  6
CONTINUOUS
 62
    7
 10
1067.2739274744645
 20
684.43234455065408
 40
30.585614201180256
 50
272.5624615106388
 51
285.06070511224232
  0
ARC
  8
_0-2_決定
  6
CONTINUOUS
 62
    7
 10
950.50702848717663
 20
708.71523828771365
 40
10.267721120710075
 50
154.73652164853448
 51
170.45807008875528
  0
ARC
  8
_0-2_決定
  6
CONTINUOUS
 62
    7
 10
943.56406371646358
 20
709.75165025235856
 40
3.2515643354818868
 50
168.18687086405095
 51
194.86818002038947
  0
ARC
  8
_0-2_決定
  6
CONTINUOUS
 62
    7
 10
940.99545934054163
 20
709.06359113283997
 40
0.5924364898425932
 50
194.29483632110177
 51
252.91080162438587
  0
ARC
  8
_0-2_決定
  6
CONTINUOUS
 62
    7
 10
941.1086128293266
 20
709.25943052719003
 40
0.814454421738885
 50
249.3482877533252
 51
300.44989715424589
  0
ARC
  8
_0-2_決定
  6
CONTINUOUS
 62
    7
 10
939.99606915928155
 20
711.19471771629037
 40
3.0467098433381992
 50
300.04217516046936
 51
323.37933948253487
  0
ARC
  8
_0-2_決定
  6
CONTINUOUS
 62
    7
 10
935.63150121356045
 20
714.74438038729454
 40
8.6706218710444123
 50
321.75724276796416
 51
340.83085214522168
  0
ARC
  8
_0-2_決定
  6
CONTINUOUS
 62
    7
 10
933.54164384601745
 20
716.50008747534253
 40
11.26313590366674
 50
335.87941049441014
 51
351.51039826429297
  0
ARC
  8
_0-2_決定
  6
CONTINUOUS
 62
    7
 10
941.80352378341013
 20
715.34816783391943
 40
2.9228323866351156
 50
349.93407367420127
 51
18.122453658761163
  0
ARC
  8
_0-2_決定
  6
CONTINUOUS
 62
    7
 10
943.84718385970359
 20
716.0238899931727
 40
0.7703952885097432
 50
17.637245636026705
 51
60.941568088970996
  0
ARC
  8
_0-2_決定
  6
CONTINUOUS
 62
    7
 10
944.11274621918949
 20
715.64981591406206
 40
1.0531123077408719
 50
84.079894978646749
 51
128.20878258188458
  0
ARC
  8
_0-2_決定
  6
CONTINUOUS
 62
    7
 10
946.00822713050889
 20
712.95923618264965
 40
4.3431966561354702
 50
125.9021301131237
 51
145.21037434107441
  0
ARC
  8
_0-2_決定
  6
CONTINUOUS
 62
    7
 10
950.22504633188021
 20
709.89111926912869
 40
9.5575065410609792
 50
144.52856524522159
 51
160.39928853845257
  0
ARC
  8
_0-2_決定
  6
CONTINUOUS
 62
    7
 10
1147.3071165916967
 20
642.57720752335354
 40
8.1205589048560913
 50
2.259140420681935
 51
90.605051947644924
  0
ARC
  8
_0-2_決定
  6
CONTINUOUS
 62
    7
 10
1147.4258500963492
 20
642.27208454039328
 40
8.427710249554508
 50
91.390335798953245
 51
175.74547183271596
  0
ARC
  8
_0-2_決定
  6
CONTINUOUS
 62
    7
 10
1147.3403251883144
 20
643.22174898788444
 40
8.3252853164312519
 50
182.23337500874428
 51
269.18126372834377
  0
ARC
  8
_0-2_決定
  6
CONTINUOUS
 62
    7
 10
1146.9635861292443
 20
643.36403583424783
 40
8.4706454314764628
 50
271.74388808092732
 51
356.84147318198865
  0
ARC
  8
_0-2_決定
  6
CONTINUOUS
 62
    7
 10
1015.2194510188599
 20
722.77019916193683
 40
29.698347555933523
 50
147.10981352492757
 51
156.32122011657231
  0
ARC
  8
_0-2_決定
  6
CONTINUOUS
 62
    7
 10
996.73064106266622
 20
735.12511605906286
 40
7.4714530014154201
 50
131.07687223954511
 51
149.67653861656197
  0
ARC
  8
_0-2_決定
  6
CONTINUOUS
 62
    7
 10
992.13522694440542
 20
740.50199430646956
 40
0.4045932678856929
 50
77.707497369340516
 51
140.87259506903152
  0
ARC
  8
_0-2_決定
  6
CONTINUOUS
 62
    7
 10
991.74059828632153
 20
740.25378469697762
 40
0.8032835155886651
 50
4.5359211866065854
 51
53.237242347280144
  0
ARC
  8
_0-2_決定
  6
CONTINUOUS
 62
    7
 10
987.5906841925638
 20
739.7390265140956
 40
4.9843417646153867
 50
348.87516940616007
 51
6.6624813777982537
  0
ARC
  8
_0-2_決定
  6
CONTINUOUS
 62
    7
 10
970.21328674724032
 20
742.87731379378602
 40
22.642379860381567
 50
335.52680391821781
 51
349.56753276238555
  0
ARC
  8
_0-2_決定
  6
CONTINUOUS
 62
    7
 10
965.9748754317377
 20
743.67696206633377
 40
26.850947286043251
 50
327.82163960838949
 51
337.72100203743435
  0
ARC
  8
_0-2_決定
  6
CONTINUOUS
 62
    7
 10
981.96451161669017
 20
733.3947129883702
 40
7.8437694309297594
 50
311.68963771759184
 51
329.19102634439355
  0
ARC
  8
_0-2_決定
  6
CONTINUOUS
 62
    7
 10
986.60337487758511
 20
728.0442831399123
 40
0.7688261788148878
 50
256.30601105303373
 51
318.74512569445761
  0
ARC
  8
_0-2_決定
  6
CONTINUOUS
 62
    7
 10
987.07936171653785
 20
727.88131021329968
 40
0.8797800038949111
 50
176.35043267627296
 51
221.59038294069416
  0
ARC
  8
_0-2_決定
  6
CONTINUOUS
 62
    7
 10
993.88865615416307
 20
728.02908046564653
 40
7.6878380140018896
 50
166.24278344679672
 51
180.68394925561475
  0
ARC
  8
_0-2_決定
  6
CONTINUOUS
 62
    7
 10
1013.2034414588514
 20
723.68819574830877
 40
27.48340523704378
 50
156.38598242199524
 51
167.02846564888262
  0
ARC
  8
_0-2_決定
  6
CONTINUOUS
 62
    7
 10
1109.9022434987398
 20
646.01643402107129
 40
7.7257140266866111
 50
272.36734807815236
 51
357.63265192184406
  0
ARC
  8
_0-2_決定
  6
CONTINUOUS
 62
    7
 10
1110.5404842542953
 20
646.01643402107129
 40
7.7257140266866111
 50
182.36734807815594
 51
267.63265192184758
  0
ARC
  8
_0-2_決定
  6
CONTINUOUS
 62
    7
 10
1110.5404842542957
 20
645.37819326551471
 40
7.7257140266868518
 50
92.367348078154151
 51
177.63265192184582
  0
ARC
  8
_0-2_決定
  6
CONTINUOUS
 62
    7
 10
1109.9022434987392
 20
645.37819326551471
 40
7.7257140266868518
 50
2.3673480781541567
 51
87.632651921845834
  0
ARC
  8
_0-2_決定
  6
CONTINUOUS
 62
    7
 10
1021.1460180820154
 20
671.37620058887842
 40
7.889031981014142
 50
330.04717864842968
 51
18.637022746756035
  0
ARC
  8
_0-2_決定
  6
CONTINUOUS
 62
    7
 10
1018.3820959714365
 20
672.81022148693455
 40
11.000642840239021
 50
287.12527179000085
 51
330.7633584781326
  0
ARC
  8
_0-2_決定
  6
CONTINUOUS
 62
    7
 10
1018.1423152282269
 20
672.79800672451302
 40
11.062024706270218
 50
236.65260869813682
 51
288.33087131278774
  0
ARC
  8
_0-2_決定
  6
CONTINUOUS
 62
    7
 10
1016.6968617837637
 20
669.89218686577487
 40
7.8497430779932644
 50
197.76355642753529
 51
233.80548879279482
  0
ARC
  8
_0-2_決定
  6
CONTINUOUS
 62
    7
 10
1017.2075206589392
 20
670.1074016079699
 40
8.4018591890423178
 50
136.81457650714435
 51
198.09878285759004
  0
ARC
  8
_0-2_決定
  6
CONTINUOUS
 62
    7
 10
1019.418392593509
 20
668.53190671059701
 40
11.098088660115851
 50
107.82382212453057
 51
138.6955474530464
  0
ARC
  8
_0-2_決定
  6
CONTINUOUS
 62
    7
 10
1019.7872776042539
 20
667.60551509794232
 40
12.09311700848221
 50
70.110890675977828
 51
108.14419507821961
  0
ARC
  8
_0-2_決定
  6
CONTINUOUS
 62
    7
 10
1020.8138394270338
 20
671.37583037526929
 40
8.2045924362142948
 50
17.898132234095364
 51
67.894273872195782
  0
ARC
  8
_0-2_決定
  6
CONTINUOUS
 62
    7
 10
1042.7179687844659
 20
586.11065637273953
 40
3.7916568414578107
 50
347.61330464477896
 51
35.589718419251376
  0
ARC
  8
_0-2_決定
  6
CONTINUOUS
 62
    7
 10
1038.8228008718083
 20
583.8338921268487
 40
8.2946615425111183
 50
32.718971113151817
 51
47.173376786726784
  0
ARC
  8
_0-2_決定
  6
CONTINUOUS
 62
    7
 10
1033.6628756478581
 20
578.38453279947998
 40
15.799125988987988
 50
46.883310553294876
 51
68.234363328593645
  0
ARC
  8
_0-2_決定
  6
CONTINUOUS
 62
    7
 10
1029.7407930363647
 20
570.34785049396089
 40
24.726085061936875
 50
66.699295840232935
 51
73.842911071484394
  0
ARC
  8
_0-2_決定
  6
CONTINUOUS
 62
    7
 10
1031.2249180808828
 20
573.40800575697938
 40
21.381513267907252
 50
75.381104292676667
 51
95.322954324550011
  0
ARC
  8
_0-2_決定
  6
CONTINUOUS
 62
    7
 10
1030.2249952098055
 20
585.20647364341994
 40
9.5416754591891095
 50
95.917001662927404
 51
122.9059720544288
  0
ARC
  8
_0-2_決定
  6
CONTINUOUS
 62
    7
 10
1027.3801407761277
 20
590.00249054045707
 40
3.9755446939475982
 50
126.03578559161772
 51
160.99219026788663
  0
ARC
  8
_0-2_決定
  6
CONTINUOUS
 62
    7
 10
1027.2989025075872
 20
590.47866222318191
 40
3.7675543553490125
 50
167.45009591474235
 51
215.75292714928804
  0
ARC
  8
_0-2_決定
  6
CONTINUOUS
 62
    7
 10
1030.9825820700314
 20
592.70456302504931
 40
8.0650190859010991
 50
213.29464420770884
 51
228.14642873177138
  0
ARC
  8
_0-2_決定
  6
CONTINUOUS
 62
    7
 10
1035.8077836493471
 20
597.90143879073401
 40
15.155968595673928
 50
227.66798927609537
 51
249.58600044369012
  0
ARC
  8
_0-2_決定
  6
CONTINUOUS
 62
    7
 10
1039.2602409646447
 20
605.48282641648655
 40
23.472888714362945
 50
248.14267968304705
 51
256.09992712527003
  0
ARC
  8
_0-2_決定
  6
CONTINUOUS
 62
    7
 10
1039.0355392434731
 20
601.1190951863291
 40
19.200919469306676
 50
253.62190404421111
 51
274.49801804219243
  0
ARC
  8
_0-2_決定
  6
CONTINUOUS
 62
    7
 10
1039.7796669352385
 20
592.03592634949541
 40
10.087411551222093
 50
274.33050628421506
 51
301.30727154483333
  0
ARC
  8
_0-2_決定
  6
CONTINUOUS
 62
    7
 10
1042.9689871741407
 20
586.40695586846721
 40
3.6263219331719601
 50
304.46943316763083
 51
342.18186749323303
  0
ARC
  8
_0-2_決定
  6
CONTINUOUS
 62
    7
 10
1083.1790681338202
 20
554.33290087709292
 40
10.843542250105223
 50
345.16911754916708
 51
0.8687676371729736
  0
ARC
  8
_0-2_決定
  6
CONTINUOUS
 62
    7
 10
1090.927514620907
 20
552.12423827109933
 40
2.7920127660917022
 50
318.5854041892872
 51
348.28449345653394
  0
ARC
  8
_0-2_決定
  6
CONTINUOUS
 62
    7
 10
1092.6081467213817
 20
550.66112954359483
 40
0.5639707994417551
 50
271.3429002822607
 51
317.11259035369505
  0
ARC
  8
_0-2_決定
  6
CONTINUOUS
 62
    7
 10
1092.6657486259091
 20
551.03608314207531
 40
0.9398181621050474
 50
219.57680968580735
 51
267.29308796000794
  0
ARC
  8
_0-2_決定
  6
CONTINUOUS
 62
    7
 10
1094.3833138684226
 20
552.30486096081802
 40
3.0742239258320292
 50
194.0734870865592
 51
217.40792962588668
  0
ARC
  8
_0-2_決定
  6
CONTINUOUS
 62
    7
 10
1100.8613640368378
 20
554.27459257557973
 40
9.8425204002380688
 50
178.70337414019178
 51
196.02611834977751
  0
ARC
  8
_0-2_決定
  6
CONTINUOUS
 62
    7
 10
1101.1558675136018
 20
554.67429919946642
 40
10.136048927326499
 50
164.65085904405231
 51
181.00049248300542
  0
ARC
  8
_0-2_決定
  6
CONTINUOUS
 62
    7
 10
1094.1911735423639
 20
556.72264841619494
 40
2.8805954781556915
 50
138.87272661223423
 51
167.27191768561951
  0
ARC
  8
_0-2_決定
  6
CONTINUOUS
 62
    7
 10
1092.6543594244458
 20
558.04375175487735
 40
0.8541993933146236
 50
92.213740844068283
 51
137.8200461122031
  0
ARC
  8
_0-2_決定
  6
CONTINUOUS
 62
    7
 10
1092.5130344436911
 20
558.09933714055819
 40
0.8052960728412952
 50
31.267514771211317
 51
82.269063092808281
  0
ARC
  8
_0-2_決定
  6
CONTINUOUS
 62
    7
 10
1090.0227404327647
 20
556.5148041901665
 40
3.7568192805930178
 50
11.71050118860196
 51
32.21062685160836
  0
ARC
  8
_0-2_決定
  6
CONTINUOUS
 62
    7
 10
1082.6862396868132
 20
554.60096841282211
 40
11.335598118638748
 50
359.47606967651257
 51
13.656527564995047
  0
ARC
  8
_0-2_決定
  6
CONTINUOUS
 62
    7
 10
1112.5790681338196
 20
515.93290287709101
 40
10.843542250104965
 50
345.169117549178
 51
0.8687676371838871
  0
ARC
  8
_0-2_決定
  6
CONTINUOUS
 62
    7
 10
1120.3275146209062
 20
513.72424027109923
 40
2.7920127660924465
 50
318.58540418929482
 51
348.28449345654155
  0
ARC
  8
_0-2_決定
  6
CONTINUOUS
 62
    7
 10
1122.0081467213827
 20
512.26113154359393
 40
0.5639707994408637
 50
271.34290028224041
 51
317.1125903536747
  0
ARC
  8
_0-2_決定
  6
CONTINUOUS
 62
    7
 10
1122.1537858322831
 20
512.57008715239647
 40
0.8827602627391179
 50
213.93255925296481
 51
261.37255374818727
  0
ARC
  8
_0-2_決定
  6
CONTINUOUS
 62
    7
 10
1124.5299017022994
 20
514.34660813963944
 40
3.8487265229278749
 50
195.51181976613213
 51
216.13016418225502
  0
ARC
  8
_0-2_決定
  6
CONTINUOUS
 62
    7
 10
1129.7940962174407
 20
516.02713324630429
 40
9.3729950978028427
 50
179.57098102819992
 51
196.8046229956162
  0
ARC
  8
_0-2_決定
  6
CONTINUOUS
 62
    7
 10
1130.0036468176938
 20
516.23197919846507
 40
9.5832291341619413
 50
164.22477519095
 51
180.80514690827829
  0
ARC
  8
_0-2_決定
  6
CONTINUOUS
 62
    7
 10
1124.092910332783
 20
518.06307536049621
 40
3.4008510622354744
 50
140.69550911121854
 51
166.84061102248091
  0
ARC
  8
_0-2_決定
  6
CONTINUOUS
 62
    7
 10
1122.0590187288753
 20
519.72200593857917
 40
0.7762235671054535
 50
92.780527779346954
 51
140.34957457480905
  0
ARC
  8
_0-2_決定
  6
CONTINUOUS
 62
    7
 10
1121.9302612089159
 20
519.7033169010457
 40
0.7992081698375137
 50
32.890547070020098
 51
83.45455977661517
  0
ARC
  8
_0-2_決定
  6
CONTINUOUS
 62
    7
 10
1119.6694131751879
 20
518.16681206567807
 40
3.5325938436830522
 50
12.266033915334145
 51
33.904233430244247
  0
ARC
  8
_0-2_決定
  6
CONTINUOUS
 62
    7
 10
1111.9857467114286
 20
516.30671807253987
 40
11.437534232685076
 50
358.95094995602813
 51
13.193962858377661
  0
ARC
  8
_0-2_決定
  6
CONTINUOUS
 62
    7
 10
1140.2671535936356
 20
616.21812027156454
 40
3.755045464202408
 50
1.2084493885622198
 51
49.590169752996694
  0
ARC
  8
_0-2_決定
  6
CONTINUOUS
 62
    7
 10
1138.4322408361538
 20
614.27591165512456
 40
6.424863623903585
 50
48.358394616631124
 51
91.88090065408835
  0
ARC
  8
_0-2_決定
  6
CONTINUOUS
 62
    7
 10
1138.1325285907667
 20
613.22494192913621
 40
7.4728997546148888
 50
89.318871254675997
 51
122.6453766646877
  0
ARC
  8
_0-2_決定
  6
CONTINUOUS
 62
    7
 10
1136.4937410975058
 20
615.96170209812021
 40
4.2855387324896386
 50
123.93446052165534
 51
175.50842130830105
  0
ARC
  8
_0-2_決定
  6
CONTINUOUS
 62
    7
 10
1135.9144324484419
 20
616.37674564352392
 40
3.6939227008144595
 50
181.23215062975035
 51
228.80163632643746
  0
ARC
  8
_0-2_決定
  6
CONTINUOUS
 62
    7
 10
1137.900327100607
 20
618.46030522104797
 40
6.5708388399934474
 50
227.7388164417969
 51
272.80046104874441
  0
ARC
  8
_0-2_決定
  6
CONTINUOUS
 62
    7
 10
1138.2785259679576
 20
618.55018942719096
 40
6.6531213502137962
 50
269.50772175780384
 51
319.81615007403082
  0
ARC
  8
_0-2_決定
  6
CONTINUOUS
 62
    7
 10
1140.3952318056868
 20
616.34370931326873
 40
3.6264288705701757
 50
324.87720907430713
 51
359.26695140166163
  0
ARC
  8
_0-2_決定
  6
CONTINUOUS
 62
    7
 10
980.82091794358973
 20
524.89776157622077
 40
1.2004480164982321
 50
270.0213792405342
 51
359.97862075950314
  0
ARC
  8
_0-2_決定
  6
CONTINUOUS
 62
    7
 10
980.83341982362867
 20
524.90936759040414
 40
1.2121138842322463
 50
180.56979108054702
 51
269.43020891947003
  0
ARC
  8
_0-2_決定
  6
CONTINUOUS
 62
    7
 10
980.9346187932988
 20
524.78406072651171
 40
1.318127249772961
 50
94.928905385732349
 51
175.07109461423033
  0
ARC
  8
_0-2_決定
  6
CONTINUOUS
 62
    7
 10
980.7081129597367
 20
524.78406072651239
 40
1.3181272497723364
 50
4.9289053857425138
 51
85.071094614240494
  0
ARC
  8
_0-2_決定
  6
CONTINUOUS
 62
    7
 10
1090.9685251764938
 20
579.58051220552545
 40
1.4552189831926672
 50
317.49642900478915
 51
356.72246768270719
  0
ARC
  8
_0-2_決定
  6
CONTINUOUS
 62
    7
 10
1089.3821875584547
 20
580.93966351786321
 40
3.5437016840369822
 50
296.82537731995683
 51
318.62461276424875
  0
ARC
  8
_0-2_決定
  6
CONTINUOUS
 62
    7
 10
1087.1409861629008
 20
585.65909919857427
 40
8.7676133880711777
 50
267.91082637102039
 51
295.97752800587455
  0
ARC
  8
_0-2_決定
  6
CONTINUOUS
 62
    7
 10
1086.657094105102
 20
585.47384190199114
 40
8.5781012776747687
 50
240.102681934538
 51
271.09727545188508
  0
ARC
  8
_0-2_決定
  6
CONTINUOUS
 62
    7
 10
1083.4559700277953
 20
579.78952042769481
 40
2.0554821808195762
 50
188.17283963634048
 51
238.47973973788913
  0
ARC
  8
_0-2_決定
  6
CONTINUOUS
 62
    7
 10
1082.7174951804186
 20
579.39471620977793
 40
1.3001855984113007
 50
134.79851274310167
 51
175.47409411339001
  0
ARC
  8
_0-2_決定
  6
CONTINUOUS
 62
    7
 10
1084.4039013753218
 20
577.81270947831217
 40
3.6119583962056323
 50
114.58165823952476
 51
136.09855560356621
  0
ARC
  8
_0-2_決定
  6
CONTINUOUS
 62
    7
 10
1086.580056903977
 20
573.07571780874412
 40
8.8248955870951473
 50
88.433115219986007
 51
114.63612608730917
  0
ARC
  8
_0-2_決定
  6
CONTINUOUS
 62
    7
 10
1086.9523728409604
 20
572.32657410266961
 40
9.5716361560194567
 50
61.487731954241418
 51
90.784243676666406
  0
ARC
  8
_0-2_決定
  6
CONTINUOUS
 62
    7
 10
1090.6473432779558
 20
579.15633095078874
 40
1.8064933658085858
 50
10.880072946701924
 51
61.064701151842335
  0
ARC
  8
_0-2_決定
  6
CONTINUOUS
 62
    7
 10
1122.0310349472993
 20
602.83146714359475
 40
2.9910538053406421
 50
308.70477424179762
 51
1.2614388020171878
  0
ARC
  8
_0-2_決定
  6
CONTINUOUS
 62
    7
 10
1123.2057255170309
 20
601.60648406555151
 40
1.3092638209326501
 50
270.68437948838198
 51
302.09470117964094
  0
ARC
  8
_0-2_決定
  6
CONTINUOUS
 62
    7
 10
1123.2705636990579
 20
601.72531319964492
 40
1.4288468621508428
 50
228.3704502431512
 51
268.02673078417166
  0
ARC
  8
_0-2_決定
  6
CONTINUOUS
 62
    7
 10
1124.2493975791563
 20
602.73277361310352
 40
2.8328162744513414
 50
176.67018354288953
 51
227.10892999692948
  0
ARC
  8
_0-2_決定
  6
CONTINUOUS
 62
    7
 10
1124.0245694131454
 20
602.98995954856764
 40
2.6048536100311752
 50
125.24533522097019
 51
182.03824856641873
  0
ARC
  8
_0-2_決定
  6
CONTINUOUS
 62
    7
 10
1123.22810852879
 20
603.81997332890364
 40
1.4773557103335917
 50
90.26157644309086
 51
118.5799698119785
  0
ARC
  8
_0-2_決定
  6
CONTINUOUS
 62
    7
 10
1123.1421943850391
 20
603.54290139622435
 40
1.7561976372397401
 50
17.03240408924588
 51
87.416227298842884
  0
ARC
  8
_0-2_決定
  6
CONTINUOUS
 62
    7
 10
1121.816775378591
 20
602.94203976434073
 40
3.2049006017263793
 50
359.20038045570823
 51
20.364433607891264
  0
ARC
  8
_0-2_決定
  6
CONTINUOUS
 62
    7
 10
1158.2310349472993
 20
581.03146714359457
 40
2.9910538053406421
 50
308.70477424179762
 51
1.2614388020171878
  0
ARC
  8
_0-2_決定
  6
CONTINUOUS
 62
    7
 10
1159.405725517031
 20
579.80648406555133
 40
1.3092638209326501
 50
270.68437948838198
 51
302.09470117964094
  0
ARC
  8
_0-2_決定
  6
CONTINUOUS
 62
    7
 10
1159.4705636990591
 20
579.92531319964496
 40
1.428846862151115
 50
228.37045024312391
 51
268.02673078414443
  0
ARC
  8
_0-2_決定
  6
CONTINUOUS
 62
    7
 10
1160.4493975791559
 20
580.93277361310356
 40
2.8328162744507996
 50
176.67018354289394
 51
227.10892999693388
  0
ARC
  8
_0-2_決定
  6
CONTINUOUS
 62
    7
 10
1160.2245694131454
 20
581.18995954856757
 40
2.6048536100315771
 50
125.24533522097457
 51
182.03824856642311
  0
ARC
  8
_0-2_決定
  6
CONTINUOUS
 62
    7
 10
1159.4281085287889
 20
582.01997332890369
 40
1.4773557103333743
 50
90.261576443058146
 51
118.57996981194577
  0
ARC
  8
_0-2_決定
  6
CONTINUOUS
 62
    7
 10
1159.3421943850399
 20
581.7429013962244
 40
1.7561976372395136
 50
17.032404089255422
 51
87.416227298852419
  0
ARC
  8
_0-2_決定
  6
CONTINUOUS
 62
    7
 10
1158.01677537859
 20
581.14203976434067
 40
3.2049006017275228
 50
359.2003804557047
 51
20.364433607887737
  0
ARC
  8
_0-2_決定
  6
CONTINUOUS
 62
    7
 10
1126.4908813169041
 20
537.59302207141457
 40
2.1326312480204237
 50
293.5028662133534
 51
357.42781064383411
  0
ARC
  8
_0-2_決定
  6
CONTINUOUS
 62
    7
 10
1125.1394658288507
 20
539.8436163666031
 40
4.747771857666045
 50
268.574606853582
 51
297.63097302894369
  0
ARC
  8
_0-2_決定
  6
CONTINUOUS
 62
    7
 10
1124.9007721203043
 20
539.56803112146349
 40
4.4723435848876285
 50
228.91019488245502
 51
271.54510405240956
  0
ARC
  8
_0-2_決定
  6
CONTINUOUS
 62
    7
 10
1123.3477645280259
 20
537.53535699084239
 40
1.9267762626796365
 50
181.13135341494893
 51
223.9831398544373
  0
ARC
  8
_0-2_決定
  6
CONTINUOUS
 62
    7
 10
1123.7753642924861
 20
537.37927297034344
 40
2.3569581156336294
 50
117.10819654690863
 51
177.12932412252442
  0
ARC
  8
_0-2_決定
  6
CONTINUOUS
 62
    7
 10
1124.9460090337338
 20
535.72864144209711
 40
4.3693220473927816
 50
89.011808131731911
 51
120.91250237692037
  0
ARC
  8
_0-2_決定
  6
CONTINUOUS
 62
    7
 10
1125.0775217534788
 20
535.83382267203797
 40
4.263860805551424
 50
46.707235056421105
 51
90.754645265126939
  0
ARC
  8
_0-2_決定
  6
CONTINUOUS
 62
    7
 10
1126.4356884226327
 20
537.40973115620352
 40
2.1874295146955651
 50
2.2946790177019243
 51
44.294447490093269
  0
ARC
  8
_0-2_決定
  6
CONTINUOUS
 62
    7
 10
1161.5686833011284
 20
546.75440692249765
 40
7.0529116640577794
 50
295.28709124848064
 51
359.53618592997049
  0
ARC
  8
_0-2_決定
  6
CONTINUOUS
 62
    7
 10
1162.9984341501267
 20
544.71077926175485
 40
4.6135226004736936
 50
270.2847676429169
 51
290.06625404318299
  0
ARC
  8
_0-2_決定
  6
CONTINUOUS
 62
    7
 10
1163.1502510961923
 20
545.17414795795435
 40
5.0784701017056877
 50
207.39648595432033
 51
268.54572606504485
  0
ARC
  8
_0-2_決定
  6
CONTINUOUS
 62
    7
 10
1165.1357292132172
 20
546.61820811050461
 40
7.5147817066573728
 50
179.39685581664051
 51
210.20714035023846
  0
ARC
  8
_0-2_決定
  6
CONTINUOUS
 62
    7
 10
1165.36535570708
 20
546.75722658061068
 40
7.7442235912889714
 50
132.82265611599726
 51
180.44327138162299
  0
ARC
  8
_0-2_決定
  6
CONTINUOUS
 62
    7
 10
1163.0978627166326
 20
548.73469419694038
 40
4.7632337821397357
 50
90.920225485625096
 51
128.98295590390285
  0
ARC
  8
_0-2_決定
  6
CONTINUOUS
 62
    7
 10
1162.8719785588351
 20
548.23582154150347
 40
5.2636123632287735
 50
28.871169947266537
 51
88.373683875307606
  0
ARC
  8
_0-2_決定
  6
CONTINUOUS
 62
    7
 10
1161.0085095985501
 20
546.76945730092041
 40
7.6131961070831853
 50
359.45704945621111
 51
31.764927611138692
  0
ARC
  8
_0-2_決定
  6
CONTINUOUS
 62
    7
 10
1079.8233873737827
 20
561.2056430761196
 40
0.8052960728412952
 50
301.26751477121132
 51
352.26906309280827
  0
ARC
  8
_0-2_決定
  6
CONTINUOUS
 62
    7
 10
1078.2388544233913
 20
563.69593708704724
 40
3.756819280594164
 50
281.71050118858835
 51
302.21062685159472
  0
ARC
  8
_0-2_決定
  6
CONTINUOUS
 62
    7
 10
1076.3250186460471
 20
571.03243783299581
 40
11.335598118636359
 50
269.47606967650955
 51
283.65652756499207
  0
ARC
  8
_0-2_決定
  6
CONTINUOUS
 62
    7
 10
1076.1019058508241
 20
569.68872111154099
 40
9.9921215673381596
 50
254.55792826650801
 51
270.68500004813905
  0
ARC
  8
_0-2_決定
  6
CONTINUOUS
 62
    7
 10
1074.0382055142622
 20
562.73494431642359
 40
2.7433421154196429
 50
227.96661865517822
 51
257.43423692217021
  0
ARC
  8
_0-2_決定
  6
CONTINUOUS
 62
    7
 10
1072.5886244211938
 20
561.11208088839658
 40
0.5674527267300401
 50
181.49121911004212
 51
226.96427152579344
  0
ARC
  8
_0-2_決定
  6
CONTINUOUS
 62
    7
 10
1072.979816461605
 20
561.04696659953493
 40
0.9597740268806473
 50
128.57473234022174
 51
176.99304454525426
  0
ARC
  8
_0-2_決定
  6
CONTINUOUS
 62
    7
 10
1074.2823867377383
 20
559.31523003710265
 40
3.1264399797539015
 50
104.84525106432891
 51
127.448431406823
  0
ARC
  8
_0-2_決定
  6
CONTINUOUS
 62
    7
 10
1076.0380048952902
 20
553.48565700040342
 40
9.2134813519367711
 50
88.859672152487761
 51
106.11040574824482
  0
ARC
  8
_0-2_決定
  6
CONTINUOUS
 62
    7
 10
1076.3983317179566
 20
552.5626692724918
 40
10.136189330291444
 50
74.650973053422618
 51
91.000378473626341
  0
ARC
  8
_0-2_決定
  6
CONTINUOUS
 62
    7
 10
1078.4466986494203
 20
559.52750397744717
 40
2.8805954781552985
 50
48.872726612249636
 51
77.271917685634932
  0
ARC
  8
_0-2_決定
  6
CONTINUOUS
 62
    7
 10
1079.7678019881016
 20
561.06431809536502
 40
0.8541993933151221
 50
2.2137408440526696
 51
47.820046112187498
  0
ARC
  8
_0-2_決定
  6
CONTINUOUS
 62
    7
 10
932.02462055562194
 20
563.09845647877535
 40
4.6011439866022528
 50
269.95947108100995
 51
357.49446887887365
  0
ARC
  8
_0-2_決定
  6
CONTINUOUS
 62
    7
 10
932.20453192899356
 20
563.08047969576933
 40
4.5868247042317138
 50
182.28860565917989
 51
267.71139434081823
  0
ARC
  8
_0-2_決定
  6
CONTINUOUS
 62
    7
 10
932.20453192899356
 20
562.71414759081711
 40
4.5868247042316765
 50
92.288605659181314
 51
177.71139434081962
  0
ARC
  8
_0-2_決定
  6
CONTINUOUS
 62
    7
 10
931.90184907067476
 20
562.56781880082099
 40
4.7310047275235689
 50
3.9936462355499032
 51
88.552413804567422
  0
ARC
  8
_0-2_決定
  6
CONTINUOUS
 62
    7
 10
952.17907013381989
 20
603.93290087709079
 40
10.843542250104965
 50
345.169117549178
 51
0.8687676371838871
  0
ARC
  8
_0-2_決定
  6
CONTINUOUS
 62
    7
 10
959.92751662090711
 20
601.72423827110038
 40
2.7920127660920739
 50
318.58540418926555
 51
348.28449345651228
  0
ARC
  8
_0-2_決定
  6
CONTINUOUS
 62
    7
 10
961.60814872138189
 20
600.26112954359405
 40
0.5639707994410885
 50
271.34290028229117
 51
317.11259035372547
  0
ARC
  8
_0-2_決定
  6
CONTINUOUS
 62
    7
 10
961.75378783228325
 20
600.57008515239568
 40
0.8827602627385211
 50
213.93255925294028
 51
261.37255374816277
  0
ARC
  8
_0-2_決定
  6
CONTINUOUS
 62
    7
 10
964.12990370230091
 20
602.34660613963956
 40
3.8487265229289469
 50
195.5118197661244
 51
216.13016418224728
  0
ARC
  8
_0-2_決定
  6
CONTINUOUS
 62
    7
 10
969.39409821743936
 20
604.02713124630418
 40
9.3729950978012013
 50
179.57098102820134
 51
196.80462299561765
  0
ARC
  8
_0-2_決定
  6
CONTINUOUS
 62
    7
 10
969.56376857774501
 20
604.16022154839027
 40
9.5426100578885382
 50
164.20731390939088
 51
180.37771464468051
  0
ARC
  8
_0-2_決定
  6
CONTINUOUS
 62
    7
 10
964.08290254200324
 20
605.88992132903604
 40
3.8018078742575092
 50
142.63288690480834
 51
166.811668624085
  0
ARC
  8
_0-2_決定
  6
CONTINUOUS
 62
    7
 10
961.66527364169724
 20
607.74268581495767
 40
0.7559041282738504
 50
93.329981121827885
 51
143.02719909808079
  0
ARC
  8
_0-2_決定
  6
CONTINUOUS
 62
    7
 10
961.51303644369136
 20
607.6993371405581
 40
0.8052960728412952
 50
31.267514771211317
 51
82.269063092808281
  0
ARC
  8
_0-2_決定
  6
CONTINUOUS
 62
    7
 10
959.02274243276509
 20
606.11480419016641
 40
3.7568192805932026
 50
11.710501188600821
 51
32.210626851607223
  0
ARC
  8
_0-2_決定
  6
CONTINUOUS
 62
    7
 10
951.68624168681276
 20
604.2009684128243
 40
11.335598118638483
 50
359.47606967650097
 51
13.656527564983483
  0
ARC
  8
_0-2_決定
  6
CONTINUOUS
 62
    7
 10
989.07234824900115
 20
557.68112371140273
 40
9.9482963200531973
 50
59.098945672341117
 51
75.153723946404753
  0
ARC
  8
_0-2_決定
  6
CONTINUOUS
 62
    7
 10
992.63110185695666
 20
563.35381794138425
 40
3.2562134704588508
 50
34.910011249756352
 51
61.569389342458884
  0
ARC
  8
_0-2_決定
  6
CONTINUOUS
 62
    7
 10
994.76177186047721
 20
564.81894579343771
 40
0.6707150258831244
 50
349.55177208727685
 51
36.437461496536741
  0
ARC
  8
_0-2_決定
  6
CONTINUOUS
 62
    7
 10
994.70360750845657
 20
564.97574665205616
 40
0.7698714277665086
 50
286.43039372209273
 51
338.79771821706294
  0
ARC
  8
_0-2_決定
  6
CONTINUOUS
 62
    7
 10
993.83032719598702
 20
567.74075292259931
 40
3.6693939807819618
 50
266.73540580659085
 51
287.29759768288477
  0
ARC
  8
_0-2_決定
  6
CONTINUOUS
 62
    7
 10
993.87638625172769
 20
575.32078281135659
 40
11.246360936986136
 50
254.23780851818432
 51
268.70066026191432
  0
ARC
  8
_0-2_決定
  6
CONTINUOUS
 62
    7
 10
994.77335084417177
 20
576.89836938219275
 40
13.015543347238941
 50
238.02699988061653
 51
252.3238905810195
  0
ARC
  8
_0-2_決定
  6
CONTINUOUS
 62
    7
 10
988.60092397550488
 20
567.54548427629845
 40
1.8351250485891255
 50
194.13562673687653
 51
246.91458025063696
  0
ARC
  8
_0-2_決定
  6
CONTINUOUS
 62
    7
 10
987.86636309997732
 20
566.42174045786692
 40
1.2443545820644624
 50
106.09614041137469
 51
147.11800921384526
  0
ARC
  8
_0-2_決定
  6
CONTINUOUS
 62
    7
 10
988.72237831638017
 20
563.81055022214559
 40
3.9917262713381607
 50
87.142621035945524
 51
107.5101922844125
  0
ARC
  8
_0-2_決定
  6
CONTINUOUS
 62
    7
 10
988.61870964856337
 20
558.62297001233969
 40
9.1793344993598627
 50
70.906514975949065
 51
88.110530999384608
  0
ARC
  8
_0-2_決定
  6
CONTINUOUS
 62
    7
 10
924.6673654605496
 20
531.01535431624188
 40
2.3569581156330126
 50
297.10819654693182
 51
357.12932412254759
  0
ARC
  8
_0-2_決定
  6
CONTINUOUS
 62
    7
 10
923.49672071930172
 20
532.66598584449014
 40
4.3693220473937808
 50
269.01180813172846
 51
300.91250237691685
  0
ARC
  8
_0-2_決定
  6
CONTINUOUS
 62
    7
 10
923.40749788700975
 20
532.22383251582573
 40
3.9265433624863983
 50
224.38489740096875
 51
270.20236091843168
  0
ARC
  8
_0-2_決定
  6
CONTINUOUS
 62
    7
 10
922.23489863508917
 20
530.97298195313203
 40
2.2148257191892484
 50
181.9578599814316
 51
222.47732855759716
  0
ARC
  8
_0-2_決定
  6
CONTINUOUS
 62
    7
 10
922.63571186447223
 20
530.84039807227327
 40
2.6149654542572121
 50
121.19291123551395
 51
178.75284029804274
  0
ARC
  8
_0-2_決定
  6
CONTINUOUS
 62
    7
 10
923.38851138315647
 20
529.8074888300572
 40
3.889963559649154
 50
89.516076138052114
 51
122.79860359111926
  0
ARC
  8
_0-2_決定
  6
CONTINUOUS
 62
    7
 10
923.48439304893759
 20
529.5513652699434
 40
4.1464274187477264
 50
46.0648480041936
 51
90.870949780496332
  0
ARC
  8
_0-2_決定
  6
CONTINUOUS
 62
    7
 10
924.56218396936038
 20
530.86044775382777
 40
2.4594582221080561
 50
0.8588635340848223
 51
42.984693653820948
  0
ARC
  8
_0-2_決定
  6
CONTINUOUS
 62
    7
 10
979.1137308363443
 20
695.61071432347171
 40
7.5141736163324584
 50
270.82074819678439
 51
357.60960259722992
  0
ARC
  8
_0-2_決定
  6
CONTINUOUS
 62
    7
 10
979.48472982115845
 20
695.7707690308406
 40
7.6779755695003029
 50
183.53535005356801
 51
268.0342991524177
  0
ARC
  8
_0-2_決定
  6
CONTINUOUS
 62
    7
 10
979.18283437903369
 20
695.33584314077711
 40
7.361569342866618
 50
89.700104398686221
 51
180.29989560131375
  0
ARC
  8
_0-2_決定
  6
CONTINUOUS
 62
    7
 10
979.27483026906089
 20
695.35077603583636
 40
7.3467301483654772
 50
359.58303748417381
 51
90.416962515826199
  0
ARC
  8
_0-2_決定
  6
CONTINUOUS
 62
    7
 10
1298.7971979108909
 20
558.06116462781813
 40
3.5572331360019742
 50
344.27888246221971
 51
32.975823825925708
  0
ARC
  8
_0-2_決定
  6
CONTINUOUS
 62
    7
 10
1295.2046718397169
 20
556.17985976883074
 40
7.6043281046915245
 50
30.133114493912561
 51
45.004069563744942
  0
ARC
  8
_0-2_決定
  6
CONTINUOUS
 62
    7
 10
1290.3153862104778
 20
551.29335014423521
 40
14.516859270713907
 50
44.994384363517632
 51
67.625480584516453
  0
ARC
  8
_0-2_決定
  6
CONTINUOUS
 62
    7
 10
1287.0368860545364
 20
544.74535829483602
 40
21.826538776009137
 50
66.210102157849192
 51
75.718034918615075
  0
ARC
  8
_0-2_決定
  6
CONTINUOUS
 62
    7
 10
1287.0249140808828
 20
545.20800575697967
 40
21.381513267907234
 50
75.381104292677222
 51
95.322954324550565
  0
ARC
  8
_0-2_決定
  6
CONTINUOUS
 62
    7
 10
1286.0249912098061
 20
557.00647364342001
 40
9.5416754591893636
 50
95.917001662931725
 51
122.90597205443312
  0
ARC
  8
_0-2_決定
  6
CONTINUOUS
 62
    7
 10
1283.1801367761277
 20
561.80249054045692
 40
3.9755446939475982
 50
126.03578559161772
 51
160.99219026788663
  0
ARC
  8
_0-2_決定
  6
CONTINUOUS
 62
    7
 10
1283.0120112057978
 20
562.31915125695082
 40
3.6740031716611279
 50
167.77200640160248
 51
216.04459372103619
  0
ARC
  8
_0-2_決定
  6
CONTINUOUS
 62
    7
 10
1286.8845065525197
 20
564.52732230944548
 40
8.1194584055183263
 50
212.5621614203738
 51
227.33018647950732
  0
ARC
  8
_0-2_決定
  6
CONTINUOUS
 62
    7
 10
1291.8573859835947
 20
570.06003277250431
 40
15.558265599274812
 50
227.6745186978705
 51
249.39221677597038
  0
ARC
  8
_0-2_決定
  6
CONTINUOUS
 62
    7
 10
1295.221633126049
 20
577.25093824186524
 40
23.481281458661641
 50
247.88408339776535
 51
255.69894766106958
  0
ARC
  8
_0-2_決定
  6
CONTINUOUS
 62
    7
 10
1294.9559889238708
 20
573.6198651962145
 40
19.907387434001095
 50
253.85800672580021
 51
274.6254729454692
  0
ARC
  8
_0-2_決定
  6
CONTINUOUS
 62
    7
 10
1295.7325970809495
 20
563.39223629672642
 40
9.6505745278648831
 50
274.92647202265744
 51
302.10324638291615
  0
ARC
  8
_0-2_決定
  6
CONTINUOUS
 62
    7
 10
1298.7616588847493
 20
558.16816261606277
 40
3.6216380705056506
 50
305.43409327467111
 51
342.80163223290123
  0
ARC
  8
_0-2_決定
  6
CONTINUOUS
 62
    7
 10
1338.9790641338197
 20
526.13290087709106
 40
10.843542250104965
 50
345.169117549178
 51
0.8687676371838871
  0
ARC
  8
_0-2_決定
  6
CONTINUOUS
 62
    7
 10
1346.7275143925463
 20
523.92423927109928
 40
2.7920092760766213
 50
318.58536837938362
 51
348.28445764663036
  0
ARC
  8
_0-2_決定
  6
CONTINUOUS
 62
    7
 10
1348.4081427213819
 20
522.46113154359477
 40
0.5639707994417551
 50
271.3429002822607
 51
317.11259035369505
  0
ARC
  8
_0-2_決定
  6
CONTINUOUS
 62
    7
 10
1348.5537818322832
 20
522.77008715239572
 40
0.8827602627385211
 50
213.93255925294028
 51
261.37255374816277
  0
ARC
  8
_0-2_決定
  6
CONTINUOUS
 62
    7
 10
1350.9298922046582
 20
524.54660713963926
 40
3.8487214929745601
 50
195.51185599875163
 51
216.13020041487454
  0
ARC
  8
_0-2_決定
  6
CONTINUOUS
 62
    7
 10
1356.1940922174408
 20
526.22713124630422
 40
9.3729950978028427
 50
179.57098102819992
 51
196.8046229956162
  0
ARC
  8
_0-2_決定
  6
CONTINUOUS
 62
    7
 10
1356.3637625777437
 20
526.36022154838838
 40
9.542610057887309
 50
164.20731390937763
 51
180.37771464466726
  0
ARC
  8
_0-2_決定
  6
CONTINUOUS
 62
    7
 10
1350.8828965420048
 20
528.08992132903609
 40
3.8018078742584294
 50
142.63288690481488
 51
166.81166862409154
  0
ARC
  8
_0-2_決定
  6
CONTINUOUS
 62
    7
 10
1348.4652676416972
 20
529.94268581495828
 40
0.7559041282730147
 50
93.329981121818221
 51
143.02719909807109
  0
ARC
  8
_0-2_決定
  6
CONTINUOUS
 62
    7
 10
1348.3130304436918
 20
529.89933714055769
 40
0.8052960728415758
 50
31.267514771266534
 51
82.269063092863504
  0
ARC
  8
_0-2_決定
  6
CONTINUOUS
 62
    7
 10
1345.8227364327638
 20
528.31480419016793
 40
3.7568192805937168
 50
11.710501188571401
 51
32.210626851577807
  0
ARC
  8
_0-2_決定
  6
CONTINUOUS
 62
    7
 10
1338.4862356868143
 20
526.40096841282434
 40
11.335598118636767
 50
359.47606967650199
 51
13.656527564984483
  0
ARC
  8
_0-2_決定
  6
CONTINUOUS
 62
    7
 10
1382.2908773169042
 20
509.39302407141372
 40
2.1326312480198153
 50
293.50286621337716
 51
357.42781064385787
  0
ARC
  8
_0-2_決定
  6
CONTINUOUS
 62
    7
 10
1380.9394618288507
 20
511.64361836660419
 40
4.747771857667149
 50
268.57460685357887
 51
297.63097302894062
  0
ARC
  8
_0-2_決定
  6
CONTINUOUS
 62
    7
 10
1380.7007681203049
 20
511.36803312146287
 40
4.4723435848870903
 50
228.91019488244453
 51
271.54510405239904
  0
ARC
  8
_0-2_決定
  6
CONTINUOUS
 62
    7
 10
1379.1477605280261
 20
509.33535899084336
 40
1.9267762626793963
 50
181.13135341497699
 51
223.98313985446535
  0
ARC
  8
_0-2_決定
  6
CONTINUOUS
 62
    7
 10
1379.575360292486
 20
509.17927497034339
 40
2.3569581156336294
 50
117.10819654690863
 51
177.12932412252442
  0
ARC
  8
_0-2_決定
  6
CONTINUOUS
 62
    7
 10
1380.746005033734
 20
507.52864344209712
 40
4.3693220473927816
 50
89.011808131731911
 51
120.91250237692037
  0
ARC
  8
_0-2_決定
  6
CONTINUOUS
 62
    7
 10
1380.877517753479
 20
507.63382467203797
 40
4.263860805551424
 50
46.707235056421105
 51
90.754645265126939
  0
ARC
  8
_0-2_決定
  6
CONTINUOUS
 62
    7
 10
1382.2356844226324
 20
509.20973315620427
 40
2.187429514695252
 50
2.2946790176828409
 51
44.294447490074184
  0
ARC
  8
_0-2_決定
  6
CONTINUOUS
 62
    7
 10
1335.4725903777357
 20
533.16430926029557
 40
0.9511319438001519
 50
308.24458983194546
 51
355.96086810614605
  0
ARC
  8
_0-2_決定
  6
CONTINUOUS
 62
    7
 10
1334.2038125589925
 20
534.81083595677001
 40
3.029757597887536
 50
284.47961996592693
 51
307.81406250525441
  0
ARC
  8
_0-2_決定
  6
CONTINUOUS
 62
    7
 10
1332.2440809442314
 20
541.33731380361439
 40
9.8425204002392377
 50
268.70337414019093
 51
286.0261183497766
  0
ARC
  8
_0-2_決定
  6
CONTINUOUS
 62
    7
 10
1331.8885817777282
 20
540.80647790237231
 40
9.3101111285545972
 50
253.99354980635056
 51
270.81716345646225
  0
ARC
  8
_0-2_決定
  6
CONTINUOUS
 62
    7
 10
1329.9756570624118
 20
534.64626444096314
 40
2.8646729934310238
 50
228.60386760032361
 51
256.7969879770086
  0
ARC
  8
_0-2_決定
  6
CONTINUOUS
 62
    7
 10
1328.6716915120439
 20
533.10945735202131
 40
0.8504183441333925
 50
180.81819367005573
 51
226.03919194745524
  0
ARC
  8
_0-2_決定
  6
CONTINUOUS
 62
    7
 10
1328.6152496393663
 20
533.00627861807675
 40
0.7990921920351491
 50
122.8866193713002
 51
173.45848747534521
  0
ARC
  8
_0-2_決定
  6
CONTINUOUS
 62
    7
 10
1330.2282754404234
 20
530.50401823844368
 40
3.7761974328943628
 50
102.02792232064522
 51
122.82380152206009
  0
ARC
  8
_0-2_決定
  6
CONTINUOUS
 62
    7
 10
1331.9273087862359
 20
524.06215301972065
 40
10.435584451641374
 50
89.483612680241791
 51
103.78141655004301
  0
ARC
  8
_0-2_決定
  6
CONTINUOUS
 62
    7
 10
1332.1857726427179
 20
523.65501790059375
 40
10.843542250106575
 50
75.169117549165207
 51
90.868767637171089
  0
ARC
  8
_0-2_決定
  6
CONTINUOUS
 62
    7
 10
1334.3944352487124
 20
531.4034643876829
 40
2.7920127660905241
 50
48.585404189291012
 51
78.284493456537746
  0
ARC
  8
_0-2_決定
  6
CONTINUOUS
 62
    7
 10
1335.857543976216
 20
533.08409648815712
 40
0.5639707994415883
 50
1.3429002822683218
 51
47.112590353702643
  0
ARC
  8
_0-2_決定
  6
CONTINUOUS
 62
    7
 10
1187.838195824042
 20
534.88047969576928
 40
4.5868247042314545
 50
272.28860565917853
 51
357.71139434081687
  0
ARC
  8
_0-2_決定
  6
CONTINUOUS
 62
    7
 10
1188.1346664754387
 20
534.81061824221433
 40
4.5147266068697656
 50
181.43808419711868
 51
268.56191580289334
  0
ARC
  8
_0-2_決定
  6
CONTINUOUS
 62
    7
 10
1188.1515122797111
 20
534.56716324009926
 40
4.5320196163528106
 50
91.64564472752221
 51
178.35435527247131
  0
ARC
  8
_0-2_決定
  6
CONTINUOUS
 62
    7
 10
1187.838195824042
 20
534.51414759081683
 40
4.5868247042316765
 50
2.2886056591803805
 51
87.711394340818686
  0
ARC
  8
_0-2_決定
  6
CONTINUOUS
 62
    7
 10
1207.97906613382
 20
575.73290087709302
 40
10.843542250105223
 50
345.16911754916708
 51
0.8687676371729736
  0
ARC
  8
_0-2_決定
  6
CONTINUOUS
 62
    7
 10
1215.7275126209061
 20
573.52423827109817
 40
2.7920127660919496
 50
318.58540418931517
 51
348.2844934565619
  0
ARC
  8
_0-2_決定
  6
CONTINUOUS
 62
    7
 10
1217.4081447213825
 20
572.06112954359469
 40
0.5639707994415301
 50
271.34290028220994
 51
317.11259035364424
  0
ARC
  8
_0-2_決定
  6
CONTINUOUS
 62
    7
 10
1217.5537838322834
 20
572.37008515239586
 40
0.8827602627385211
 50
213.93255925294028
 51
261.37255374816277
  0
ARC
  8
_0-2_決定
  6
CONTINUOUS
 62
    7
 10
1219.9298997022997
 20
574.14660613963952
 40
3.8487265229278749
 50
195.51181976613213
 51
216.13016418225502
  0
ARC
  8
_0-2_決定
  6
CONTINUOUS
 62
    7
 10
1225.194094217441
 20
575.82713124630413
 40
9.3729950978028427
 50
179.57098102819992
 51
196.8046229956162
  0
ARC
  8
_0-2_決定
  6
CONTINUOUS
 62
    7
 10
1225.4036448176942
 20
576.03197719846492
 40
9.5832291341619413
 50
164.22477519095
 51
180.80514690827829
  0
ARC
  8
_0-2_決定
  6
CONTINUOUS
 62
    7
 10
1219.4929083327838
 20
577.86307336049606
 40
3.4008510622356147
 50
140.69550911121971
 51
166.84061102248208
  0
ARC
  8
_0-2_決定
  6
CONTINUOUS
 62
    7
 10
1217.459016728875
 20
579.52200393857981
 40
0.7762235671048232
 50
92.780527779370203
 51
140.3495745748323
  0
ARC
  8
_0-2_決定
  6
CONTINUOUS
 62
    7
 10
1217.3302592089158
 20
579.50331490104577
 40
0.7992081698375577
 50
32.890547070015025
 51
83.454559776610097
  0
ARC
  8
_0-2_決定
  6
CONTINUOUS
 62
    7
 10
1215.0694111751886
 20
577.96681006567826
 40
3.5325938436818332
 50
12.266033915342573
 51
33.904233430252674
  0
ARC
  8
_0-2_決定
  6
CONTINUOUS
 62
    7
 10
1207.3857447114267
 20
576.10671607253789
 40
11.437534232687309
 50
358.95094995603847
 51
13.193962858388018
  0
ARC
  8
_0-2_決定
  6
CONTINUOUS
 62
    7
 10
1244.2111554547012
 20
528.98909680959082
 40
10.796516084427523
 50
56.936685338568729
 51
72.702257720607889
  0
ARC
  8
_0-2_決定
  6
CONTINUOUS
 62
    7
 10
1248.5187919124348
 20
535.41474367921057
 40
3.0630705032245498
 50
31.108562848688308
 51
58.891437151307784
  0
ARC
  8
_0-2_決定
  6
CONTINUOUS
 62
    7
 10
1250.5425149724726
 20
536.64509813864538
 40
0.6947469871820054
 50
347.71837687442223
 51
30.462176967306252
  0
ARC
  8
_0-2_決定
  6
CONTINUOUS
 62
    7
 10
1250.5111677675955
 20
536.93285264018277
 40
0.8331085704516014
 50
281.78782420442229
 51
328.48056190945078
  0
ARC
  8
_0-2_決定
  6
CONTINUOUS
 62
    7
 10
1249.3191028504457
 20
541.07355853592696
 40
5.1400499112242359
 50
267.79525102928648
 51
285.36863828104936
  0
ARC
  8
_0-2_決定
  6
CONTINUOUS
 62
    7
 10
1249.3193717092743
 20
546.17293748188104
 40
10.237538925881328
 50
254.71973140724737
 51
268.89174192348844
  0
ARC
  8
_0-2_決定
  6
CONTINUOUS
 62
    7
 10
1250.0048125036903
 20
547.34541423454607
 40
11.554577656537418
 50
237.52833126498024
 51
252.97293575359066
  0
ARC
  8
_0-2_決定
  6
CONTINUOUS
 62
    7
 10
1245.0919675252062
 20
539.84230717900664
 40
2.5895287053481164
 50
208.73635554189519
 51
240.10619332686298
  0
ARC
  8
_0-2_決定
  6
CONTINUOUS
 62
    7
 10
1243.3363240954054
 20
538.84731364329298
 40
0.5724387188872517
 50
154.10470160075965
 51
205.89529839924035
  0
ARC
  8
_0-2_決定
  6
CONTINUOUS
 62
    7
 10
1243.5497779720504
 20
538.67845191432491
 40
0.8402589816386442
 50
102.95794107618772
 51
150.09976965782769
  0
ARC
  8
_0-2_決定
  6
CONTINUOUS
 62
    7
 10
1244.621549538394
 20
534.82553085546874
 40
4.8387629989241105
 50
86.922082640435164
 51
105.095929274543
  0
ARC
  8
_0-2_決定
  6
CONTINUOUS
 62
    7
 10
1244.5371057868574
 20
528.08784012178739
 40
11.574594153579971
 50
75.570501287467764
 51
88.295635252962356
  0
ARC
  8
_0-2_決定
  6
CONTINUOUS
 62
    7
 10
676.61222822463969
 20
1469.0194205083631
 40
2.4122348568287646
 50
297.37409736400474
 51
357.09812565484032
  0
ARC
  8
_0-2_決定
  6
CONTINUOUS
 62
    7
 10
675.63912458205607
 20
1470.3247395025514
 40
4.0274789942978666
 50
269.74741693494707
 51
301.13187413568266
  0
ARC
  8
_0-2_決定
  6
CONTINUOUS
 62
    7
 10
675.56521199955625
 20
1470.5607906145474
 40
4.2638608055507179
 50
226.70723505641746
 51
270.75464526512326
  0
ARC
  8
_0-2_決定
  6
CONTINUOUS
 62
    7
 10
674.2070453304035
 20
1468.9848821303826
 40
2.1874295146961114
 50
182.29467901769576
 51
224.29444749008712
  0
ARC
  8
_0-2_決定
  6
CONTINUOUS
 62
    7
 10
674.58427513939455
 20
1468.8415040704108
 40
2.5635125379904204
 50
121.06778479360879
 51
178.75284272881484
  0
ARC
  8
_0-2_決定
  6
CONTINUOUS
 62
    7
 10
675.52470707235045
 20
1467.4935484581938
 40
4.2048623906059346
 50
88.682749131633315
 51
122.56572003074351
  0
ARC
  8
_0-2_決定
  6
CONTINUOUS
 62
    7
 10
675.61692754108435
 20
1468.2276196645516
 40
3.4696828225673446
 50
11.128437769721367
 51
89.926642533610291
  0
LINE
  8
_0-2_決定
  6
CONTINUOUS
 62
    7
 10
1036.4213658765179
 20
844.89730964329306
 11
1117.6213638765175
 21
893.6973096432929
  0
LINE
  8
_0-2_決定
  6
CONTINUOUS
 62
    7
 10
932.62136587651753
 20
1508.8972996432935
 11
932.62136587651753
 21
781.69731164329301
  0
LINE
  8
_0-2_決定
  6
CONTINUOUS
 62
    7
 10
932.62136587651753
 20
781.69731164329301
 11
1407.0213598765179
 21
507.69731564329322
  0
LINE
  8
_0-2_決定
  6
CONTINUOUS
 62
    7
 10
1343.0213598765181
 20
1021.497307643293
 11
1342.8213598765178
 21
1027.497307643293
  0
LINE
  8
_0-2_決定
  6
CONTINUOUS
 62
    7
 10
1342.8213598765178
 20
1027.497307643293
 11
1431.4213598765177
 21
1079.697305643293
  0
ARC
  8
_0-2_決定
  6
CONTINUOUS
 62
    7
 10
1422.0509555501662
 20
922.88861367209984
 40
46.260771029561418
 50
55.247116916430876
 51
60.513505381636584
  0
ARC
  8
_0-2_決定
  6
CONTINUOUS
 62
    7
 10
370.07981978531006
 20
-852.64931484778572
 40
2110.0291618793117
 50
59.379514023031703
 51
60.205257224228156
  0
ARC
  8
_0-2_決定
  6
CONTINUOUS
 62
    7
 10
-8412.0125476910816
 20
-16114.31922694515
 40
19718.083065829949
 50
60.095537695567245
 51
60.349701669290162
  0
LINE
  8
_0-2_決定
  6
CONTINUOUS
 62
    7
 10
1342.621359876518
 20
1021.8973076432934
 11
1342.621359876518
 21
1027.497307643293
  0
LINE
  8
_0-2_決定
  6
CONTINUOUS
 62
    7
 10
1342.621359876518
 20
1027.497307643293
 11
1114.4213638765177
 21
894.89730964329306
  0
LINE
  8
_0-2_決定
  6
CONTINUOUS
 62
    7
 10
1114.4213638765177
 20
894.89730964329306
 11
1117.2213638765179
 21
894.6973096432929
  0
LINE
  8
_0-2_決定
  6
CONTINUOUS
 62
    7
 10
1117.2213638765179
 20
894.6973096432929
 11
1223.6213618765173
 21
833.29730964329326
  0
LINE
  8
_0-2_決定
  6
CONTINUOUS
 62
    7
 10
1223.6213618765173
 20
833.29730964329326
 11
1223.4213618765175
 21
833.0973096432931
  0
LINE
  8
_0-2_決定
  6
CONTINUOUS
 62
    7
 10
1223.4213618765175
 20
833.0973096432931
 11
1225.6213618765178
 21
823.29730964329326
  0
LINE
  8
_0-2_決定
  6
CONTINUOUS
 62
    7
 10
1225.6213618765178
 20
823.29730964329326
 11
1453.2213578765175
 21
954.8973076432934
  0
ARC
  8
_0-2_決定
  6
CONTINUOUS
 62
    7
 10
1421.8966176909025
 20
934.75751549480333
 40
37.240442740126518
 50
32.738408892621322
 51
44.581207615554341
  0
LINE
  8
_0-2_決定
  6
CONTINUOUS
 62
    7
 10
1170.0213638765176
 20
860.29730964329337
 11
1223.4213618765175
 21
829.49730964329308
  0
ARC
  8
_0-2_決定
  6
CONTINUOUS
 62
    7
 10
1222.5525933423064
 20
828.21908565701904
 40
1.5455145826300662
 50
20.380256574914164
 51
55.797289187046978
  0
ARC
  8
_0-2_決定
  6
CONTINUOUS
 62
    7
 10
1221.4839485295174
 20
827.68199743919786
 40
2.7374561724218638
 50
0.3204906999385586
 51
23.129733330432781
  0
ARC
  8
_0-2_決定
  6
CONTINUOUS
 62
    7
 10
1223.4342096651103
 20
827.65624990755305
 40
0.7882223707961326
 50
254.33363830327221
 51
2.9859782048766816
  0
LINE
  8
_0-2_決定
  6
CONTINUOUS
 62
    7
 10
1223.2213618765177
 20
826.89730964329317
 11
1208.6213618765173
 21
838.0973096432931
  0
LINE
  8
_0-2_決定
  6
CONTINUOUS
 62
    7
 10
1208.6213618765173
 20
838.0973096432931
 11
1208.6213618765173
 21
834.49730964329308
  0
LINE
  8
_0-2_決定
  6
CONTINUOUS
 62
    7
 10
1208.6213618765173
 20
834.49730964329308
 11
1223.4213618765175
 21
823.29730964329326
  0
ARC
  8
_0-2_決定
  6
CONTINUOUS
 62
    7
 10
1224.4208851329813
 20
825.05977160841383
 40
2.0261586607932585
 50
240.44166342570389
 51
336.66846774455433
  0
ARC
  8
_0-2_決定
  6
CONTINUOUS
 62
    7
 10
1221.37106264975
 20
826.12402618108626
 40
5.2531580148394301
 50
339.18502362861602
 51
1.8903319553680387
  0
ARC
  8
_0-2_決定
  6
CONTINUOUS
 62
    7
 10
1217.6908588100691
 20
826.24766114143483
 40
8.930641074054412
 50
0.3185285630880582
 51
50.083718727862902
  0
LINE
  8
_0-2_決定
  6
CONTINUOUS
 62
    7
 10
1223.4213618765175
 20
833.0973096432931
 11
1170.0213638765176
 21
863.89730964329317
  0
LINE
  8
_0-2_決定
  6
CONTINUOUS
 62
    7
 10
1170.0213638765176
 20
863.89730964329317
 11
1116.621363876518
 21
894.89730964329306
  0
ARC
  8
_0-2_決定
  6
CONTINUOUS
 62
    7
 10
1115.5796025637806
 20
893.00453815167157
 40
2.160520898350851
 50
61.172080953467947
 51
155.00889778391564
  0
ARC
  8
_0-2_決定
  6
CONTINUOUS
 62
    7
 10
1118.4135326711578
 20
891.90781977038455
 40
5.1964344800680395
 50
157.25033838226733
 51
182.32171564758372
  0
ARC
  8
_0-2_決定
  6
CONTINUOUS
 62
    7
 10
1121.522019647424
 20
891.79764746466935
 40
8.3012621874918491
 50
180.69255416265008
 51
233.81810258724101
  0
LINE
  8
_0-2_決定
  6
CONTINUOUS
 62
    7
 10
1116.621363876518
 20
885.09730964329287
 11
1131.4213638765177
 21
879.09730964329299
  0
LINE
  8
_0-2_決定
  6
CONTINUOUS
 62
    7
 10
1131.4213638765177
 20
879.09730964329299
 11
1131.4213638765177
 21
882.69730964329278
  0
LINE
  8
_0-2_決定
  6
CONTINUOUS
 62
    7
 10
1131.4213638765177
 20
882.69730964329278
 11
1116.621363876518
 21
888.49730964329308
  0
ARC
  8
_0-2_決定
  6
CONTINUOUS
 62
    7
 10
1118.8376107206859
 20
890.56008601847952
 40
3.0276717867548624
 50
184.97905483002239
 51
222.94592311915139
  0
ARC
  8
_0-2_決定
  6
CONTINUOUS
 62
    7
 10
1116.7980529503222
 20
890.45693130593986
 40
0.9896467157907391
 50
131.57187741247159
 51
189.28187092664913
  0
ARC
  8
_0-2_決定
  6
CONTINUOUS
 62
    7
 10
1116.3219259204634
 20
890.86200745423014
 40
0.3808283205120241
 50
38.160717594934269
 51
118.30270454104611
  0
LINE
  8
_0-2_決定
  6
CONTINUOUS
 62
    7
 10
1116.621363876518
 20
891.09730964329299
 11
1170.0213638765176
 21
860.29730964329337
  0
LINE
  8
_0-2_決定
  6
CONTINUOUS
 62
    7
 10
1230.4213618765179
 20
833.29730964329326
 11
1447.8213578765178
 21
959.49730764329286
  0
ARC
  8
_0-2_決定
  6
CONTINUOUS
 62
    7
 10
1209.8014028583827
 20
900.51283762508876
 40
19.429703068259599
 50
241.13365190500798
 51
261.89293506716649
  0
ARC
  8
_0-2_決定
  6
CONTINUOUS
 62
    7
 10
1211.0856047840343
 20
906.6689661847596
 40
25.708573529048316
 50
260.99427769957663
 51
295.66785255666514
  0
ARC
  8
_0-2_決定
  6
CONTINUOUS
 62
    7
 10
1216.9591811527284
 20
892.73318142682092
 40
10.629763570822654
 50
299.67252800568218
 51
327.47121038652256
  0
ARC
  8
_0-2_決定
  6
CONTINUOUS
 62
    7
 10
1220.7633810233472
 20
889.910910440164
 40
5.9141941169801591
 50
330.70779846463995
 51
41.081417829420161
  0
ARC
  8
_0-2_決定
  6
CONTINUOUS
 62
    7
 10
1216.8463662356453
 20
886.79731487424556
 40
10.915149048516653
 50
39.889576045120386
 51
60.499281770351374
  0
ARC
  8
_0-2_決定
  6
CONTINUOUS
 62
    7
 10
1212.5323158191031
 20
878.16968249496858
 40
20.554524551333976
 50
61.875915791525088
 51
81.863710383478804
  0
ARC
  8
_0-2_決定
  6
CONTINUOUS
 62
    7
 10
1211.4745045495238
 20
873.43523624304464
 40
25.393825294905294
 50
81.012820236233082
 51
115.80240631197954
  0
ARC
  8
_0-2_決定
  6
CONTINUOUS
 62
    7
 10
1205.6514164817695
 20
886.78872765691096
 40
10.852032185985543
 50
118.81234125971916
 51
146.50668541879782
  0
ARC
  8
_0-2_決定
  6
CONTINUOUS
 62
    7
 10
1201.5979964410253
 20
889.87969561474574
 40
5.776030127143378
 50
149.88999105384002
 51
222.23358652362683
  0
ARC
  8
_0-2_決定
  6
CONTINUOUS
 62
    7
 10
1205.7715556545104
 20
893.30354992800369
 40
11.170806684548268
 50
220.84747999816088
 51
241.38352713441037
  0
ARC
  8
_0-2_決定
  6
CONTINUOUS
 62
    7
 10
1210.8704980995503
 20
899.30755221348204
 40
11.211544626533815
 50
243.23376031847837
 51
270.87322065024159
  0
ARC
  8
_0-2_決定
  6
CONTINUOUS
 62
    7
 10
1211.2759496544084
 20
900.57997647609852
 40
12.484870951850514
 50
268.92336247029994
 51
295.35028644029035
  0
ARC
  8
_0-2_決定
  6
CONTINUOUS
 62
    7
 10
1214.4207360174084
 20
893.35637286362373
 40
4.6172230180510354
 50
298.4643868689401
 51
341.57853521545701
  0
ARC
  8
_0-2_決定
  6
CONTINUOUS
 62
    7
 10
1216.0247433574914
 20
892.50806108351003
 40
2.8429962578108547
 50
347.594640942919
 51
37.462974475365741
  0
ARC
  8
_0-2_決定
  6
CONTINUOUS
 62
    7
 10
1214.0067222516545
 20
891.05080157666521
 40
5.3316392958583467
 50
36.702497714049031
 51
60.633078397048479
  0
ARC
  8
_0-2_決定
  6
CONTINUOUS
 62
    7
 10
1211.2213618765172
 20
885.92325319139741
 40
11.166565251895349
 50
61.080096036424578
 51
118.91990396357544
  0
ARC
  8
_0-2_決定
  6
CONTINUOUS
 62
    7
 10
1207.9668904079672
 20
891.42167441166725
 40
4.7837589104367879
 50
116.647655817266
 51
158.98345755116222
  0
ARC
  8
_0-2_決定
  6
CONTINUOUS
 62
    7
 10
1206.1067248200338
 20
892.48850140851869
 40
2.6849335546635529
 50
166.01618586410345
 51
219.04142955418592
  0
ARC
  8
_0-2_決定
  6
CONTINUOUS
 62
    7
 10
1208.2994268219527
 20
894.10098757781589
 40
5.4051944990365293
 50
217.67663023991619
 51
242.71222757555574
  0
ARC
  8
_0-2_決定
  6
CONTINUOUS
 62
    7
 10
1211.2213618765179
 20
895.01596591710222
 40
3.4184816738090906
 50
245.82414998074796
 51
294.17585001925204
  0
ARC
  8
_0-2_決定
  6
CONTINUOUS
 62
    7
 10
1212.0392277709225
 20
892.69730964329312
 40
0.9893837055949367
 50
306.04216947690776
 51
53.957830523092241
  0
ARC
  8
_0-2_決定
  6
CONTINUOUS
 62
    7
 10
1211.2213618765179
 20
890.37865336948403
 40
3.4184816738090906
 50
65.82414998074799
 51
114.17585001925202
  0
ARC
  8
_0-2_決定
  6
CONTINUOUS
 62
    7
 10
1210.4034959821133
 20
892.69730964329312
 40
0.9893837055949367
 50
126.04216947690773
 51
233.95783052309227
  0
LINE
  8
_0-2_決定
  6
CONTINUOUS
 62
    7
 10
1457.6213578765173
 20
968.09730764329311
 11
2248.421345876518
 21
1424.8973016432933
  0
LINE
  8
_0-2_決定
  6
CONTINUOUS
 62
    7
 10
1461.8213578765181
 20
959.49730764329286
 11
2248.421345876518
 21
1413.6973016432933
  0
LINE
  8
_0-2_決定
  6
CONTINUOUS
 62
    7
 10
1437.4213598765175
 20
1086.0973056432933
 11
2248.8213458765181
 21
1554.2972996432932
  0
LINE
  8
_0-2_決定
  6
CONTINUOUS
 62
    7
 10
1498.421357876518
 20
1041.0973076432933
 11
1498.421357876518
 21
1035.6973076432926
  0
LINE
  8
_0-2_決定
  6
CONTINUOUS
 62
    7
 10
1498.421357876518
 20
1035.6973076432926
 11
1548.0213578765176
 21
1064.4973056432932
  0
LINE
  8
_0-2_決定
  6
CONTINUOUS
 62
    7
 10
1548.0213578765176
 20
1064.4973056432932
 11
1548.2213578765175
 21
1069.8973056432928
  0
LINE
  8
_0-2_決定
  6
CONTINUOUS
 62
    7
 10
1548.2213578765175
 20
1069.8973056432928
 11
1498.421357876518
 21
1041.0973076432933
  0
LINE
  8
_0-2_決定
  6
CONTINUOUS
 62
    7
 10
1424.4213598765173
 20
1554.497299643293
 11
1424.4213598765173
 21
1086.0973056432933
  0
ARC
  8
_0-2_決定
  6
CONTINUOUS
 62
    7
 10
1440.8362159482147
 20
1084.5040618828057
 40
16.491995802050837
 50
174.4561750724821
 51
192.27674625438365
  0
ARC
  8
_0-2_決定
  6
CONTINUOUS
 62
    7
 10
1432.6447068638436
 20
1083.0164196599546
 40
8.1765670604383747
 50
194.29645683759065
 51
228.44955344262181
  0
LINE
  8
_0-2_決定
  6
CONTINUOUS
 62
    7
 10
1427.2213598765177
 20
1076.8973056432926
 11
1498.421357876518
 21
1035.6973076432926
  0
LINE
  8
_0-2_決定
  6
CONTINUOUS
 62
    7
 10
1498.421357876518
 20
1035.6973076432926
 11
1498.421357876518
 21
1040.8973076432935
  0
LINE
  8
_0-2_決定
  6
CONTINUOUS
 62
    7
 10
1498.421357876518
 20
1040.8973076432935
 11
1431.2213598765179
 21
1079.4973056432932
  0
ARC
  8
_0-2_決定
  6
CONTINUOUS
 62
    7
 10
1433.7053293611843
 20
1082.6419477965462
 40
4.0073530756312667
 50
182.35466059987118
 51
231.69460566935089
  0
ARC
  8
_0-2_決定
  6
CONTINUOUS
 62
    7
 10
1452.1665309721106
 20
1084.3785995480673
 40
22.545483602411622
 50
179.69832584636652
 51
184.83758322543562
  0
LINE
  8
_0-2_決定
  6
CONTINUOUS
 62
    7
 10
1429.6213598765178
 20
1084.4973056432932
 11
1429.2213598765175
 21
1554.2972996432932
  0
LINE
  8
_0-2_決定
  6
CONTINUOUS
 62
    7
 10
2250.6213458765178
 20
1480.6972996432928
 11
1543.6213578765178
 21
1072.4973056432932
  0
LINE
  8
_0-2_決定
  6
CONTINUOUS
 62
    7
 10
1543.6213578765178
 20
1072.4973056432932
 11
1548.2213578765175
 21
1069.8973056432928
  0
LINE
  8
_0-2_決定
  6
CONTINUOUS
 62
    7
 10
1548.2213578765175
 20
1069.8973056432928
 11
1548.2213578765175
 21
1063.6973056432928
  0
LINE
  8
_0-2_決定
  6
CONTINUOUS
 62
    7
 10
1548.2213578765175
 20
1063.6973056432928
 11
1558.6213578765178
 21
1057.497307643293
  0
LINE
  8
_0-2_決定
  6
CONTINUOUS
 62
    7
 10
1558.6213578765178
 20
1057.497307643293
 11
2248.6213458765178
 21
1455.8973016432933
  0
LINE
  8
_0-2_決定
  6
CONTINUOUS
 62
    7
 10
1543.6213578765178
 20
1072.4973056432932
 11
1548.2213578765175
 21
1069.8973056432928
  0
LINE
  8
_0-2_決定
  6
CONTINUOUS
 62
    7
 10
1548.2213578765175
 20
1069.8973056432928
 11
1548.2213578765175
 21
1063.6973056432928
  0
LINE
  8
_0-2_決定
  6
CONTINUOUS
 62
    7
 10
1548.2213578765175
 20
1063.6973056432928
 11
1558.6213578765178
 21
1057.497307643293
  0
ARC
  8
_0-2_決定
  6
CONTINUOUS
 62
    7
 10
1576.0658197988828
 20
1078.4102388520134
 40
27.233434295026576
 50
209.74819143565679
 51
230.16692167209249
  0
ARC
  8
_0-2_決定
  6
CONTINUOUS
 62
    7
 10
1530.6949550495046
 20
1057.8220451788704
 40
22.849417726520933
 50
18.03797633481965
 51
34.784084935990187
  0
ARC
  8
_0-2_決定
  6
CONTINUOUS
 62
    7
 10
1544.0301759896965
 20
1067.1231517690442
 40
6.5910273739609604
 50
34.510072623573144
 51
68.54145632030999
  0
ARC
  8
_0-2_決定
  6
CONTINUOUS
 62
    7
 10
1544.8824412603472
 20
1068.3221184841361
 40
5.1755476340269375
 50
72.469824079394272
 51
90.676237877663283
  0
LINE
  8
_0-2_決定
  6
CONTINUOUS
 62
    7
 10
1544.8213578765176
 20
1073.497305643293
 11
1543.6213578765178
 21
1072.4973056432932
  0
LINE
  8
_0-2_決定
  6
CONTINUOUS
 62
    7
 10
1548.2213578765175
 20
1069.8973056432928
 11
1548.2213578765175
 21
1063.6973056432928
  0
LINE
  8
_0-2_決定
  6
CONTINUOUS
 62
    7
 10
1543.6213578765178
 20
1072.4973056432932
 11
1548.2213578765175
 21
1069.8973056432928
  0
LINE
  8
_0-2_決定
  6
CONTINUOUS
 62
    7
 10
2231.6213478765176
 20
507.4973156432934
 11
1463.421357876518
 21
950.89730764329352
  0
ARC
  8
_0-2_決定
  6
CONTINUOUS
 62
    7
 10
1468.2338364960601
 20
960.0308298921193
 40
10.323816112918154
 50
227.51648647841276
 51
242.21512740777484
  0
ARC
  8
_0-2_決定
  6
CONTINUOUS
 62
    7
 10
1474.8219172190647
 20
967.27324020807202
 40
20.114360592671225
 50
206.50302016963366
 51
227.61003620917955
  0
ARC
  8
_0-2_決定
  6
CONTINUOUS
 62
    7
 10
1443.2782383259955
 20
950.24762416552664
 40
15.754792643890115
 50
30.72616566416853
 51
42.135550576157137
  0
ARC
  8
_0-2_決定
  6
CONTINUOUS
 62
    7
 10
1432.8116727995694
 20
941.06407976826108
 40
29.678250630570439
 50
41.726779433082612
 51
60.510169087934507
  0
LINE
  8
_0-2_決定
  6
CONTINUOUS
 62
    7
 10
1447.4213578765175
 20
966.8973076432934
 11
1342.621359876518
 21
1027.497307643293
  0
LINE
  8
_0-2_決定
  6
CONTINUOUS
 62
    7
 10
1342.621359876518
 20
1027.497307643293
 11
1342.621359876518
 21
1022.297307643293
  0
LINE
  8
_0-2_決定
  6
CONTINUOUS
 62
    7
 10
1342.621359876518
 20
1022.297307643293
 11
1447.0213578765179
 21
962.09730764329322
  0
ARC
  8
_0-2_決定
  6
CONTINUOUS
 62
    7
 10
1437.5810471446634
 20
948.37247875118567
 40
16.658042947225134
 50
23.809601433625492
 51
55.478748480662603
  0
ARC
  8
_0-2_決定
  6
CONTINUOUS
 62
    7
 10
1463.3113303481286
 20
959.38927841433838
 40
11.334043213022502
 50
202.25191702141839
 51
230.23327629581965
  0
ARC
  8
_0-2_決定
  6
CONTINUOUS
 62
    7
 10
1473.1273482765198
 20
970.49074432585996
 40
26.149957963771953
 50
229.26055487127991
 51
237.25122255914118
  0
ARC
  8
_0-2_決定
  6
CONTINUOUS
 62
    7
 10
1532.9078805200015
 20
1062.5077438728893
 40
135.88050014413562
 50
237.0398620154397
 51
238.94937156840308
  0
LINE
  8
_0-2_決定
  6
CONTINUOUS
 62
    7
 10
1462.8213578765178
 20
946.09730764329333
 11
2223.0213478765181
 21
507.29731564329313
  0
LINE
  8
_0-0_文字
  6
CONTINUOUS
 62
    7
 10
1326.4213598765177
 20
932.49730764329252
 11
1458.2213578765181
 21
1168.6973056432928
  0
LINE
  8
_0-0_文字
  6
CONTINUOUS
 62
    7
 10
1458.2213578765181
 20
1168.6973056432928
 11
1477.0213578765179
 21
1168.6973056432928
  0
LINE
  8
_0-0_文字
  6
CONTINUOUS
 62
    7
 10
1805.6213538765178
 20
819.69730964329278
 11
1906.621351876518
 21
994.49730764329297
  0
LINE
  8
_0-0_文字
  6
CONTINUOUS
 62
    7
 10
1906.621351876518
 20
994.49730764329297
 11
1925.4213518765182
 21
994.49730764329297
  0
LINE
  8
_0-0_文字
  6
CONTINUOUS
 62
    7
 10
1377.2213598765177
 20
1224.2973036432934
 11
1462.8213578765178
 21
1373.6973016432939
  0
LINE
  8
_0-0_文字
  6
CONTINUOUS
 62
    7
 10
1462.8213578765178
 20
1373.6973016432939
 11
1481.6213578765178
 21
1373.6973016432939
  0
TEXT
  8
_0-0_文字
 62
    7
 10
690.6613698765176
 20
452.95731564329333
 40
46.000000000000014
 41
0.9999999999999996
 50
0
  1
● 改修工事の場合、既存下地とリベットルーフとの間に絶縁シートが必要です。
  0
TEXT
  8
_0-0_文字
 62
    7
 10
1481.6213578765178
 20
1350.6973016432937
 40
46.000000000000014
 41
0.9999999999999996
 50
0
  1
AYボンド580NF
  0
TEXT
  8
_0-0_文字
 62
    7
 10
1477.0213578765179
 20
1145.6973056432928
 40
46.000000000000014
 41
0.9999999999999996
 50
0
  1
FL鋼板
  0
TEXT
  8
_0-0_文字
 62
    7
 10
1925.4213518765182
 20
971.49730764329308
 40
46.000000000000007
 41
0.9999999999999997
 50
0
  1
リベットルーフ
  0
ENDSEC
  0
EOF
