  0
SECTION
  2
HEADER
  9
$ACADVER
  1
AC1009
  9
$INSBASE
 10
0
 20
0
 30
0
  9
$EXTMIN
 10
0
 20
0
  9
$EXTMAX
 10
1485
 20
1050
  9
$LIMMIN
 10
0
 20
0
  9
$LIMMAX
 10
1485
 20
1050
  9
$LTSCALE
 40
5
  0
ENDSEC
  0
SECTION
  2
TABLES
  0
TABLE
  2
LTYPE
 70
     9
  0
LTYPE
  2
CONTINUOUS
 70
    64
  3
実線
 72
    65
 73
     0
 40
0.0
  0
LTYPE
  2
DASHED1
 70
    64
  3
--  --  --  --  --  --  --  --  
 72
    65
 73
     2
 40
2.5
 49
1.25
 49
-1.25
  0
LTYPE
  2
DASHED2
 70
    64
  3
----    ----    ----    ----    
 72
    65
 73
     2
 40
5.0
 49
2.5
 49
-2.5
  0
LTYPE
  2
DASHED3
 70
    64
  3
------  ------  ------  ------  
 72
    65
 73
     2
 40
5.0
 49
3.75
 49
-1.25
  0
LTYPE
  2
CENTER1
 70
    64
  3
----- - ----- - ----- - ----- - 
 72
    65
 73
     4
 40
10.0
 49
6.25
 49
-1.25
 49
1.25
 49
-1.25
  0
LTYPE
  2
CENTER2
 70
    64
  3
----------  --  ----------  --  
 72
    65
 73
     4
 40
20.0
 49
12.5
 49
-2.5
 49
2.5
 49
-2.5
  0
LTYPE
  2
PHANTOM1
 70
    64
  3
--- - - --- - - --- - - --- - - 
 72
    65
 73
     6
 40
10.0
 49
3.25
 49
-1.25
 49
1.25
 49
-1.25
 49
1.25
 49
-1.25
  0
LTYPE
  2
PHANTOM2
 70
    64
  3
--------  -  -  --------  -  -  
 72
    65
 73
     6
 40
20.0
 49
10.0
 49
-2.5
 49
1.25
 49
-2.5
 49
1.25
 49
-2.5
  0
LTYPE
  2
DOT
 70
    64
  3
-   -   -   -   -   -   -   -   
 72
    65
 73
     2
 40
2.5
 49
0.625
 49
-1.875
  0
LTYPE
  2
DUMMY
 70
    64
  3
ダミー
 72
    65
 73
     0
 40
0.0
  0
LTYPE
  2
RAND1
 70
    64
  3
ランダム線1
 72
    65
 73
     4
 40
10.0
 49
1.0
 49
-2.0
 49
3.0
 49
-4.0
  0
LTYPE
  2
RAND2
 70
    64
  3
ランダム線2
 72
    65
 73
     4
 40
14.0
 49
2.0
 49
-3.0
 49
4.0
 49
-5.0
  0
LTYPE
  2
RAND3
 70
    64
  3
ランダム線3
 72
    65
 73
     4
 40
18.0
 49
3.0
 49
-4.0
 49
5.0
 49
-6.0
  0
LTYPE
  2
RAND4
 70
    64
  3
ランダム線4
 72
    65
 73
     4
 40
22.0
 49
4.0
 49
-5.0
 49
6.0
 49
-7.0
  0
LTYPE
  2
RAND5
 70
    64
  3
ランダム線5
 72
    65
 73
     4
 40
26.0
 49
5.0
 49
-6.0
 49
7.0
 49
-8.0
  0
LTYPE
  2
LONG1
 70
    64
  3
----------  --  ----------  --  
 72
    65
 73
     4
 40
40.0
 49
32.5
 49
-2.5
 49
2.5
 49
-2.5
  0
LTYPE
  2
LONG2
 70
    64
  3
--------  -  -  --------  -  -  
 72
    65
 73
     6
 40
40.0
 49
30.0
 49
-2.5
 49
1.25
 49
-2.5
 49
1.25
 49
-2.5
  0
LTYPE
  2
LONG3
 70
    64
  3
+++++++++++++++..+++++++++++++++
 72
    65
 73
     2
 40
40.0
 49
37.5
 49
-2.5
  0
LTYPE
  2
LONG4
 70
    64
  3
+++++++++++++++..+++++++++++++++
 72
    65
 73
     2
 40
80.0
 49
75.0
 49
-5.0
  0
LTYPE
  2
LONG5
 70
    64
  3
----------  --  ----------  --  
 72
    65
 73
     4
 40
60.0
 49
37.5
 49
-7.5
 49
7.5
 49
-7.5
  0
LTYPE
  2
dashed
 70
   64
  3
-------   -------------   ------
 72
   65
 73
    2
 40
7.5
 49
6
 49
-1.5
  0
LTYPE
  2
dashed_spaced
 70
   64
  3
----        --------        ----
 72
   65
 73
    2
 40
12
 49
6
 49
-6
  0
LTYPE
  2
long_dashed_dotted
 70
   64
  3
------------- --- --------------
 72
   65
 73
    4
 40
15.25
 49
12
 49
-1.5
 49
0.25
 49
-1.5
  0
LTYPE
  2
long_dashed_double-dotted
 70
   64
  3
----------- --- --- ------------
 72
   65
 73
    6
 40
17
 49
12
 49
-1.5
 49
0.25
 49
-1.5
 49
0.25
 49
-1.5
  0
LTYPE
  2
long_dashed_triplicate-dotted
 70
   64
  3
--------- --- --- --- ----------
 72
   65
 73
    8
 40
18.75
 49
12
 49
-1.5
 49
0.25
 49
-1.5
 49
0.25
 49
-1.5
 49
0.25
 49
-1.5
  0
LTYPE
  2
dotted
 70
   64
  3
   -       -       -       -    
 72
   65
 73
    2
 40
1.75
 49
0.25
 49
-1.5
  0
LTYPE
  2
chain
 70
   64
  3
-------------- -- --------------
 72
   65
 73
    4
 40
18.5
 49
12
 49
-1.5
 49
3.5
 49
-1.5
  0
LTYPE
  2
chain_double_dash
 70
   64
  3
------------ -- -- -------------
 72
   65
 73
    6
 40
23.5
 49
12
 49
-1.5
 49
3.5
 49
-1.5
 49
3.5
 49
-1.5
  0
LTYPE
  2
dashed_dotted
 70
   64
  3
-----------     -     ----------
 72
   65
 73
    4
 40
9.25
 49
6
 49
-1.5
 49
0.25
 49
-1.5
  0
LTYPE
  2
double-dashed_dotted
 70
   64
  3
------   -----------   -   -----
 72
   65
 73
    6
 40
16.75
 49
6
 49
-1.5
 49
6
 49
-1.5
 49
0.25
 49
-1.5
  0
LTYPE
  2
dashed_double-dotted
 70
   64
  3
---------    -    -    ---------
 72
   65
 73
    6
 40
11
 49
6
 49
-1.5
 49
0.25
 49
-1.5
 49
0.25
 49
-1.5
  0
LTYPE
  2
double-dashed_double-dotted
 70
   64
  3
-----   ---------   -   -   ----
 72
   65
 73
    8
 40
18.5
 49
6
 49
-1.5
 49
6
 49
-1.5
 49
0.25
 49
-1.5
 49
0.25
 49
-1.5
  0
LTYPE
  2
dashed_triplicate-dotted
 70
   64
  3
-------    -    -    -    ------
 72
   65
 73
    8
 40
12.75
 49
6
 49
-1.5
 49
0.25
 49
-1.5
 49
0.25
 49
-1.5
 49
0.25
 49
-1.5
  0
LTYPE
  2
double-dashed_triplicate-dotted
 70
   64
  3
-----  ---------  -  -  -  -----
 72
   65
 73
   10
 40
20.25
 49
6
 49
-1.5
 49
6
 49
-1.5
 49
0.25
 49
-1.5
 49
0.25
 49
-1.5
 49
0.25
 49
-1.5
  0
LTYPE
  2
undefined
 70
   64
  3
--------------------------------
 72
   65
 73
    0
 40
0
  0
ENDTAB
  0
TABLE
  2
STYLE
  5
3
100
AcDbSymbolTable
 70
     1
  0
STYLE
  5
10
100
AcDbSymbolTableRecord
100
AcDbTextStyleTableRecord
  2
STANDARD
 70
     0
 40
0.0
 41
1.0
 50
0.0
 71
     0
 42
0.2
  3
txt
  4
bigfont.shx
  0
STYLE
  5
26
100
AcDbSymbolTableRecord
100
AcDbTextStyleTableRecord
  2
TATEGAKI
 70
    68
 40
0.0
 41
1.0
 50
0.0
 71
     0
 42
1.0
  3
txt
  4
bigfont.shx
  0
ENDTAB
  0
TABLE
  2
LAYER
 70
    4
  0
LAYER
  2
_0-0_
 70
   64
 62
    7
  6
CONTINUOUS
  0
LAYER
  2
_2-0_
 70
   64
 62
    7
  6
CONTINUOUS
  0
LAYER
  2
_e-0_
 70
   64
 62
    7
  6
CONTINUOUS
  0
LAYER
  2
ADD_LINE
 70
   64
 62
    7
  6
CONTINUOUS
  0
ENDTAB
  0
ENDSEC
  0
SECTION
  2
BLOCKS
  0
ENDSEC
  0
SECTION
  2
ENTITIES
  0
LINE
  8
_e-0_
  6
CONTINUOUS
 62
    7
 10
1447.3064931608114
 20
221.03177475142792
 11
1447.3064931608114
 21
41.031774751427932
  0
TEXT
  8
_e-0_
 62
    7
 10
1067.3064931608114
 20
166.03177475142792
 40
20.000000000000018
 41
0.9999999999999986
 50
0
  1
ﾘﾍﾞｯﾄﾙｰﾌ ﾅｲﾝ
  0
TEXT
  8
_e-0_
 62
    7
 10
1067.3064931608114
 20
136.03177475142792
 40
20.000000000000018
 41
0.9999999999999986
 50
0
  1
ﾘﾍﾞｯﾄﾙｰﾌ SGM
  0
TEXT
  8
_e-0_
 62
    7
 10
1067.3064931608114
 20
106.03177475142793
 40
20
 41
1.0000000000000002
 50
0
  1
ﾘﾍﾞｯﾄﾙｰﾌ COOL
  0
TEXT
  8
_e-0_
 62
    7
 10
1067.3064931608114
 20
76.031774751427932
 40
19.999999999999996
 41
1.0000000000000002
 50
0
  1
ﾘﾍﾞｯﾄﾙｰﾌ SW
  0
TEXT
  8
_e-0_
 62
    7
 10
1067.3064931608114
 20
46.031774751427932
 40
19.999999999999972
 41
1.0000000000000013
 50
0
  1
ﾘﾍﾞｯﾄﾙｰﾌ HP
  0
LINE
  8
_e-0_
  6
CONTINUOUS
 62
    7
 10
1047.3064931608114
 20
221.03177475142792
 11
1047.3064931608114
 21
41.031774751427932
  0
TEXT
  8
_e-0_
 62
    7
 10
1067.3064931608114
 20
196.03177475142792
 40
20.000000000000018
 41
0.9999999999999993
 50
0
  1
シート名称
  0
LINE
  8
_e-0_
  6
CONTINUOUS
 62
    7
 10
1217.9103688764553
 20
221.03177475142792
 11
1217.9103688764553
 21
41.031774751427932
  0
LINE
  8
_e-0_
  6
CONTINUOUS
 62
    9
 10
1277.9103688764553
 20
221.03177475142792
 11
1277.9103688764553
 21
41.031774751427932
  0
TEXT
  8
_e-0_
 62
    7
 10
1237.9103688764553
 20
136.03177475142792
 40
20.000000000000018
 41
0.9999999999999988
 50
0
  1
○
  0
TEXT
  8
_e-0_
 62
    7
 10
1237.9103688764553
 20
106.03177475142793
 40
20
 41
0.9999999999999997
 50
0
  1
○
  0
TEXT
  8
_e-0_
 62
    7
 10
1237.9103688764553
 20
76.031774751427932
 40
19.999999999999996
 41
1
 50
0
  1
○
  0
TEXT
  8
_e-0_
 62
    7
 10
1237.9103688764553
 20
46.031774751427932
 40
19.999999999999972
 41
1.0000000000000011
 50
0
  1
○
  0
LINE
  8
_e-0_
  6
CONTINUOUS
 62
    7
 10
1277.9103688764553
 20
41.031774751427932
 11
1277.9103688764553
 21
221.03177475142792
  0
TEXT
  8
_e-0_
 62
    7
 10
1227.9103688764553
 20
196.03177475142792
 40
20.000000000000018
 41
0.9999999999999993
 50
0
  1
対応
  0
TEXT
  8
_e-0_
 62
    7
 10
1299.0364316016417
 20
195.09455457098449
 40
20.000000000000018
 41
0.9999999999999991
 50
0
  1
シート厚み
  0
TEXT
  8
_e-0_
 62
    7
 10
1288.6817929669633
 20
166.03177475142792
 40
20.000000000000018
 41
0.9999999999999995
 50
0
  1
1.5㎜、2.0㎜
  0
TEXT
  8
_e-0_
 62
    7
 10
1288.6817929669633
 20
136.03177475142792
 40
20.000000000000018
 41
0.9999999999999995
 50
0
  1
1.5㎜、2.0㎜
  0
TEXT
  8
_e-0_
 62
    7
 10
1288.6817929669633
 20
106.03177475142793
 40
20
 41
1.0000000000000004
 50
0
  1
1.5㎜、2.0㎜
  0
TEXT
  8
_e-0_
 62
    7
 10
1288.6817929669633
 20
76.031774751427932
 40
19.999999999999996
 41
1.0000000000000007
 50
0
  1
1.5㎜、2.0㎜
  0
TEXT
  8
_e-0_
 62
    7
 10
1323.6817929669633
 20
46.031774751427932
 40
19.999999999999972
 41
1.0000000000000009
 50
0
  1
2.0㎜
  0
TEXT
  8
_e-0_
 62
    7
 10
1408.884319905128
 20
116.4160859797515
 40
10
 41
1.0000000000000053
 50
0
  1
※
  0
TEXT
  8
_e-0_
 62
    7
 10
1409.1300889474883
 20
86.776339471109551
 40
9.9999999999999858
 41
1.0000000000000067
 50
0
  1
※
  0
TEXT
  8
_e-0_
 62
    7
 10
1351.5111447489369
 20
26.235232036376459
 40
9.9999999999999645
 41
1.0000000000000044
 50
0
  1
※印は受注生産品
  0
LINE
  8
_e-0_
  6
CONTINUOUS
 62
    7
 10
1047.3064931608114
 20
221.03177475142792
 11
1447.3064931608114
 21
221.03177475142792
  0
LINE
  8
_e-0_
  6
CONTINUOUS
 62
    7
 10
1047.3064931608114
 20
41.031774751427932
 11
1447.3064931608114
 21
41.031774751427932
  0
LINE
  8
_e-0_
  6
CONTINUOUS
 62
    7
 10
1047.3064931608114
 20
191.03177475142792
 11
1447.3064931608114
 21
191.03177475142792
  0
LINE
  8
_e-0_
  6
CONTINUOUS
 62
    7
 10
1047.3064931608114
 20
161.03177475142792
 11
1447.3064931608114
 21
161.03177475142792
  0
LINE
  8
_e-0_
  6
CONTINUOUS
 62
    7
 10
1047.3064931608114
 20
131.03177475142792
 11
1447.3064931608114
 21
131.03177475142792
  0
LINE
  8
_e-0_
  6
CONTINUOUS
 62
    7
 10
1047.3064931608114
 20
101.03177475142793
 11
1447.3064931608114
 21
101.03177475142793
  0
LINE
  8
_e-0_
  6
CONTINUOUS
 62
    7
 10
1047.3064931608114
 20
71.031774751427932
 11
1447.3064931608114
 21
71.031774751427932
  0
LINE
  8
_e-0_
  6
CONTINUOUS
 62
    9
 10
1217.9103688764553
 20
176.03177475142792
 11
1277.9103688764553
 21
176.03177475142792
  0
LINE
  8
_e-0_
  6
CONTINUOUS
 62
    9
 10
1217.9103688764553
 20
146.03177475142792
 11
1277.9103688764553
 21
146.03177475142792
  0
LINE
  8
_e-0_
  6
CONTINUOUS
 62
    9
 10
1247.9103688764553
 20
191.03177475142792
 11
1247.9103688764553
 21
41.031774751427932
  0
LINE
  8
_e-0_
  6
CONTINUOUS
 62
    9
 10
1217.9103688764553
 20
56.031774751427932
 11
1277.9103688764553
 21
56.031774751427932
  0
LINE
  8
_e-0_
  6
CONTINUOUS
 62
    9
 10
1217.9103688764553
 20
86.031774751427932
 11
1277.9103688764553
 21
86.031774751427932
  0
LINE
  8
_e-0_
  6
CONTINUOUS
 62
    9
 10
1217.9103688764553
 20
116.03177475142793
 11
1277.9103688764553
 21
116.03177475142793
  0
LINE
  8
_2-0_
  6
CONTINUOUS
 62
    7
 10
992.64009678841467
 20
695.36228962860616
 11
985.5850967884146
 21
688.30728962860621
  0
LINE
  8
_2-0_
  6
CONTINUOUS
 62
    7
 10
985.5850967884146
 20
688.30728962860621
 11
985.5850967884146
 21
652.26228962860614
  0
LINE
  8
_2-0_
  6
CONTINUOUS
 62
    7
 10
985.5850967884146
 20
652.26228962860614
 11
985.5850967884146
 21
615.22228962860606
  0
LINE
  8
_2-0_
  6
CONTINUOUS
 62
    7
 10
606.70009678841461
 20
534.52228962860613
 11
565.42009678841464
 21
534.52228962860613
  0
LINE
  8
_2-0_
  6
CONTINUOUS
 62
    7
 10
632.03509678841453
 20
516.67228962860622
 11
606.70009678841461
 21
534.52228962860613
  0
LINE
  8
_2-0_
  6
CONTINUOUS
 62
    7
 10
637.51509678841455
 20
516.44728962860631
 11
632.03509678841453
 21
516.67228962860622
  0
LINE
  8
_2-0_
  6
CONTINUOUS
 62
    7
 10
637.51509678841455
 20
501.45228962860614
 11
637.51509678841455
 21
516.44728962860631
  0
LINE
  8
_2-0_
  6
CONTINUOUS
 62
    7
 10
653.39009678841467
 20
501.45228962860614
 11
637.51509678841455
 21
501.45228962860614
  0
LINE
  8
_2-0_
  6
CONTINUOUS
 62
    7
 10
653.39009678841467
 20
495.27728962860624
 11
653.39009678841467
 21
501.45228962860614
  0
LINE
  8
_2-0_
  6
CONTINUOUS
 62
    7
 10
659.67509678841463
 20
495.27728962860624
 11
653.39009678841467
 21
495.27728962860624
  0
LINE
  8
_2-0_
  6
CONTINUOUS
 62
    7
 10
659.67509678841463
 20
501.45228962860614
 11
659.67509678841463
 21
495.27728962860624
  0
LINE
  8
_2-0_
  6
CONTINUOUS
 62
    7
 10
672.02009678841466
 20
501.45228962860614
 11
659.67509678841463
 21
501.45228962860614
  0
LINE
  8
_2-0_
  6
CONTINUOUS
 62
    7
 10
568.51009678841467
 20
544.22228962860618
 11
609.79009678841464
 21
544.22228962860618
  0
LINE
  8
_2-0_
  6
CONTINUOUS
 62
    7
 10
609.79009678841464
 20
544.22228962860618
 11
634.43009678841463
 21
526.8072896286061
  0
ARC
  8
_2-0_
  6
CONTINUOUS
 62
    7
 10
626.08145928841475
 20
524.00650212860614
 40
8.8059161207997576
 50
342.18438249408626
 51
18.545490177375559
  0
ARC
  8
_2-0_
  6
CONTINUOUS
 62
    7
 10
631.41645928841467
 20
522.9170521286062
 40
3.4452072924299721
 50
295.87716632483921
 51
332.23827400812849
  0
ARC
  8
_2-0_
  6
CONTINUOUS
 62
    7
 10
630.0705916413558
 20
526.65100065801789
 40
7.4040047282953001
 50
253.22302653909685
 51
292.63504822344936
  0
LINE
  8
_2-0_
  6
CONTINUOUS
 62
    7
 10
467.8400967884146
 20
615.22228962860606
 11
568.51009678841467
 21
544.22228962860618
  0
LINE
  8
_2-0_
  6
CONTINUOUS
 62
    7
 10
454.18009678841457
 20
695.36228962860616
 11
461.23509678841458
 21
688.30728962860621
  0
LINE
  8
_2-0_
  6
CONTINUOUS
 62
    7
 10
461.23509678841458
 20
688.30728962860621
 11
461.23509678841458
 21
652.26228962860614
  0
LINE
  8
_2-0_
  6
CONTINUOUS
 62
    7
 10
461.23509678841458
 20
652.26228962860614
 11
461.23509678841458
 21
615.22228962860606
  0
LINE
  8
_2-0_
  6
CONTINUOUS
 62
    7
 10
659.67509678841463
 20
472.34728962860618
 11
659.67509678841463
 21
296.83778962860617
  0
LINE
  8
_2-0_
  6
CONTINUOUS
 62
    7
 10
643.79509678841464
 20
472.34728962860618
 11
659.67509678841463
 21
472.34728962860618
  0
LINE
  8
_2-0_
  6
CONTINUOUS
 62
    7
 10
643.79509678841464
 20
489.10228962860617
 11
643.79509678841464
 21
472.34728962860618
  0
LINE
  8
_2-0_
  6
CONTINUOUS
 62
    7
 10
625.27509678841466
 20
489.10228962860617
 11
643.79509678841464
 21
489.10228962860617
  0
LINE
  8
_2-0_
  6
CONTINUOUS
 62
    7
 10
625.27509678841466
 20
509.41228962860623
 11
625.27509678841466
 21
489.10228962860617
  0
LINE
  8
_2-0_
  6
CONTINUOUS
 62
    7
 10
603.61009678841469
 20
524.8222896286062
 11
625.27509678841466
 21
509.41228962860623
  0
LINE
  8
_2-0_
  6
CONTINUOUS
 62
    7
 10
582.94509678841462
 20
524.8222896286062
 11
603.61009678841469
 21
524.8222896286062
  0
LINE
  8
_2-0_
  6
CONTINUOUS
 62
    7
 10
582.94509678841462
 20
522.61728962860616
 11
582.94509678841462
 21
524.8222896286062
  0
LINE
  8
_2-0_
  6
CONTINUOUS
 62
    7
 10
565.42009678841464
 20
522.61728962860616
 11
582.94509678841462
 21
522.61728962860616
  0
LINE
  8
_2-0_
  6
CONTINUOUS
 62
    7
 10
565.42009678841464
 20
534.52228962860613
 11
565.42009678841464
 21
522.61728962860616
  0
LINE
  8
_2-0_
  6
CONTINUOUS
 62
    7
 10
377.66009678841453
 20
695.36228962860616
 11
457.80009678841463
 21
615.22228962860606
  0
LINE
  8
_2-0_
  6
CONTINUOUS
 62
    7
 10
363.51796116468364
 20
695.36228962860616
 11
443.65796116468374
 21
615.22228962860606
  0
LINE
  8
_2-0_
  6
CONTINUOUS
 62
    7
 10
323.41009678841459
 20
615.22228962860606
 11
467.8400967884146
 21
615.22228962860606
  0
LINE
  8
_2-0_
  6
CONTINUOUS
 62
    7
 10
450.51924814211998
 20
696.46228962860619
 11
444.01924814211998
 21
697.26228962860614
  0
LINE
  8
_2-0_
  6
CONTINUOUS
 62
    7
 10
444.15361886359761
 20
698.35405174061123
 11
444.01924814211998
 21
697.26228962860614
  0
LINE
  8
_2-0_
  6
CONTINUOUS
 62
    7
 10
403.52066961486184
 20
696.46228962860619
 11
410.02066961486196
 21
697.26228962860614
  0
LINE
  8
_2-0_
  6
CONTINUOUS
 62
    7
 10
409.88629889338438
 20
698.35405174061123
 11
410.02066961486196
 21
697.26228962860614
  0
ARC
  8
_2-0_
  6
CONTINUOUS
 62
    7
 10
450.51924814211998
 20
697.96228962860619
 40
1.5000000000000002
 50
270
 51
90
  0
LINE
  8
_2-0_
  6
CONTINUOUS
 62
    7
 10
403.52066961486184
 20
699.46228962860619
 11
450.51924814211998
 21
699.46228962860619
  0
ARC
  8
_2-0_
  6
CONTINUOUS
 62
    7
 10
403.52066961486184
 20
697.96228962860619
 40
1.5000000000000002
 50
90
 51
270
  0
LINE
  8
_2-0_
  6
CONTINUOUS
 62
    7
 10
450.5651840835078
 20
697.56493602123771
 11
444.15361886359761
 21
698.35405174061123
  0
ARC
  8
_2-0_
  6
CONTINUOUS
 62
    7
 10
450.51924814211998
 20
697.96228962860619
 40
0.4000000000000056
 50
276.59438813161881
 51
90
  0
LINE
  8
_2-0_
  6
CONTINUOUS
 62
    7
 10
403.47473367347402
 20
697.56493602123771
 11
409.88629889338438
 21
698.35405174061123
  0
ARC
  8
_2-0_
  6
CONTINUOUS
 62
    7
 10
403.52066961486184
 20
697.96228962860619
 40
0.4000000000000056
 50
90
 51
263.40561186838067
  0
LINE
  8
_2-0_
  6
CONTINUOUS
 62
    7
 10
430.02009678841478
 20
696.63246022082353
 11
430.02009678841478
 21
695.36228962860616
  0
LINE
  8
_2-0_
  6
CONTINUOUS
 62
    7
 10
430.02009678841478
 20
696.63246022082353
 11
434.92150509944707
 21
699.46228962860619
  0
LINE
  8
_2-0_
  6
CONTINUOUS
 62
    7
 10
424.02009678841466
 20
696.63246022082353
 11
424.02009678841466
 21
695.36228962860616
  0
LINE
  8
_2-0_
  6
CONTINUOUS
 62
    7
 10
424.02009678841466
 20
696.63246022082353
 11
419.11868847738231
 21
699.46228962860619
  0
LINE
  8
_2-0_
  6
CONTINUOUS
 62
    7
 10
418.82394436570803
 20
698.36228962860616
 11
403.52066961486184
 21
698.36228962860616
  0
LINE
  8
_2-0_
  6
CONTINUOUS
 62
    7
 10
424.02009678841466
 20
695.36228962860616
 11
418.82394436570803
 21
698.36228962860616
  0
LINE
  8
_2-0_
  6
CONTINUOUS
 62
    7
 10
435.21624921112135
 20
698.36228962860616
 11
450.51924814211998
 21
698.36228962860616
  0
LINE
  8
_2-0_
  6
CONTINUOUS
 62
    7
 10
430.02009678841478
 20
695.36228962860616
 11
435.21624921112135
 21
698.36228962860616
  0
LINE
  8
_2-0_
  6
CONTINUOUS
 62
    7
 10
996.30094543470932
 20
696.46228962860619
 11
1002.8009454347092
 21
697.26228962860614
  0
LINE
  8
_2-0_
  6
CONTINUOUS
 62
    7
 10
1002.6665747132317
 20
698.35405174061123
 11
1002.8009454347092
 21
697.26228962860614
  0
LINE
  8
_2-0_
  6
CONTINUOUS
 62
    7
 10
1043.2995239619675
 20
696.46228962860619
 11
1036.7995239619675
 21
697.26228962860614
  0
LINE
  8
_2-0_
  6
CONTINUOUS
 62
    7
 10
1036.933894683445
 20
698.35405174061123
 11
1036.7995239619675
 21
697.26228962860614
  0
ARC
  8
_2-0_
  6
CONTINUOUS
 62
    7
 10
996.30094543470932
 20
697.96228962860619
 40
1.5000000000000002
 50
90
 51
270
  0
LINE
  8
_2-0_
  6
CONTINUOUS
 62
    7
 10
1043.2995239619675
 20
699.46228962860619
 11
996.30094543470932
 21
699.46228962860619
  0
ARC
  8
_2-0_
  6
CONTINUOUS
 62
    7
 10
1043.2995239619675
 20
697.96228962860619
 40
1.5000000000000002
 50
270
 51
90
  0
LINE
  8
_2-0_
  6
CONTINUOUS
 62
    7
 10
996.2550094933215
 20
697.56493602123771
 11
1002.6665747132317
 21
698.35405174061123
  0
ARC
  8
_2-0_
  6
CONTINUOUS
 62
    7
 10
996.30094543470932
 20
697.96228962860619
 40
0.4000000000000056
 50
90
 51
263.40561186838119
  0
LINE
  8
_2-0_
  6
CONTINUOUS
 62
    7
 10
1043.3454599033553
 20
697.56493602123771
 11
1036.933894683445
 21
698.35405174061123
  0
ARC
  8
_2-0_
  6
CONTINUOUS
 62
    7
 10
1043.2995239619675
 20
697.96228962860619
 40
0.4000000000000056
 50
276.59438813161933
 51
90
  0
LINE
  8
_2-0_
  6
CONTINUOUS
 62
    7
 10
1016.8000967884145
 20
696.63246022082353
 11
1016.8000967884145
 21
695.36228962860616
  0
LINE
  8
_2-0_
  6
CONTINUOUS
 62
    7
 10
1016.8000967884145
 20
696.63246022082353
 11
1011.8986884773823
 21
699.46228962860619
  0
LINE
  8
_2-0_
  6
CONTINUOUS
 62
    7
 10
1022.8000967884146
 20
696.63246022082353
 11
1022.8000967884146
 21
695.36228962860616
  0
LINE
  8
_2-0_
  6
CONTINUOUS
 62
    7
 10
1022.8000967884146
 20
696.63246022082353
 11
1027.7015050994469
 21
699.46228962860619
  0
LINE
  8
_2-0_
  6
CONTINUOUS
 62
    7
 10
1027.9962492111213
 20
698.36228962860616
 11
1043.2995239619675
 21
698.36228962860616
  0
LINE
  8
_2-0_
  6
CONTINUOUS
 62
    7
 10
1022.8000967884146
 20
695.36228962860616
 11
1027.9962492111213
 21
698.36228962860616
  0
LINE
  8
_2-0_
  6
CONTINUOUS
 62
    7
 10
1011.603944365708
 20
698.36228962860616
 11
996.30094543470932
 21
698.36228962860616
  0
LINE
  8
_2-0_
  6
CONTINUOUS
 62
    7
 10
1016.8000967884145
 20
695.36228962860616
 11
1011.603944365708
 21
698.36228962860616
  0
LINE
  8
_2-0_
  6
CONTINUOUS
 62
    7
 10
450.49431035078771
 20
700.46228962860619
 11
461.07172252023361
 21
689.88487745916029
  0
LINE
  8
_2-0_
  6
CONTINUOUS
 62
    7
 10
403.52066961486184
 20
700.46228962860619
 11
450.49431035078771
 21
700.46228962860619
  0
LINE
  8
_2-0_
  6
CONTINUOUS
 62
    7
 10
451.11563069434737
 20
701.96228962860619
 11
461.82416111796209
 21
691.25375920499152
  0
LINE
  8
_2-0_
  6
CONTINUOUS
 62
    7
 10
403.52066961486184
 20
701.96228962860619
 11
451.11563069434737
 21
701.96228962860619
  0
LINE
  8
_2-0_
  6
CONTINUOUS
 62
    7
 10
403.52066961486184
 20
700.46228962860619
 11
403.52066961486184
 21
701.96228962860619
  0
LINE
  8
_2-0_
  6
CONTINUOUS
 62
    7
 10
323.41009678841459
 20
698.86228962860628
 11
393.41926130382956
 21
698.86228962860628
  0
LINE
  8
_2-0_
  6
CONTINUOUS
 62
    7
 10
403.11874582621527
 20
704.46228962860619
 11
393.41926130382956
 21
698.86228962860628
  0
LINE
  8
_2-0_
  6
CONTINUOUS
 62
    7
 10
403.52066961486184
 20
702.96228962860619
 11
393.8211850924763
 21
697.36228962860628
  0
LINE
  8
_2-0_
  6
CONTINUOUS
 62
    7
 10
323.41009678841459
 20
697.36228962860628
 11
393.8211850924763
 21
697.36228962860628
  0
LINE
  8
_2-0_
  6
CONTINUOUS
 62
    7
 10
446.09718935424883
 20
704.81342864969929
 11
448.94832837534193
 21
701.96228962860619
  0
LINE
  8
_2-0_
  6
CONTINUOUS
 62
    7
 10
403.52066961486184
 20
702.96228962860619
 11
444.01924814211998
 21
702.96228962860619
  0
LINE
  8
_2-0_
  6
CONTINUOUS
 62
    7
 10
444.01924814211998
 20
702.96228962860619
 11
444.01924814211998
 21
704.46228962860619
  0
LINE
  8
_2-0_
  6
CONTINUOUS
 62
    7
 10
403.11874582621527
 20
704.46228962860619
 11
444.01924814211998
 21
704.46228962860619
  0
ARC
  8
_2-0_
  6
CONTINUOUS
 62
    7
 10
444.01924814211998
 20
701.96228962860619
 40
3.5280070009373969
 50
53.915026256270174
 51
134.87763027616944
  0
LINE
  8
_2-0_
  6
CONTINUOUS
 62
    7
 10
672.02009678841466
 20
649.41728962860623
 11
637.63211676681624
 21
649.41728962860623
  0
LINE
  8
_2-0_
  6
CONTINUOUS
 62
    7
 10
637.63211676681624
 20
649.41728962860623
 11
460.57009678841467
 21
688.97228962860606
  0
LINE
  8
_2-0_
  6
CONTINUOUS
 62
    7
 10
666.94509678841473
 20
501.45228962860614
 11
666.94509678841473
 21
649.41728962860623
  0
LINE
  8
_2-0_
  6
CONTINUOUS
 62
    7
 10
779.87509678841457
 20
501.45228962860614
 11
779.87509678841457
 21
649.41728962860623
  0
LINE
  8
_2-0_
  6
CONTINUOUS
 62
    7
 10
809.18807681001294
 20
649.41728962860623
 11
986.25009678841457
 21
688.97228962860606
  0
LINE
  8
_2-0_
  6
CONTINUOUS
 62
    7
 10
787.14509678841455
 20
472.34728962860618
 11
787.14509678841455
 21
296.83778962860617
  0
LINE
  8
_2-0_
  6
CONTINUOUS
 62
    7
 10
803.02509678841466
 20
472.34728962860618
 11
787.14509678841455
 21
472.34728962860618
  0
LINE
  8
_2-0_
  6
CONTINUOUS
 62
    7
 10
803.02509678841466
 20
489.10228962860617
 11
803.02509678841466
 21
472.34728962860618
  0
LINE
  8
_2-0_
  6
CONTINUOUS
 62
    7
 10
821.54509678841453
 20
489.10228962860617
 11
803.02509678841466
 21
489.10228962860617
  0
LINE
  8
_2-0_
  6
CONTINUOUS
 62
    7
 10
821.54509678841453
 20
509.41228962860612
 11
821.54509678841453
 21
489.10228962860617
  0
LINE
  8
_2-0_
  6
CONTINUOUS
 62
    7
 10
843.21009678841449
 20
524.8222896286062
 11
821.54509678841453
 21
509.41228962860612
  0
LINE
  8
_2-0_
  6
CONTINUOUS
 62
    7
 10
863.87509678841457
 20
524.8222896286062
 11
843.21009678841449
 21
524.8222896286062
  0
LINE
  8
_2-0_
  6
CONTINUOUS
 62
    7
 10
863.87509678841457
 20
522.61728962860616
 11
863.87509678841457
 21
524.8222896286062
  0
LINE
  8
_2-0_
  6
CONTINUOUS
 62
    7
 10
881.40009678841454
 20
522.61728962860616
 11
863.87509678841457
 21
522.61728962860616
  0
LINE
  8
_2-0_
  6
CONTINUOUS
 62
    7
 10
881.40009678841454
 20
534.52228962860613
 11
881.40009678841454
 21
522.61728962860616
  0
LINE
  8
_2-0_
  6
CONTINUOUS
 62
    7
 10
787.14509678841455
 20
495.27728962860624
 11
793.43009678841452
 21
495.27728962860624
  0
LINE
  8
_2-0_
  6
CONTINUOUS
 62
    7
 10
793.43009678841452
 20
495.27728962860624
 11
793.43009678841452
 21
501.45228962860614
  0
LINE
  8
_2-0_
  6
CONTINUOUS
 62
    7
 10
793.43009678841452
 20
501.45228962860614
 11
809.30509678841463
 21
501.45228962860614
  0
LINE
  8
_2-0_
  6
CONTINUOUS
 62
    7
 10
809.30509678841463
 20
501.45228962860614
 11
809.30509678841463
 21
516.44728962860631
  0
LINE
  8
_2-0_
  6
CONTINUOUS
 62
    7
 10
809.30509678841463
 20
516.44728962860631
 11
814.78509678841465
 21
516.67228962860622
  0
LINE
  8
_2-0_
  6
CONTINUOUS
 62
    7
 10
814.78509678841465
 20
516.67228962860622
 11
840.12009678841446
 21
534.52228962860613
  0
LINE
  8
_2-0_
  6
CONTINUOUS
 62
    7
 10
840.12009678841446
 20
534.52228962860613
 11
881.40009678841454
 21
534.52228962860613
  0
LINE
  8
_2-0_
  6
CONTINUOUS
 62
    7
 10
787.14509678841455
 20
501.45228962860614
 11
787.14509678841455
 21
495.27728962860624
  0
LINE
  8
_2-0_
  6
CONTINUOUS
 62
    7
 10
774.80009678841452
 20
501.45228962860614
 11
787.14509678841455
 21
501.45228962860614
  0
ARC
  8
_2-0_
  6
CONTINUOUS
 62
    7
 10
820.73873428841455
 20
524.00650212860614
 40
8.8059161207997576
 50
161.45450982262443
 51
197.81561750591374
  0
ARC
  8
_2-0_
  6
CONTINUOUS
 62
    7
 10
815.40373428841463
 20
522.91705212860609
 40
3.4452072924299721
 50
207.76172599187149
 51
244.12283367516079
  0
ARC
  8
_2-0_
  6
CONTINUOUS
 62
    7
 10
816.74960193547338
 20
526.65100065801789
 40
7.4040047282953001
 50
247.36495177655064
 51
286.77697346090315
  0
LINE
  8
_2-0_
  6
CONTINUOUS
 62
    7
 10
837.03009678841454
 20
544.22228962860618
 11
812.39009678841455
 21
526.8072896286061
  0
LINE
  8
_2-0_
  6
CONTINUOUS
 62
    7
 10
878.31009678841451
 20
544.22228962860618
 11
837.03009678841454
 21
544.22228962860618
  0
LINE
  8
_2-0_
  6
CONTINUOUS
 62
    7
 10
978.98009678841458
 20
615.22228962860606
 11
878.31009678841451
 21
544.22228962860618
  0
LINE
  8
_2-0_
  6
CONTINUOUS
 62
    7
 10
1123.4100967884146
 20
615.22228962860606
 11
978.98009678841458
 21
615.22228962860606
  0
LINE
  8
_2-0_
  6
DASHED3
 62
    7
 10
323.41009678841459
 20
696.36228962860628
 11
454.18009678841457
 21
696.36228962860628
  0
ARC
  8
_2-0_
  6
CONTINUOUS
 62
    7
 10
691.5425967884147
 20
243.95896365630321
 40
61.739029733703312
 50
58.924671434729866
 51
121.07532856527014
  0
ARC
  8
_2-0_
  6
CONTINUOUS
 62
    7
 10
691.5425967884147
 20
349.71661560090911
 40
61.739029733703312
 50
238.92467143472987
 51
301.07532856527013
  0
ARC
  8
_2-0_
  6
CONTINUOUS
 62
    7
 10
755.2775967884146
 20
349.71661560090911
 40
61.739029733703312
 50
238.92467143472987
 51
301.07532856527013
  0
LINE
  8
_2-0_
  6
CONTINUOUS
 62
    7
 10
672.02009678841466
 20
302.53011514070806
 11
672.02009678841466
 21
649.41728962860623
  0
CIRCLE
  8
_2-0_
  6
CONTINUOUS
 62
    7
 10
470.01491841308734
 20
682.75800955694535
 40
0.418475051889444
  0
CIRCLE
  8
_2-0_
  6
CONTINUOUS
 62
    7
 10
473.29000373328114
 20
678.26646397496529
 40
0.8369501037788641
  0
CIRCLE
  8
_2-0_
  6
CONTINUOUS
 62
    7
 10
465.7269292511437
 20
680.8625844169984
 40
1.5587436147990275
  0
CIRCLE
  8
_2-0_
  6
CONTINUOUS
 62
    7
 10
470.17102268291922
 20
673.07954482737068
 40
0.418475051889444
  0
CIRCLE
  8
_2-0_
  6
CONTINUOUS
 62
    7
 10
473.44610800311301
 20
668.58799924539062
 40
0.8369501037788641
  0
CIRCLE
  8
_2-0_
  6
CONTINUOUS
 62
    7
 10
465.88303352097557
 20
671.18411968742384
 40
1.5587436147990275
  0
CIRCLE
  8
_2-0_
  6
CONTINUOUS
 62
    7
 10
486.8741795549272
 20
677.29436011283065
 40
0.418475051889444
  0
CIRCLE
  8
_2-0_
  6
CONTINUOUS
 62
    7
 10
490.14926487512099
 20
672.80281453085058
 40
0.8369501037788641
  0
CIRCLE
  8
_2-0_
  6
CONTINUOUS
 62
    7
 10
482.58619039298367
 20
675.39893497288381
 40
1.5587436147990275
  0
CIRCLE
  8
_2-0_
  6
CONTINUOUS
 62
    7
 10
485.15703258677689
 20
668.39641673241522
 40
0.418475051889444
  0
CIRCLE
  8
_2-0_
  6
CONTINUOUS
 62
    7
 10
488.43211790697069
 20
663.90487115043516
 40
0.8369501037788641
  0
CIRCLE
  8
_2-0_
  6
CONTINUOUS
 62
    7
 10
480.86904342483319
 20
666.50099159246815
 40
1.5587436147990275
  0
CIRCLE
  8
_2-0_
  6
CONTINUOUS
 62
    7
 10
471.2637525717422
 20
661.21562032015004
 40
0.418475051889444
  0
CIRCLE
  8
_2-0_
  6
CONTINUOUS
 62
    7
 10
474.53883789193594
 20
656.72407473816997
 40
0.8369501037788641
  0
CIRCLE
  8
_2-0_
  6
CONTINUOUS
 62
    7
 10
466.9757634097985
 20
659.32019518020309
 40
1.5587436147990275
  0
CIRCLE
  8
_2-0_
  6
CONTINUOUS
 62
    7
 10
486.8741795549272
 20
657.00080503468996
 40
0.418475051889444
  0
CIRCLE
  8
_2-0_
  6
CONTINUOUS
 62
    7
 10
490.14926487512099
 20
652.5092594527099
 40
0.8369501037788641
  0
CIRCLE
  8
_2-0_
  6
CONTINUOUS
 62
    7
 10
482.58619039298367
 20
655.10537989474301
 40
1.5587436147990275
  0
CIRCLE
  8
_2-0_
  6
CONTINUOUS
 62
    7
 10
508.26046452189075
 20
670.73798077989295
 40
0.418475051889444
  0
CIRCLE
  8
_2-0_
  6
CONTINUOUS
 62
    7
 10
511.53554984208455
 20
666.24643519791277
 40
0.8369501037788641
  0
CIRCLE
  8
_2-0_
  6
CONTINUOUS
 62
    7
 10
503.97247535994723
 20
668.842555639946
 40
1.5587436147990275
  0
CIRCLE
  8
_2-0_
  6
CONTINUOUS
 62
    7
 10
501.86018945878487
 20
661.99614166930928
 40
0.418475051889444
  0
CIRCLE
  8
_2-0_
  6
CONTINUOUS
 62
    7
 10
505.13527477897867
 20
657.50459608732922
 40
0.8369501037788641
  0
CIRCLE
  8
_2-0_
  6
CONTINUOUS
 62
    7
 10
497.57220029684134
 20
660.10071652936233
 40
1.5587436147990275
  0
CIRCLE
  8
_2-0_
  6
CONTINUOUS
 62
    7
 10
503.88954496659892
 20
650.13221716208864
 40
0.418475051889444
  0
CIRCLE
  8
_2-0_
  6
CONTINUOUS
 62
    7
 10
507.16463028679271
 20
645.64067158010857
 40
0.8369501037788641
  0
CIRCLE
  8
_2-0_
  6
CONTINUOUS
 62
    7
 10
499.60155580465539
 20
648.23679202214169
 40
1.5587436147990275
  0
CIRCLE
  8
_2-0_
  6
CONTINUOUS
 62
    7
 10
475.63467212703404
 20
649.19559154309752
 40
0.418475051889444
  0
CIRCLE
  8
_2-0_
  6
CONTINUOUS
 62
    7
 10
478.90975744722778
 20
644.70404596111746
 40
0.8369501037788641
  0
CIRCLE
  8
_2-0_
  6
CONTINUOUS
 62
    7
 10
471.34668296509034
 20
647.30016640315057
 40
1.5587436147990275
  0
CIRCLE
  8
_2-0_
  6
CONTINUOUS
 62
    7
 10
490.62068203089166
 20
639.51712681352274
 40
0.418475051889444
  0
CIRCLE
  8
_2-0_
  6
CONTINUOUS
 62
    7
 10
493.89576735108551
 20
635.02558123154267
 40
0.8369501037788641
  0
CIRCLE
  8
_2-0_
  6
CONTINUOUS
 62
    7
 10
486.33269286894802
 20
637.62170167357579
 40
1.5587436147990275
  0
CIRCLE
  8
_2-0_
  6
CONTINUOUS
 62
    7
 10
470.51427468533359
 20
635.22810286948743
 40
0.418475051889444
  0
CIRCLE
  8
_2-0_
  6
CONTINUOUS
 62
    7
 10
475.00582026731365
 20
638.50318818968117
 40
0.8369501037788641
  0
CIRCLE
  8
_2-0_
  6
CONTINUOUS
 62
    7
 10
472.40969982528054
 20
630.94011370754379
 40
1.5587436147990275
  0
CIRCLE
  8
_2-0_
  6
CONTINUOUS
 62
    7
 10
484.87586750986384
 20
626.48626375890376
 40
0.418475051889444
  0
CIRCLE
  8
_2-0_
  6
CONTINUOUS
 62
    7
 10
489.36741309184401
 20
629.7613490790975
 40
0.8369501037788641
  0
CIRCLE
  8
_2-0_
  6
CONTINUOUS
 62
    7
 10
486.77129264981079
 20
622.19827459696012
 40
1.5587436147990275
  0
CIRCLE
  8
_2-0_
  6
CONTINUOUS
 62
    7
 10
507.82319517514594
 20
636.94524983763779
 40
0.418475051889444
  0
CIRCLE
  8
_2-0_
  6
CONTINUOUS
 62
    7
 10
512.31474075712595
 20
640.22033515783164
 40
0.8369501037788641
  0
CIRCLE
  8
_2-0_
  6
CONTINUOUS
 62
    7
 10
509.71862031509289
 20
632.65726067569415
 40
1.5587436147990275
  0
CIRCLE
  8
_2-0_
  6
CONTINUOUS
 62
    7
 10
490.80782976347422
 20
648.4969658051948
 40
0.418475051889444
  0
CIRCLE
  8
_2-0_
  6
CONTINUOUS
 62
    7
 10
495.29937534545422
 20
651.77205112538854
 40
0.8369501037788641
  0
CIRCLE
  8
_2-0_
  6
CONTINUOUS
 62
    7
 10
492.70325490342117
 20
644.20897664325116
 40
1.5587436147990275
  0
CIRCLE
  8
_2-0_
  6
CONTINUOUS
 62
    7
 10
513.28684461926071
 20
658.01932626493772
 40
0.418475051889444
  0
CIRCLE
  8
_2-0_
  6
CONTINUOUS
 62
    7
 10
517.77839020124077
 20
661.29441158513146
 40
0.8369501037788641
  0
CIRCLE
  8
_2-0_
  6
CONTINUOUS
 62
    7
 10
515.18226975920766
 20
653.73133710299396
 40
1.5587436147990275
  0
CIRCLE
  8
_2-0_
  6
CONTINUOUS
 62
    7
 10
498.30083471540308
 20
630.54497477453185
 40
0.418475051889444
  0
CIRCLE
  8
_2-0_
  6
CONTINUOUS
 62
    7
 10
502.79238029738309
 20
633.8200600947257
 40
0.8369501037788641
  0
CIRCLE
  8
_2-0_
  6
CONTINUOUS
 62
    7
 10
500.19625985535004
 20
626.25698561258832
 40
1.5587436147990275
  0
CIRCLE
  8
_2-0_
  6
CONTINUOUS
 62
    7
 10
516.8772428253933
 20
621.80313566394818
 40
0.418475051889444
  0
CIRCLE
  8
_2-0_
  6
CONTINUOUS
 62
    7
 10
521.36878840737336
 20
625.07822098414204
 40
0.8369501037788641
  0
CIRCLE
  8
_2-0_
  6
CONTINUOUS
 62
    7
 10
518.77266796534013
 20
617.51514650200465
 40
1.5587436147990275
  0
CIRCLE
  8
_2-0_
  6
CONTINUOUS
 62
    7
 10
506.26215247682751
 20
609.78310688689578
 40
0.418475051889444
  0
CIRCLE
  8
_2-0_
  6
CONTINUOUS
 62
    7
 10
510.75369805880757
 20
613.05819220708952
 40
0.8369501037788641
  0
CIRCLE
  8
_2-0_
  6
CONTINUOUS
 62
    7
 10
508.15757761677435
 20
605.49511772495202
 40
1.5587436147990275
  0
CIRCLE
  8
_2-0_
  6
CONTINUOUS
 62
    7
 10
472.85583873281143
 20
622.2714484734438
 40
0.418475051889444
  0
CIRCLE
  8
_2-0_
  6
CONTINUOUS
 62
    7
 10
477.34738431479144
 20
625.54653379363754
 40
0.8369501037788641
  0
CIRCLE
  8
_2-0_
  6
CONTINUOUS
 62
    7
 10
474.75126387275822
 20
617.98345931150016
 40
1.5587436147990275
  0
CIRCLE
  8
_2-0_
  6
CONTINUOUS
 62
    7
 10
492.13087258070431
 20
610.43856742897378
 40
0.418475051889444
  0
CIRCLE
  8
_2-0_
  6
CONTINUOUS
 62
    7
 10
488.85578726051051
 20
614.93011301095385
 40
0.8369501037788641
  0
CIRCLE
  8
_2-0_
  6
CONTINUOUS
 62
    7
 10
496.41886174264801
 20
612.33399256892073
 40
1.5587436147990275
  0
CIRCLE
  8
_2-0_
  6
CONTINUOUS
 62
    7
 10
515.23430451581828
 20
591.08163796982433
 40
0.418475051889444
  0
CIRCLE
  8
_2-0_
  6
CONTINUOUS
 62
    7
 10
511.95921919562454
 20
595.57318355180439
 40
0.8369501037788641
  0
CIRCLE
  8
_2-0_
  6
CONTINUOUS
 62
    7
 10
519.52229367776204
 20
592.97706310977128
 40
1.5587436147990275
  0
CIRCLE
  8
_2-0_
  6
CONTINUOUS
 62
    7
 10
528.03485464203004
 20
639.47396161769802
 40
0.418475051889444
  0
CIRCLE
  8
_2-0_
  6
CONTINUOUS
 62
    7
 10
524.7597693218363
 20
643.9655071996782
 40
0.8369501037788641
  0
CIRCLE
  8
_2-0_
  6
CONTINUOUS
 62
    7
 10
532.32284380397368
 20
641.36938675764497
 40
1.5587436147990275
  0
CIRCLE
  8
_2-0_
  6
CONTINUOUS
 62
    7
 10
530.75625794572773
 20
659.50689973368651
 40
0.418475051889444
  0
CIRCLE
  8
_2-0_
  6
CONTINUOUS
 62
    7
 10
536.28359318207515
 20
660.09743402954564
 40
0.8369501037788641
  0
CIRCLE
  8
_2-0_
  6
CONTINUOUS
 62
    7
 10
530.25374968692165
 20
654.84567961831749
 40
1.5587436147990275
  0
CIRCLE
  8
_2-0_
  6
CONTINUOUS
 62
    7
 10
524.51208715245366
 20
670.12199008225241
 40
0.418475051889444
  0
CIRCLE
  8
_2-0_
  6
CONTINUOUS
 62
    7
 10
530.03942238880097
 20
670.71252437811165
 40
0.8369501037788641
  0
CIRCLE
  8
_2-0_
  6
CONTINUOUS
 62
    7
 10
524.00957889364759
 20
665.46076996688328
 40
1.5587436147990275
  0
CIRCLE
  8
_2-0_
  6
CONTINUOUS
 62
    7
 10
539.18588851664765
 20
628.28604576731641
 40
0.418475051889444
  0
CIRCLE
  8
_2-0_
  6
CONTINUOUS
 62
    7
 10
544.71322375299508
 20
628.87658006317565
 40
0.8369501037788641
  0
CIRCLE
  8
_2-0_
  6
CONTINUOUS
 62
    7
 10
538.68338025784158
 20
623.62482565194728
 40
1.5587436147990275
  0
CIRCLE
  8
_2-0_
  6
CONTINUOUS
 62
    7
 10
529.19521524740912
 20
605.18261383220238
 40
0.418475051889444
  0
CIRCLE
  8
_2-0_
  6
CONTINUOUS
 62
    7
 10
534.72255048375655
 20
605.77314812806162
 40
0.8369501037788641
  0
CIRCLE
  8
_2-0_
  6
CONTINUOUS
 62
    7
 10
528.69270698860305
 20
600.52139371683336
 40
1.5587436147990275
  0
CIRCLE
  8
_2-0_
  6
CONTINUOUS
 62
    7
 10
548.55214470655869
 20
649.51622646444798
 40
0.418475051889444
  0
CIRCLE
  8
_2-0_
  6
CONTINUOUS
 62
    7
 10
554.07947994290612
 20
650.10676076030734
 40
0.8369501037788641
  0
CIRCLE
  8
_2-0_
  6
CONTINUOUS
 62
    7
 10
548.04963644775262
 20
644.85500634907908
 40
1.5587436147990275
  0
CIRCLE
  8
_2-0_
  6
CONTINUOUS
 62
    7
 10
572.27999372099998
 20
626.41279452933406
 40
0.418475051889444
  0
CIRCLE
  8
_2-0_
  6
CONTINUOUS
 62
    7
 10
577.80732895734741
 20
627.00332882519342
 40
0.8369501037788641
  0
CIRCLE
  8
_2-0_
  6
CONTINUOUS
 62
    7
 10
571.77748546219391
 20
621.75157441396505
 40
1.5587436147990275
  0
CIRCLE
  8
_2-0_
  6
CONTINUOUS
 62
    7
 10
571.79490234345405
 20
652.16157266990263
 40
0.418475051889444
  0
CIRCLE
  8
_2-0_
  6
CONTINUOUS
 62
    7
 10
575.06998766364791
 20
647.67002708792256
 40
0.8369501037788641
  0
CIRCLE
  8
_2-0_
  6
CONTINUOUS
 62
    7
 10
567.50691318151053
 20
650.26614752995567
 40
1.5587436147990275
  0
CIRCLE
  8
_2-0_
  6
CONTINUOUS
 62
    7
 10
561.80422907421564
 20
634.6778944487354
 40
0.418475051889444
  0
CIRCLE
  8
_2-0_
  6
CONTINUOUS
 62
    7
 10
565.07931439440949
 20
630.18634886675522
 40
0.8369501037788641
  0
CIRCLE
  8
_2-0_
  6
CONTINUOUS
 62
    7
 10
557.51623991227211
 20
632.78246930878845
 40
1.5587436147990275
  0
CIRCLE
  8
_2-0_
  6
CONTINUOUS
 62
    7
 10
558.05772659825129
 20
602.20820632371033
 40
0.418475051889444
  0
CIRCLE
  8
_2-0_
  6
CONTINUOUS
 62
    7
 10
561.33281191844503
 20
597.71666074173038
 40
0.8369501037788641
  0
CIRCLE
  8
_2-0_
  6
CONTINUOUS
 62
    7
 10
553.76973743630754
 20
600.31278118376338
 40
1.5587436147990275
  0
CIRCLE
  8
_2-0_
  6
CONTINUOUS
 62
    7
 10
553.68680704295934
 20
623.43838702084213
 40
0.418475051889444
  0
CIRCLE
  8
_2-0_
  6
CONTINUOUS
 62
    7
 10
556.9618923631532
 20
618.94684143886207
 40
0.8369501037788641
  0
CIRCLE
  8
_2-0_
  6
CONTINUOUS
 62
    7
 10
549.3988178810157
 20
621.54296188089518
 40
1.5587436147990275
  0
CIRCLE
  8
_2-0_
  6
CONTINUOUS
 62
    7
 10
546.81821917035802
 20
594.09078429245415
 40
0.418475051889444
  0
CIRCLE
  8
_2-0_
  6
CONTINUOUS
 62
    7
 10
550.09330449055176
 20
589.59923871047408
 40
0.8369501037788641
  0
CIRCLE
  8
_2-0_
  6
CONTINUOUS
 62
    7
 10
542.53023000841438
 20
592.19535915250719
 40
1.5587436147990275
  0
CIRCLE
  8
_2-0_
  6
CONTINUOUS
 62
    7
 10
558.05772659825129
 20
574.10943775397732
 40
0.418475051889444
  0
CIRCLE
  8
_2-0_
  6
CONTINUOUS
 62
    7
 10
561.33281191844503
 20
569.61789217199714
 40
0.8369501037788641
  0
CIRCLE
  8
_2-0_
  6
CONTINUOUS
 62
    7
 10
553.76973743630754
 20
572.21401261403025
 40
1.5587436147990275
  0
CIRCLE
  8
_2-0_
  6
CONTINUOUS
 62
    7
 10
577.41465605740075
 20
557.25017661213735
 40
0.418475051889444
  0
CIRCLE
  8
_2-0_
  6
CONTINUOUS
 62
    7
 10
580.6897413775946
 20
552.75863103015718
 40
0.8369501037788641
  0
CIRCLE
  8
_2-0_
  6
CONTINUOUS
 62
    7
 10
573.12666689545711
 20
555.3547514721904
 40
1.5587436147990275
  0
CIRCLE
  8
_2-0_
  6
CONTINUOUS
 62
    7
 10
603.01575630982427
 20
586.59777934052522
 40
0.418475051889444
  0
CIRCLE
  8
_2-0_
  6
CONTINUOUS
 62
    7
 10
606.29084163001812
 20
582.10623375854527
 40
0.8369501037788641
  0
CIRCLE
  8
_2-0_
  6
CONTINUOUS
 62
    7
 10
598.72776714788063
 20
584.70235420057838
 40
1.5587436147990275
  0
CIRCLE
  8
_2-0_
  6
CONTINUOUS
 62
    7
 10
593.02508304058574
 20
612.19887959294886
 40
0.418475051889444
  0
CIRCLE
  8
_2-0_
  6
CONTINUOUS
 62
    7
 10
596.30016836077959
 20
607.70733401096879
 40
0.8369501037788641
  0
CIRCLE
  8
_2-0_
  6
CONTINUOUS
 62
    7
 10
588.73709387864221
 20
610.3034544530019
 40
1.5587436147990275
  0
CIRCLE
  8
_2-0_
  6
CONTINUOUS
 62
    7
 10
598.64483675453243
 20
640.29764816268198
 40
0.418475051889444
  0
CIRCLE
  8
_2-0_
  6
CONTINUOUS
 62
    7
 10
601.91992207472617
 20
635.80610258070192
 40
0.8369501037788641
  0
CIRCLE
  8
_2-0_
  6
CONTINUOUS
 62
    7
 10
594.35684759258879
 20
638.40222302273503
 40
1.5587436147990275
  0
CIRCLE
  8
_2-0_
  6
CONTINUOUS
 62
    7
 10
626.11918824493819
 20
616.56979914824069
 40
0.418475051889444
  0
CIRCLE
  8
_2-0_
  6
CONTINUOUS
 62
    7
 10
629.39427356513204
 20
612.07825356626063
 40
0.8369501037788641
  0
CIRCLE
  8
_2-0_
  6
CONTINUOUS
 62
    7
 10
621.83119908299454
 20
614.67437400829363
 40
1.5587436147990275
  0
CIRCLE
  8
_2-0_
  6
CONTINUOUS
 62
    7
 10
643.60286646610552
 20
592.21753305447191
 40
0.418475051889444
  0
CIRCLE
  8
_2-0_
  6
CONTINUOUS
 62
    7
 10
646.87795178629926
 20
587.72598747249185
 40
0.8369501037788641
  0
CIRCLE
  8
_2-0_
  6
CONTINUOUS
 62
    7
 10
639.31487730416188
 20
590.32210791452496
 40
1.5587436147990275
  0
CIRCLE
  8
_2-0_
  6
CONTINUOUS
 62
    7
 10
644.22728354543301
 20
565.36759864339365
 40
0.418475051889444
  0
CIRCLE
  8
_2-0_
  6
CONTINUOUS
 62
    7
 10
647.50236886562675
 20
560.87605306141359
 40
0.8369501037788641
  0
CIRCLE
  8
_2-0_
  6
CONTINUOUS
 62
    7
 10
639.93929438348925
 20
563.47217350344658
 40
1.5587436147990275
  0
CIRCLE
  8
_2-0_
  6
CONTINUOUS
 62
    7
 10
601.14250507184215
 20
562.86993032608405
 40
0.418475051889444
  0
CIRCLE
  8
_2-0_
  6
CONTINUOUS
 62
    7
 10
604.41759039203589
 20
558.37838474410387
 40
0.8369501037788641
  0
CIRCLE
  8
_2-0_
  6
CONTINUOUS
 62
    7
 10
596.8545159098984
 20
560.97450518613709
 40
1.5587436147990275
  0
CIRCLE
  8
_2-0_
  6
CONTINUOUS
 62
    7
 10
646.10053478341513
 20
541.63974962895225
 40
0.418475051889444
  0
CIRCLE
  8
_2-0_
  6
CONTINUOUS
 62
    7
 10
649.37562010360898
 20
537.14820404697218
 40
0.8369501037788641
  0
CIRCLE
  8
_2-0_
  6
CONTINUOUS
 62
    7
 10
641.81254562147149
 20
539.74432448900529
 40
1.5587436147990275
  0
CIRCLE
  8
_2-0_
  6
CONTINUOUS
 62
    7
 10
631.11452487955739
 20
589.09544765783494
 40
0.418475051889444
  0
CIRCLE
  8
_2-0_
  6
CONTINUOUS
 62
    7
 10
634.38961019975125
 20
584.60390207585488
 40
0.8369501037788641
  0
CIRCLE
  8
_2-0_
  6
CONTINUOUS
 62
    7
 10
626.82653571761375
 20
587.20002251788799
 40
1.5587436147990275
  0
CIRCLE
  8
_2-0_
  6
CONTINUOUS
 62
    7
 10
653.59353973534394
 20
628.43372365546134
 40
0.418475051889444
  0
CIRCLE
  8
_2-0_
  6
CONTINUOUS
 62
    7
 10
656.86862505553779
 20
623.94217807348127
 40
0.8369501037788641
  0
CIRCLE
  8
_2-0_
  6
CONTINUOUS
 62
    7
 10
649.3055505734003
 20
626.53829851551438
 40
1.5587436147990275
  0
CIRCLE
  8
_2-0_
  6
CONTINUOUS
 62
    7
 10
655.46679097332617
 20
517.28748353518358
 40
0.418475051889444
  0
CIRCLE
  8
_2-0_
  6
CONTINUOUS
 62
    7
 10
658.74187629351991
 20
512.79593795320352
 40
0.8369501037788641
  0
CIRCLE
  8
_2-0_
  6
CONTINUOUS
 62
    7
 10
651.17880181138253
 20
515.39205839523663
 40
1.5587436147990275
  0
CIRCLE
  8
_2-0_
  6
CONTINUOUS
 62
    7
 10
627.22869670181149
 20
637.02788487790008
 40
0.418475051889444
  0
CIRCLE
  8
_2-0_
  6
CONTINUOUS
 62
    7
 10
632.75603193815891
 20
637.61841917375921
 40
0.8369501037788641
  0
CIRCLE
  8
_2-0_
  6
CONTINUOUS
 62
    7
 10
626.72618844300541
 20
632.36666476253095
 40
1.5587436147990275
  0
CIRCLE
  8
_2-0_
  6
CONTINUOUS
 62
    7
 10
586.64158654553034
 20
653.88714601973993
 40
0.418475051889444
  0
CIRCLE
  8
_2-0_
  6
CONTINUOUS
 62
    7
 10
592.16892178187766
 20
654.47768031559917
 40
0.8369501037788641
  0
CIRCLE
  8
_2-0_
  6
CONTINUOUS
 62
    7
 10
586.13907828672427
 20
649.22592590437091
 40
1.5587436147990275
  0
CIRCLE
  8
_2-0_
  6
CONTINUOUS
 62
    7
 10
610.36943555997163
 20
623.29070913269709
 40
0.418475051889444
  0
CIRCLE
  8
_2-0_
  6
CONTINUOUS
 62
    7
 10
615.89677079631895
 20
623.88124342855633
 40
0.8369501037788641
  0
CIRCLE
  8
_2-0_
  6
CONTINUOUS
 62
    7
 10
609.86692730116556
 20
618.62948901732807
 40
1.5587436147990275
  0
CIRCLE
  8
_2-0_
  6
CONTINUOUS
 62
    7
 10
651.58096279558026
 20
609.55353338749421
 40
0.418475051889444
  0
CIRCLE
  8
_2-0_
  6
CONTINUOUS
 62
    7
 10
657.10829803192769
 20
610.14406768335346
 40
0.8369501037788641
  0
CIRCLE
  8
_2-0_
  6
CONTINUOUS
 62
    7
 10
651.07845453677419
 20
604.89231327212519
 40
1.5587436147990275
  0
CIRCLE
  8
_2-0_
  6
CONTINUOUS
 62
    7
 10
610.36943555997163
 20
601.43611135623803
 40
0.418475051889444
  0
CIRCLE
  8
_2-0_
  6
CONTINUOUS
 62
    7
 10
615.89677079631895
 20
602.02664565209727
 40
0.8369501037788641
  0
CIRCLE
  8
_2-0_
  6
CONTINUOUS
 62
    7
 10
609.86692730116556
 20
596.77489124086901
 40
1.5587436147990275
  0
CIRCLE
  8
_2-0_
  6
CONTINUOUS
 62
    7
 10
572.90441080032747
 20
596.44077472161871
 40
0.418475051889444
  0
CIRCLE
  8
_2-0_
  6
CONTINUOUS
 62
    7
 10
578.43174603667478
 20
597.03130901747807
 40
0.8369501037788641
  0
CIRCLE
  8
_2-0_
  6
CONTINUOUS
 62
    7
 10
572.40190254152128
 20
591.77955460624969
 40
1.5587436147990275
  0
CIRCLE
  8
_2-0_
  6
CONTINUOUS
 62
    7
 10
534.19055188202844
 20
583.32801605574321
 40
0.418475051889444
  0
CIRCLE
  8
_2-0_
  6
CONTINUOUS
 62
    7
 10
539.71788711837576
 20
583.91855035160256
 40
0.8369501037788641
  0
CIRCLE
  8
_2-0_
  6
CONTINUOUS
 62
    7
 10
533.68804362322237
 20
578.66679594037419
 40
1.5587436147990275
  0
CIRCLE
  8
_2-0_
  6
CONTINUOUS
 62
    7
 10
581.64624991091102
 20
576.45942818314188
 40
0.418475051889444
  0
CIRCLE
  8
_2-0_
  6
CONTINUOUS
 62
    7
 10
587.17358514725845
 20
577.04996247900112
 40
0.8369501037788641
  0
CIRCLE
  8
_2-0_
  6
CONTINUOUS
 62
    7
 10
581.14374165210495
 20
571.79820806777286
 40
1.5587436147990275
  0
CIRCLE
  8
_2-0_
  6
CONTINUOUS
 62
    7
 10
628.47753086046635
 20
574.58617694515965
 40
0.418475051889444
  0
CIRCLE
  8
_2-0_
  6
CONTINUOUS
 62
    7
 10
634.00486609681377
 20
575.17671124101889
 40
0.8369501037788641
  0
CIRCLE
  8
_2-0_
  6
CONTINUOUS
 62
    7
 10
627.97502260166027
 20
569.92495682979063
 40
1.5587436147990275
  0
CIRCLE
  8
_2-0_
  6
CONTINUOUS
 62
    7
 10
619.11127467055519
 20
550.23391085139099
 40
0.418475051889444
  0
CIRCLE
  8
_2-0_
  6
CONTINUOUS
 62
    7
 10
624.63860990690262
 20
550.82444514725023
 40
0.8369501037788641
  0
CIRCLE
  8
_2-0_
  6
CONTINUOUS
 62
    7
 10
618.60876641174912
 20
545.57269073602185
 40
1.5587436147990275
  0
CIRCLE
  8
_2-0_
  6
CONTINUOUS
 62
    7
 10
657.82513358885421
 20
554.60483040668271
 40
0.418475051889444
  0
CIRCLE
  8
_2-0_
  6
CONTINUOUS
 62
    7
 10
663.35246882520164
 20
555.19536470254207
 40
0.8369501037788641
  0
CIRCLE
  8
_2-0_
  6
CONTINUOUS
 62
    7
 10
657.32262533004814
 20
549.94361029131369
 40
1.5587436147990275
  0
CIRCLE
  8
_2-0_
  6
CONTINUOUS
 62
    7
 10
655.4978344360768
 20
572.3180821272515
 40
0.418475051889444
  0
CIRCLE
  8
_2-0_
  6
CONTINUOUS
 62
    7
 10
659.98938001805698
 20
575.59316744744535
 40
0.8369501037788641
  0
CIRCLE
  8
_2-0_
  6
CONTINUOUS
 62
    7
 10
657.39325957602375
 20
568.03009296530786
 40
1.5587436147990275
  0
CIRCLE
  8
_2-0_
  6
CONTINUOUS
 62
    7
 10
657.37108567405915
 20
534.22864028827985
 40
0.418475051889444
  0
CIRCLE
  8
_2-0_
  6
CONTINUOUS
 62
    7
 10
661.86263125603909
 20
537.5037256084737
 40
0.8369501037788641
  0
CIRCLE
  8
_2-0_
  6
CONTINUOUS
 62
    7
 10
659.26651081400587
 20
529.94065112633632
 40
1.5587436147990275
  0
CIRCLE
  8
_2-0_
  6
CONTINUOUS
 62
    7
 10
640.51182453221918
 20
525.48680117769629
 40
0.418475051889444
  0
CIRCLE
  8
_2-0_
  6
CONTINUOUS
 62
    7
 10
645.00337011419924
 20
528.76188649789003
 40
0.8369501037788641
  0
CIRCLE
  8
_2-0_
  6
CONTINUOUS
 62
    7
 10
642.40724967216602
 20
521.19881201575265
 40
1.5587436147990275
  0
CIRCLE
  8
_2-0_
  6
CONTINUOUS
 62
    7
 10
613.6618901211408
 20
643.50162917057548
 40
0.418475051889444
  0
CIRCLE
  8
_2-0_
  6
CONTINUOUS
 62
    7
 10
618.15343570312086
 20
646.77671449076922
 40
0.8369501037788641
  0
CIRCLE
  8
_2-0_
  6
CONTINUOUS
 62
    7
 10
615.55731526108775
 20
639.21364000863184
 40
1.5587436147990275
  0
CIRCLE
  8
_2-0_
  6
CONTINUOUS
 62
    7
 10
546.22484555378128
 20
660.98530739174282
 40
0.418475051889444
  0
CIRCLE
  8
_2-0_
  6
CONTINUOUS
 62
    7
 10
550.71639113576134
 20
664.26039271193656
 40
0.8369501037788641
  0
CIRCLE
  8
_2-0_
  6
CONTINUOUS
 62
    7
 10
548.12027069372812
 20
656.69731822979907
 40
1.5587436147990275
  0
CIRCLE
  8
_2-0_
  6
CONTINUOUS
 62
    7
 10
594.30496066199123
 20
626.01795094940826
 40
0.418475051889444
  0
CIRCLE
  8
_2-0_
  6
CONTINUOUS
 62
    7
 10
598.79650624397141
 20
629.293036269602
 40
0.8369501037788641
  0
CIRCLE
  8
_2-0_
  6
CONTINUOUS
 62
    7
 10
596.20038580193818
 20
621.72996178746462
 40
1.5587436147990275
  0
CIRCLE
  8
_2-0_
  6
CONTINUOUS
 62
    7
 10
569.95269456822257
 20
608.53427272824092
 40
0.418475051889444
  0
CIRCLE
  8
_2-0_
  6
CONTINUOUS
 62
    7
 10
574.44424015020263
 20
611.80935804843466
 40
0.8369501037788641
  0
CIRCLE
  8
_2-0_
  6
CONTINUOUS
 62
    7
 10
571.84811970816952
 20
604.24628356629728
 40
1.5587436147990275
  0
CIRCLE
  8
_2-0_
  6
CONTINUOUS
 62
    7
 10
542.47834307781682
 20
612.28077520420538
 40
0.418475051889444
  0
CIRCLE
  8
_2-0_
  6
CONTINUOUS
 62
    7
 10
546.96988865979688
 20
615.55586052439912
 40
0.8369501037788641
  0
CIRCLE
  8
_2-0_
  6
CONTINUOUS
 62
    7
 10
544.37376821776377
 20
607.99278604226174
 40
1.5587436147990275
  0
CIRCLE
  8
_2-0_
  6
CONTINUOUS
 62
    7
 10
568.70386040956771
 20
578.56225292052557
 40
0.418475051889444
  0
CIRCLE
  8
_2-0_
  6
CONTINUOUS
 62
    7
 10
573.19540599154789
 20
581.83733824071942
 40
0.8369501037788641
  0
CIRCLE
  8
_2-0_
  6
CONTINUOUS
 62
    7
 10
570.59928554951466
 20
574.27426375858192
 40
1.5587436147990275
  0
CIRCLE
  8
_2-0_
  6
CONTINUOUS
 62
    7
 10
613.03747304181343
 20
574.19133336523373
 40
0.418475051889444
  0
CIRCLE
  8
_2-0_
  6
CONTINUOUS
 62
    7
 10
617.52901862379349
 20
577.46641868542747
 40
0.8369501037788641
  0
CIRCLE
  8
_2-0_
  6
CONTINUOUS
 62
    7
 10
614.93289818176038
 20
569.90334420329009
 40
1.5587436147990275
  0
CIRCLE
  8
_2-0_
  6
CONTINUOUS
 62
    7
 10
558.63129152907277
 20
559.86078400345411
 40
0.418475051889444
  0
CIRCLE
  8
_2-0_
  6
CONTINUOUS
 62
    7
 10
555.35620620887903
 20
564.35232958543429
 40
0.8369501037788641
  0
CIRCLE
  8
_2-0_
  6
CONTINUOUS
 62
    7
 10
562.91928069101641
 20
561.75620914340107
 40
1.5587436147990275
  0
CIRCLE
  8
_2-0_
  6
CONTINUOUS
 62
    7
 10
599.21840168535402
 20
548.62127657556084
 40
0.418475051889444
  0
CIRCLE
  8
_2-0_
  6
CONTINUOUS
 62
    7
 10
595.94331636516029
 20
553.1128221575409
 40
0.8369501037788641
  0
CIRCLE
  8
_2-0_
  6
CONTINUOUS
 62
    7
 10
603.50639084729767
 20
550.51670171550779
 40
1.5587436147990275
  0
CIRCLE
  8
_2-0_
  6
CONTINUOUS
 62
    7
 10
642.92759723827226
 20
637.28850184005205
 40
0.418475051889444
  0
CIRCLE
  8
_2-0_
  6
CONTINUOUS
 62
    7
 10
639.6525119180784
 20
641.78004742203234
 40
0.8369501037788641
  0
CIRCLE
  8
_2-0_
  6
CONTINUOUS
 62
    7
 10
647.2155864002159
 20
639.18392697999911
 40
1.5587436147990275
  0
CIRCLE
  8
_2-0_
  6
CONTINUOUS
 62
    7
 10
655.41593882482039
 20
589.83280381116947
 40
0.418475051889444
  0
CIRCLE
  8
_2-0_
  6
CONTINUOUS
 62
    7
 10
652.14085350462653
 20
594.32434939314953
 40
0.8369501037788641
  0
CIRCLE
  8
_2-0_
  6
CONTINUOUS
 62
    7
 10
659.70392798676403
 20
591.72822895111642
 40
1.5587436147990275
  0
CIRCLE
  8
_2-0_
  6
CONTINUOUS
 62
    7
 10
636.68342644499819
 20
551.74336197219782
 40
0.418475051889444
  0
CIRCLE
  8
_2-0_
  6
CONTINUOUS
 62
    7
 10
633.40834112480445
 20
556.23490755417788
 40
0.8369501037788641
  0
CIRCLE
  8
_2-0_
  6
CONTINUOUS
 62
    7
 10
640.97141560694183
 20
553.63878711214488
 40
1.5587436147990275
  0
CIRCLE
  8
_2-0_
  6
CONTINUOUS
 62
    7
 10
646.04968263490935
 20
505.53649810196998
 40
0.418475051889444
  0
CIRCLE
  8
_2-0_
  6
CONTINUOUS
 62
    7
 10
642.77459731471549
 20
510.0280436839501
 40
0.8369501037788641
  0
CIRCLE
  8
_2-0_
  6
CONTINUOUS
 62
    7
 10
650.33767179685299
 20
507.43192324191693
 40
1.5587436147990275
  0
CIRCLE
  8
_2-0_
  6
CONTINUOUS
 62
    7
 10
976.80527516374184
 20
682.75800955694535
 40
0.418475051889444
  0
CIRCLE
  8
_2-0_
  6
CONTINUOUS
 62
    7
 10
973.53018984354799
 20
678.26646397496529
 40
0.8369501037788641
  0
CIRCLE
  8
_2-0_
  6
CONTINUOUS
 62
    7
 10
981.09326432568548
 20
680.8625844169984
 40
1.5587436147990275
  0
CIRCLE
  8
_2-0_
  6
CONTINUOUS
 62
    7
 10
976.64917089391008
 20
673.07954482737068
 40
0.418475051889444
  0
CIRCLE
  8
_2-0_
  6
CONTINUOUS
 62
    7
 10
973.37408557371634
 20
668.58799924539062
 40
0.8369501037788641
  0
CIRCLE
  8
_2-0_
  6
CONTINUOUS
 62
    7
 10
980.93716005585361
 20
671.18411968742384
 40
1.5587436147990275
  0
CIRCLE
  8
_2-0_
  6
CONTINUOUS
 62
    7
 10
959.94601402190199
 20
677.29436011283065
 40
0.418475051889444
  0
CIRCLE
  8
_2-0_
  6
CONTINUOUS
 62
    7
 10
956.67092870170814
 20
672.80281453085058
 40
0.8369501037788641
  0
CIRCLE
  8
_2-0_
  6
CONTINUOUS
 62
    7
 10
964.23400318384563
 20
675.39893497288381
 40
1.5587436147990275
  0
CIRCLE
  8
_2-0_
  6
CONTINUOUS
 62
    7
 10
961.66316099005246
 20
668.39641673241522
 40
0.418475051889444
  0
CIRCLE
  8
_2-0_
  6
CONTINUOUS
 62
    7
 10
958.38807566985861
 20
663.90487115043516
 40
0.8369501037788641
  0
CIRCLE
  8
_2-0_
  6
CONTINUOUS
 62
    7
 10
965.95115015199599
 20
666.50099159246815
 40
1.5587436147990275
  0
CIRCLE
  8
_2-0_
  6
CONTINUOUS
 62
    7
 10
975.55644100508721
 20
661.21562032015004
 40
0.418475051889444
  0
CIRCLE
  8
_2-0_
  6
CONTINUOUS
 62
    7
 10
972.28135568489336
 20
656.72407473816997
 40
0.8369501037788641
  0
CIRCLE
  8
_2-0_
  6
CONTINUOUS
 62
    7
 10
979.84443016703062
 20
659.32019518020309
 40
1.5587436147990275
  0
CIRCLE
  8
_2-0_
  6
CONTINUOUS
 62
    7
 10
959.94601402190199
 20
657.00080503468996
 40
0.418475051889444
  0
CIRCLE
  8
_2-0_
  6
CONTINUOUS
 62
    7
 10
956.67092870170814
 20
652.5092594527099
 40
0.8369501037788641
  0
CIRCLE
  8
_2-0_
  6
CONTINUOUS
 62
    7
 10
964.23400318384563
 20
655.10537989474301
 40
1.5587436147990275
  0
CIRCLE
  8
_2-0_
  6
CONTINUOUS
 62
    7
 10
938.55972905493843
 20
670.73798077989295
 40
0.418475051889444
  0
CIRCLE
  8
_2-0_
  6
CONTINUOUS
 62
    7
 10
935.28464373474458
 20
666.24643519791277
 40
0.8369501037788641
  0
CIRCLE
  8
_2-0_
  6
CONTINUOUS
 62
    7
 10
942.84771821688207
 20
668.842555639946
 40
1.5587436147990275
  0
CIRCLE
  8
_2-0_
  6
CONTINUOUS
 62
    7
 10
944.96000411804425
 20
661.99614166930928
 40
0.418475051889444
  0
CIRCLE
  8
_2-0_
  6
CONTINUOUS
 62
    7
 10
941.68491879785051
 20
657.50459608732922
 40
0.8369501037788641
  0
CIRCLE
  8
_2-0_
  6
CONTINUOUS
 62
    7
 10
949.24799327998801
 20
660.10071652936233
 40
1.5587436147990275
  0
CIRCLE
  8
_2-0_
  6
CONTINUOUS
 62
    7
 10
942.93064861023026
 20
650.13221716208864
 40
0.418475051889444
  0
CIRCLE
  8
_2-0_
  6
CONTINUOUS
 62
    7
 10
939.65556329003653
 20
645.64067158010857
 40
0.8369501037788641
  0
CIRCLE
  8
_2-0_
  6
CONTINUOUS
 62
    7
 10
947.21863777217391
 20
648.23679202214169
 40
1.5587436147990275
  0
CIRCLE
  8
_2-0_
  6
CONTINUOUS
 62
    7
 10
971.18552144979526
 20
649.19559154309752
 40
0.418475051889444
  0
CIRCLE
  8
_2-0_
  6
CONTINUOUS
 62
    7
 10
967.91043612960152
 20
644.70404596111746
 40
0.8369501037788641
  0
CIRCLE
  8
_2-0_
  6
CONTINUOUS
 62
    7
 10
975.4735106117389
 20
647.30016640315057
 40
1.5587436147990275
  0
CIRCLE
  8
_2-0_
  6
CONTINUOUS
 62
    7
 10
956.19951154593764
 20
639.51712681352274
 40
0.418475051889444
  0
CIRCLE
  8
_2-0_
  6
CONTINUOUS
 62
    7
 10
952.9244262257439
 20
635.02558123154267
 40
0.8369501037788641
  0
CIRCLE
  8
_2-0_
  6
CONTINUOUS
 62
    7
 10
960.48750070788117
 20
637.62170167357579
 40
1.5587436147990275
  0
CIRCLE
  8
_2-0_
  6
CONTINUOUS
 62
    7
 10
976.30591889149571
 20
635.22810286948743
 40
0.418475051889444
  0
CIRCLE
  8
_2-0_
  6
CONTINUOUS
 62
    7
 10
971.81437330951553
 20
638.50318818968117
 40
0.8369501037788641
  0
CIRCLE
  8
_2-0_
  6
CONTINUOUS
 62
    7
 10
974.41049375154876
 20
630.94011370754379
 40
1.5587436147990275
  0
CIRCLE
  8
_2-0_
  6
CONTINUOUS
 62
    7
 10
961.94432606696535
 20
626.48626375890376
 40
0.418475051889444
  0
CIRCLE
  8
_2-0_
  6
CONTINUOUS
 62
    7
 10
957.4527804849854
 20
629.7613490790975
 40
0.8369501037788641
  0
CIRCLE
  8
_2-0_
  6
CONTINUOUS
 62
    7
 10
960.04890092701839
 20
622.19827459696012
 40
1.5587436147990275
  0
CIRCLE
  8
_2-0_
  6
CONTINUOUS
 62
    7
 10
938.99699840168341
 20
636.94524983763779
 40
0.418475051889444
  0
CIRCLE
  8
_2-0_
  6
CONTINUOUS
 62
    7
 10
934.50545281970324
 20
640.22033515783164
 40
0.8369501037788641
  0
CIRCLE
  8
_2-0_
  6
CONTINUOUS
 62
    7
 10
937.10157326173646
 20
632.65726067569415
 40
1.5587436147990275
  0
CIRCLE
  8
_2-0_
  6
CONTINUOUS
 62
    7
 10
956.01236381335514
 20
648.4969658051948
 40
0.418475051889444
  0
CIRCLE
  8
_2-0_
  6
CONTINUOUS
 62
    7
 10
951.52081823137496
 20
651.77205112538854
 40
0.8369501037788641
  0
CIRCLE
  8
_2-0_
  6
CONTINUOUS
 62
    7
 10
954.11693867340819
 20
644.20897664325116
 40
1.5587436147990275
  0
CIRCLE
  8
_2-0_
  6
CONTINUOUS
 62
    7
 10
933.53334895756859
 20
658.01932626493772
 40
0.418475051889444
  0
CIRCLE
  8
_2-0_
  6
CONTINUOUS
 62
    7
 10
929.04180337558842
 20
661.29441158513146
 40
0.8369501037788641
  0
CIRCLE
  8
_2-0_
  6
CONTINUOUS
 62
    7
 10
931.63792381762164
 20
653.73133710299396
 40
1.5587436147990275
  0
CIRCLE
  8
_2-0_
  6
CONTINUOUS
 62
    7
 10
948.51935886142633
 20
630.54497477453185
 40
0.418475051889444
  0
CIRCLE
  8
_2-0_
  6
CONTINUOUS
 62
    7
 10
944.02781327944604
 20
633.8200600947257
 40
0.8369501037788641
  0
CIRCLE
  8
_2-0_
  6
CONTINUOUS
 62
    7
 10
946.62393372147926
 20
626.25698561258832
 40
1.5587436147990275
  0
CIRCLE
  8
_2-0_
  6
CONTINUOUS
 62
    7
 10
929.942950751436
 20
621.80313566394818
 40
0.418475051889444
  0
CIRCLE
  8
_2-0_
  6
CONTINUOUS
 62
    7
 10
925.45140516945594
 20
625.07822098414204
 40
0.8369501037788641
  0
CIRCLE
  8
_2-0_
  6
CONTINUOUS
 62
    7
 10
928.04752561148905
 20
617.51514650200465
 40
1.5587436147990275
  0
CIRCLE
  8
_2-0_
  6
CONTINUOUS
 62
    7
 10
940.55804110000179
 20
609.78310688689578
 40
0.418475051889444
  0
CIRCLE
  8
_2-0_
  6
CONTINUOUS
 62
    7
 10
936.06649551802184
 20
613.05819220708952
 40
0.8369501037788641
  0
CIRCLE
  8
_2-0_
  6
CONTINUOUS
 62
    7
 10
938.66261596005484
 20
605.49511772495202
 40
1.5587436147990275
  0
CIRCLE
  8
_2-0_
  6
CONTINUOUS
 62
    7
 10
973.96435484401786
 20
622.2714484734438
 40
0.418475051889444
  0
CIRCLE
  8
_2-0_
  6
CONTINUOUS
 62
    7
 10
969.47280926203791
 20
625.54653379363754
 40
0.8369501037788641
  0
CIRCLE
  8
_2-0_
  6
CONTINUOUS
 62
    7
 10
972.06892970407102
 20
617.98345931150016
 40
1.5587436147990275
  0
CIRCLE
  8
_2-0_
  6
CONTINUOUS
 62
    7
 10
954.68932099612493
 20
610.43856742897378
 40
0.418475051889444
  0
CIRCLE
  8
_2-0_
  6
CONTINUOUS
 62
    7
 10
957.96440631631867
 20
614.93011301095385
 40
0.8369501037788641
  0
CIRCLE
  8
_2-0_
  6
CONTINUOUS
 62
    7
 10
950.40133183418118
 20
612.33399256892073
 40
1.5587436147990275
  0
CIRCLE
  8
_2-0_
  6
CONTINUOUS
 62
    7
 10
931.58588906101102
 20
591.08163796982433
 40
0.418475051889444
  0
CIRCLE
  8
_2-0_
  6
CONTINUOUS
 62
    7
 10
934.86097438120487
 20
595.57318355180439
 40
0.8369501037788641
  0
CIRCLE
  8
_2-0_
  6
CONTINUOUS
 62
    7
 10
927.29789989906737
 20
592.97706310977128
 40
1.5587436147990275
  0
CIRCLE
  8
_2-0_
  6
CONTINUOUS
 62
    7
 10
918.78533893479926
 20
639.47396161769802
 40
0.418475051889444
  0
CIRCLE
  8
_2-0_
  6
CONTINUOUS
 62
    7
 10
922.06042425499299
 20
643.9655071996782
 40
0.8369501037788641
  0
CIRCLE
  8
_2-0_
  6
CONTINUOUS
 62
    7
 10
914.49734977285561
 20
641.36938675764497
 40
1.5587436147990275
  0
CIRCLE
  8
_2-0_
  6
CONTINUOUS
 62
    7
 10
916.06393563110157
 20
659.50689973368651
 40
0.418475051889444
  0
CIRCLE
  8
_2-0_
  6
CONTINUOUS
 62
    7
 10
910.53660039475415
 20
660.09743402954564
 40
0.8369501037788641
  0
CIRCLE
  8
_2-0_
  6
CONTINUOUS
 62
    7
 10
916.56644388990776
 20
654.84567961831749
 40
1.5587436147990275
  0
CIRCLE
  8
_2-0_
  6
CONTINUOUS
 62
    7
 10
922.30810642437564
 20
670.12199008225241
 40
0.418475051889444
  0
CIRCLE
  8
_2-0_
  6
CONTINUOUS
 62
    7
 10
916.78077118802821
 20
670.71252437811165
 40
0.8369501037788641
  0
CIRCLE
  8
_2-0_
  6
CONTINUOUS
 62
    7
 10
922.81061468318171
 20
665.46076996688328
 40
1.5587436147990275
  0
CIRCLE
  8
_2-0_
  6
CONTINUOUS
 62
    7
 10
907.63430506018165
 20
628.28604576731641
 40
0.418475051889444
  0
CIRCLE
  8
_2-0_
  6
CONTINUOUS
 62
    7
 10
902.10696982383422
 20
628.87658006317565
 40
0.8369501037788641
  0
CIRCLE
  8
_2-0_
  6
CONTINUOUS
 62
    7
 10
908.13681331898783
 20
623.62482565194728
 40
1.5587436147990275
  0
CIRCLE
  8
_2-0_
  6
CONTINUOUS
 62
    7
 10
917.62497832942006
 20
605.18261383220238
 40
0.418475051889444
  0
CIRCLE
  8
_2-0_
  6
CONTINUOUS
 62
    7
 10
912.09764309307263
 20
605.77314812806162
 40
0.8369501037788641
  0
CIRCLE
  8
_2-0_
  6
CONTINUOUS
 62
    7
 10
918.12748658822613
 20
600.52139371683336
 40
1.5587436147990275
  0
CIRCLE
  8
_2-0_
  6
CONTINUOUS
 62
    7
 10
898.26804887027049
 20
649.51622646444798
 40
0.418475051889444
  0
CIRCLE
  8
_2-0_
  6
CONTINUOUS
 62
    7
 10
892.74071363392318
 20
650.10676076030734
 40
0.8369501037788641
  0
CIRCLE
  8
_2-0_
  6
CONTINUOUS
 62
    7
 10
898.77055712907668
 20
644.85500634907908
 40
1.5587436147990275
  0
CIRCLE
  8
_2-0_
  6
CONTINUOUS
 62
    7
 10
874.5401998558292
 20
626.41279452933406
 40
0.418475051889444
  0
CIRCLE
  8
_2-0_
  6
CONTINUOUS
 62
    7
 10
869.01286461948189
 20
627.00332882519342
 40
0.8369501037788641
  0
CIRCLE
  8
_2-0_
  6
CONTINUOUS
 62
    7
 10
875.04270811463527
 20
621.75157441396505
 40
1.5587436147990275
  0
CIRCLE
  8
_2-0_
  6
CONTINUOUS
 62
    7
 10
875.02529123337513
 20
652.16157266990263
 40
0.418475051889444
  0
CIRCLE
  8
_2-0_
  6
CONTINUOUS
 62
    7
 10
871.75020591318128
 20
647.67002708792256
 40
0.8369501037788641
  0
CIRCLE
  8
_2-0_
  6
CONTINUOUS
 62
    7
 10
879.31328039531877
 20
650.26614752995567
 40
1.5587436147990275
  0
CIRCLE
  8
_2-0_
  6
CONTINUOUS
 62
    7
 10
885.01596450261354
 20
634.6778944487354
 40
0.418475051889444
  0
CIRCLE
  8
_2-0_
  6
CONTINUOUS
 62
    7
 10
881.7408791824198
 20
630.18634886675522
 40
0.8369501037788641
  0
CIRCLE
  8
_2-0_
  6
CONTINUOUS
 62
    7
 10
889.3039536645573
 20
632.78246930878845
 40
1.5587436147990275
  0
CIRCLE
  8
_2-0_
  6
CONTINUOUS
 62
    7
 10
888.76246697857812
 20
602.20820632371033
 40
0.418475051889444
  0
CIRCLE
  8
_2-0_
  6
CONTINUOUS
 62
    7
 10
885.48738165838427
 20
597.71666074173038
 40
0.8369501037788641
  0
CIRCLE
  8
_2-0_
  6
CONTINUOUS
 62
    7
 10
893.05045614052165
 20
600.31278118376338
 40
1.5587436147990275
  0
CIRCLE
  8
_2-0_
  6
CONTINUOUS
 62
    7
 10
893.13338653386973
 20
623.43838702084213
 40
0.418475051889444
  0
CIRCLE
  8
_2-0_
  6
CONTINUOUS
 62
    7
 10
889.85830121367599
 20
618.94684143886207
 40
0.8369501037788641
  0
CIRCLE
  8
_2-0_
  6
CONTINUOUS
 62
    7
 10
897.42137569581348
 20
621.54296188089518
 40
1.5587436147990275
  0
CIRCLE
  8
_2-0_
  6
CONTINUOUS
 62
    7
 10
900.00197440647128
 20
594.09078429245415
 40
0.418475051889444
  0
CIRCLE
  8
_2-0_
  6
CONTINUOUS
 62
    7
 10
896.72688908627742
 20
589.59923871047408
 40
0.8369501037788641
  0
CIRCLE
  8
_2-0_
  6
CONTINUOUS
 62
    7
 10
904.28996356841492
 20
592.19535915250719
 40
1.5587436147990275
  0
CIRCLE
  8
_2-0_
  6
CONTINUOUS
 62
    7
 10
888.76246697857812
 20
574.10943775397732
 40
0.418475051889444
  0
CIRCLE
  8
_2-0_
  6
CONTINUOUS
 62
    7
 10
885.48738165838427
 20
569.61789217199714
 40
0.8369501037788641
  0
CIRCLE
  8
_2-0_
  6
CONTINUOUS
 62
    7
 10
893.05045614052165
 20
572.21401261403025
 40
1.5587436147990275
  0
CIRCLE
  8
_2-0_
  6
CONTINUOUS
 62
    7
 10
869.40553751942855
 20
557.25017661213735
 40
0.418475051889444
  0
CIRCLE
  8
_2-0_
  6
CONTINUOUS
 62
    7
 10
866.13045219923481
 20
552.75863103015718
 40
0.8369501037788641
  0
CIRCLE
  8
_2-0_
  6
CONTINUOUS
 62
    7
 10
873.69352668137208
 20
555.3547514721904
 40
1.5587436147990275
  0
CIRCLE
  8
_2-0_
  6
CONTINUOUS
 62
    7
 10
843.80443726700491
 20
586.59777934052522
 40
0.418475051889444
  0
CIRCLE
  8
_2-0_
  6
CONTINUOUS
 62
    7
 10
840.52935194681118
 20
582.10623375854527
 40
0.8369501037788641
  0
CIRCLE
  8
_2-0_
  6
CONTINUOUS
 62
    7
 10
848.09242642894856
 20
584.70235420057838
 40
1.5587436147990275
  0
CIRCLE
  8
_2-0_
  6
CONTINUOUS
 62
    7
 10
853.79511053624344
 20
612.19887959294886
 40
0.418475051889444
  0
CIRCLE
  8
_2-0_
  6
CONTINUOUS
 62
    7
 10
850.52002521604959
 20
607.70733401096879
 40
0.8369501037788641
  0
CIRCLE
  8
_2-0_
  6
CONTINUOUS
 62
    7
 10
858.08309969818708
 20
610.3034544530019
 40
1.5587436147990275
  0
CIRCLE
  8
_2-0_
  6
CONTINUOUS
 62
    7
 10
848.17535682229675
 20
640.29764816268198
 40
0.418475051889444
  0
CIRCLE
  8
_2-0_
  6
CONTINUOUS
 62
    7
 10
844.9002715021029
 20
635.80610258070192
 40
0.8369501037788641
  0
CIRCLE
  8
_2-0_
  6
CONTINUOUS
 62
    7
 10
852.46334598424039
 20
638.40222302273503
 40
1.5587436147990275
  0
CIRCLE
  8
_2-0_
  6
CONTINUOUS
 62
    7
 10
820.70100533189111
 20
616.56979914824069
 40
0.418475051889444
  0
CIRCLE
  8
_2-0_
  6
CONTINUOUS
 62
    7
 10
817.42592001169726
 20
612.07825356626063
 40
0.8369501037788641
  0
CIRCLE
  8
_2-0_
  6
CONTINUOUS
 62
    7
 10
824.98899449383475
 20
614.67437400829363
 40
1.5587436147990275
  0
CIRCLE
  8
_2-0_
  6
CONTINUOUS
 62
    7
 10
803.21732711072377
 20
592.21753305447191
 40
0.418475051889444
  0
CIRCLE
  8
_2-0_
  6
CONTINUOUS
 62
    7
 10
799.94224179052992
 20
587.72598747249185
 40
0.8369501037788641
  0
CIRCLE
  8
_2-0_
  6
CONTINUOUS
 62
    7
 10
807.50531627266741
 20
590.32210791452496
 40
1.5587436147990275
  0
CIRCLE
  8
_2-0_
  6
CONTINUOUS
 62
    7
 10
802.5929100313964
 20
565.36759864339365
 40
0.418475051889444
  0
CIRCLE
  8
_2-0_
  6
CONTINUOUS
 62
    7
 10
799.31782471120255
 20
560.87605306141359
 40
0.8369501037788641
  0
CIRCLE
  8
_2-0_
  6
CONTINUOUS
 62
    7
 10
806.88089919334004
 20
563.47217350344658
 40
1.5587436147990275
  0
CIRCLE
  8
_2-0_
  6
CONTINUOUS
 62
    7
 10
845.67768850498726
 20
562.86993032608405
 40
0.418475051889444
  0
CIRCLE
  8
_2-0_
  6
CONTINUOUS
 62
    7
 10
842.40260318479341
 20
558.37838474410387
 40
0.8369501037788641
  0
CIRCLE
  8
_2-0_
  6
CONTINUOUS
 62
    7
 10
849.96567766693079
 20
560.97450518613709
 40
1.5587436147990275
  0
CIRCLE
  8
_2-0_
  6
CONTINUOUS
 62
    7
 10
800.71965879341417
 20
541.63974962895225
 40
0.418475051889444
  0
CIRCLE
  8
_2-0_
  6
CONTINUOUS
 62
    7
 10
797.44457347322043
 20
537.14820404697218
 40
0.8369501037788641
  0
CIRCLE
  8
_2-0_
  6
CONTINUOUS
 62
    7
 10
805.0076479553577
 20
539.74432448900529
 40
1.5587436147990275
  0
CIRCLE
  8
_2-0_
  6
CONTINUOUS
 62
    7
 10
815.7056686972719
 20
589.09544765783494
 40
0.418475051889444
  0
CIRCLE
  8
_2-0_
  6
CONTINUOUS
 62
    7
 10
812.43058337707805
 20
584.60390207585488
 40
0.8369501037788641
  0
CIRCLE
  8
_2-0_
  6
CONTINUOUS
 62
    7
 10
819.99365785921543
 20
587.20002251788799
 40
1.5587436147990275
  0
CIRCLE
  8
_2-0_
  6
CONTINUOUS
 62
    7
 10
793.22665384148524
 20
628.43372365546134
 40
0.418475051889444
  0
CIRCLE
  8
_2-0_
  6
CONTINUOUS
 62
    7
 10
789.95156852129139
 20
623.94217807348127
 40
0.8369501037788641
  0
CIRCLE
  8
_2-0_
  6
CONTINUOUS
 62
    7
 10
797.51464300342889
 20
626.53829851551438
 40
1.5587436147990275
  0
CIRCLE
  8
_2-0_
  6
CONTINUOUS
 62
    7
 10
791.35340260350301
 20
517.28748353518358
 40
0.418475051889444
  0
CIRCLE
  8
_2-0_
  6
CONTINUOUS
 62
    7
 10
788.07831728330927
 20
512.79593795320352
 40
0.8369501037788641
  0
CIRCLE
  8
_2-0_
  6
CONTINUOUS
 62
    7
 10
795.64139176544677
 20
515.39205839523663
 40
1.5587436147990275
  0
CIRCLE
  8
_2-0_
  6
CONTINUOUS
 62
    7
 10
819.59149687501781
 20
637.02788487790008
 40
0.418475051889444
  0
CIRCLE
  8
_2-0_
  6
CONTINUOUS
 62
    7
 10
814.06416163867038
 20
637.61841917375921
 40
0.8369501037788641
  0
CIRCLE
  8
_2-0_
  6
CONTINUOUS
 62
    7
 10
820.09400513382388
 20
632.36666476253095
 40
1.5587436147990275
  0
CIRCLE
  8
_2-0_
  6
CONTINUOUS
 62
    7
 10
860.17860703129895
 20
653.88714601973993
 40
0.418475051889444
  0
CIRCLE
  8
_2-0_
  6
CONTINUOUS
 62
    7
 10
854.65127179495153
 20
654.47768031559917
 40
0.8369501037788641
  0
CIRCLE
  8
_2-0_
  6
CONTINUOUS
 62
    7
 10
860.68111529010503
 20
649.22592590437091
 40
1.5587436147990275
  0
CIRCLE
  8
_2-0_
  6
CONTINUOUS
 62
    7
 10
836.45075801685766
 20
623.29070913269709
 40
0.418475051889444
  0
CIRCLE
  8
_2-0_
  6
CONTINUOUS
 62
    7
 10
830.92342278051024
 20
623.88124342855633
 40
0.8369501037788641
  0
CIRCLE
  8
_2-0_
  6
CONTINUOUS
 62
    7
 10
836.95326627566374
 20
618.62948901732807
 40
1.5587436147990275
  0
CIRCLE
  8
_2-0_
  6
CONTINUOUS
 62
    7
 10
795.23923078124892
 20
609.55353338749421
 40
0.418475051889444
  0
CIRCLE
  8
_2-0_
  6
CONTINUOUS
 62
    7
 10
789.71189554490149
 20
610.14406768335346
 40
0.8369501037788641
  0
CIRCLE
  8
_2-0_
  6
CONTINUOUS
 62
    7
 10
795.74173904005511
 20
604.89231327212519
 40
1.5587436147990275
  0
CIRCLE
  8
_2-0_
  6
CONTINUOUS
 62
    7
 10
836.45075801685766
 20
601.43611135623803
 40
0.418475051889444
  0
CIRCLE
  8
_2-0_
  6
CONTINUOUS
 62
    7
 10
830.92342278051024
 20
602.02664565209727
 40
0.8369501037788641
  0
CIRCLE
  8
_2-0_
  6
CONTINUOUS
 62
    7
 10
836.95326627566374
 20
596.77489124086901
 40
1.5587436147990275
  0
CIRCLE
  8
_2-0_
  6
CONTINUOUS
 62
    7
 10
873.91578277650183
 20
596.44077472161871
 40
0.418475051889444
  0
CIRCLE
  8
_2-0_
  6
CONTINUOUS
 62
    7
 10
868.3884475401544
 20
597.03130901747807
 40
0.8369501037788641
  0
CIRCLE
  8
_2-0_
  6
CONTINUOUS
 62
    7
 10
874.4182910353079
 20
591.77955460624969
 40
1.5587436147990275
  0
CIRCLE
  8
_2-0_
  6
CONTINUOUS
 62
    7
 10
912.62964169480085
 20
583.32801605574321
 40
0.418475051889444
  0
CIRCLE
  8
_2-0_
  6
CONTINUOUS
 62
    7
 10
907.10230645845343
 20
583.91855035160256
 40
0.8369501037788641
  0
CIRCLE
  8
_2-0_
  6
CONTINUOUS
 62
    7
 10
913.13214995360693
 20
578.66679594037419
 40
1.5587436147990275
  0
CIRCLE
  8
_2-0_
  6
CONTINUOUS
 62
    7
 10
865.17394366591816
 20
576.45942818314188
 40
0.418475051889444
  0
CIRCLE
  8
_2-0_
  6
CONTINUOUS
 62
    7
 10
859.64660842957073
 20
577.04996247900112
 40
0.8369501037788641
  0
CIRCLE
  8
_2-0_
  6
CONTINUOUS
 62
    7
 10
865.67645192472423
 20
571.79820806777286
 40
1.5587436147990275
  0
CIRCLE
  8
_2-0_
  6
CONTINUOUS
 62
    7
 10
818.34266271636295
 20
574.58617694515965
 40
0.418475051889444
  0
CIRCLE
  8
_2-0_
  6
CONTINUOUS
 62
    7
 10
812.81532748001553
 20
575.17671124101889
 40
0.8369501037788641
  0
CIRCLE
  8
_2-0_
  6
CONTINUOUS
 62
    7
 10
818.84517097516903
 20
569.92495682979063
 40
1.5587436147990275
  0
CIRCLE
  8
_2-0_
  6
CONTINUOUS
 62
    7
 10
827.70891890627399
 20
550.23391085139099
 40
0.418475051889444
  0
CIRCLE
  8
_2-0_
  6
CONTINUOUS
 62
    7
 10
822.18158366992657
 20
550.82444514725023
 40
0.8369501037788641
  0
CIRCLE
  8
_2-0_
  6
CONTINUOUS
 62
    7
 10
828.21142716508007
 20
545.57269073602185
 40
1.5587436147990275
  0
CIRCLE
  8
_2-0_
  6
CONTINUOUS
 62
    7
 10
788.99505998797497
 20
554.60483040668271
 40
0.418475051889444
  0
CIRCLE
  8
_2-0_
  6
CONTINUOUS
 62
    7
 10
783.46772475162754
 20
555.19536470254207
 40
0.8369501037788641
  0
CIRCLE
  8
_2-0_
  6
CONTINUOUS
 62
    7
 10
789.49756824678104
 20
549.94361029131369
 40
1.5587436147990275
  0
CIRCLE
  8
_2-0_
  6
CONTINUOUS
 62
    7
 10
791.32235914075238
 20
572.3180821272515
 40
0.418475051889444
  0
CIRCLE
  8
_2-0_
  6
CONTINUOUS
 62
    7
 10
786.83081355877232
 20
575.59316744744535
 40
0.8369501037788641
  0
CIRCLE
  8
_2-0_
  6
CONTINUOUS
 62
    7
 10
789.42693400080543
 20
568.03009296530786
 40
1.5587436147990275
  0
CIRCLE
  8
_2-0_
  6
CONTINUOUS
 62
    7
 10
789.44910790277027
 20
534.22864028827985
 40
0.418475051889444
  0
CIRCLE
  8
_2-0_
  6
CONTINUOUS
 62
    7
 10
784.9575623207902
 20
537.5037256084737
 40
0.8369501037788641
  0
CIRCLE
  8
_2-0_
  6
CONTINUOUS
 62
    7
 10
787.5536827628232
 20
529.94065112633632
 40
1.5587436147990275
  0
CIRCLE
  8
_2-0_
  6
CONTINUOUS
 62
    7
 10
806.30836904461012
 20
525.48680117769629
 40
0.418475051889444
  0
CIRCLE
  8
_2-0_
  6
CONTINUOUS
 62
    7
 10
801.81682346263005
 20
528.76188649789003
 40
0.8369501037788641
  0
CIRCLE
  8
_2-0_
  6
CONTINUOUS
 62
    7
 10
804.41294390466305
 20
521.19881201575265
 40
1.5587436147990275
  0
CIRCLE
  8
_2-0_
  6
CONTINUOUS
 62
    7
 10
833.15830345568838
 20
643.50162917057548
 40
0.418475051889444
  0
CIRCLE
  8
_2-0_
  6
CONTINUOUS
 62
    7
 10
828.66675787370832
 20
646.77671449076922
 40
0.8369501037788641
  0
CIRCLE
  8
_2-0_
  6
CONTINUOUS
 62
    7
 10
831.26287831574143
 20
639.21364000863184
 40
1.5587436147990275
  0
CIRCLE
  8
_2-0_
  6
CONTINUOUS
 62
    7
 10
900.59534802304802
 20
660.98530739174282
 40
0.418475051889444
  0
CIRCLE
  8
_2-0_
  6
CONTINUOUS
 62
    7
 10
896.10380244106796
 20
664.26039271193656
 40
0.8369501037788641
  0
CIRCLE
  8
_2-0_
  6
CONTINUOUS
 62
    7
 10
898.69992288310118
 20
656.69731822979907
 40
1.5587436147990275
  0
CIRCLE
  8
_2-0_
  6
CONTINUOUS
 62
    7
 10
852.51523291483795
 20
626.01795094940826
 40
0.418475051889444
  0
CIRCLE
  8
_2-0_
  6
CONTINUOUS
 62
    7
 10
848.02368733285789
 20
629.293036269602
 40
0.8369501037788641
  0
CIRCLE
  8
_2-0_
  6
CONTINUOUS
 62
    7
 10
850.619807774891
 20
621.72996178746462
 40
1.5587436147990275
  0
CIRCLE
  8
_2-0_
  6
CONTINUOUS
 62
    7
 10
876.86749900860661
 20
608.53427272824092
 40
0.418475051889444
  0
CIRCLE
  8
_2-0_
  6
CONTINUOUS
 62
    7
 10
872.37595342662655
 20
611.80935804843466
 40
0.8369501037788641
  0
CIRCLE
  8
_2-0_
  6
CONTINUOUS
 62
    7
 10
874.97207386865978
 20
604.24628356629728
 40
1.5587436147990275
  0
CIRCLE
  8
_2-0_
  6
CONTINUOUS
 62
    7
 10
904.34185049901248
 20
612.28077520420538
 40
0.418475051889444
  0
CIRCLE
  8
_2-0_
  6
CONTINUOUS
 62
    7
 10
899.85030491703242
 20
615.55586052439912
 40
0.8369501037788641
  0
CIRCLE
  8
_2-0_
  6
CONTINUOUS
 62
    7
 10
902.44642535906553
 20
607.99278604226174
 40
1.5587436147990275
  0
CIRCLE
  8
_2-0_
  6
CONTINUOUS
 62
    7
 10
878.11633316726147
 20
578.56225292052557
 40
0.418475051889444
  0
CIRCLE
  8
_2-0_
  6
CONTINUOUS
 62
    7
 10
873.62478758528141
 20
581.83733824071942
 40
0.8369501037788641
  0
CIRCLE
  8
_2-0_
  6
CONTINUOUS
 62
    7
 10
876.22090802731464
 20
574.27426375858192
 40
1.5587436147990275
  0
CIRCLE
  8
_2-0_
  6
CONTINUOUS
 62
    7
 10
833.78272053501576
 20
574.19133336523373
 40
0.418475051889444
  0
CIRCLE
  8
_2-0_
  6
CONTINUOUS
 62
    7
 10
829.29117495303569
 20
577.46641868542747
 40
0.8369501037788641
  0
CIRCLE
  8
_2-0_
  6
CONTINUOUS
 62
    7
 10
831.88729539506892
 20
569.90334420329009
 40
1.5587436147990275
  0
CIRCLE
  8
_2-0_
  6
CONTINUOUS
 62
    7
 10
888.18890204775641
 20
559.86078400345411
 40
0.418475051889444
  0
CIRCLE
  8
_2-0_
  6
CONTINUOUS
 62
    7
 10
891.46398736795027
 20
564.35232958543429
 40
0.8369501037788641
  0
CIRCLE
  8
_2-0_
  6
CONTINUOUS
 62
    7
 10
883.90091288581277
 20
561.75620914340107
 40
1.5587436147990275
  0
CIRCLE
  8
_2-0_
  6
CONTINUOUS
 62
    7
 10
847.60179189147516
 20
548.62127657556084
 40
0.418475051889444
  0
CIRCLE
  8
_2-0_
  6
CONTINUOUS
 62
    7
 10
850.87687721166901
 20
553.1128221575409
 40
0.8369501037788641
  0
CIRCLE
  8
_2-0_
  6
CONTINUOUS
 62
    7
 10
843.31380272953152
 20
550.51670171550779
 40
1.5587436147990275
  0
CIRCLE
  8
_2-0_
  6
CONTINUOUS
 62
    7
 10
803.89259633855704
 20
637.28850184005205
 40
0.418475051889444
  0
CIRCLE
  8
_2-0_
  6
CONTINUOUS
 62
    7
 10
807.16768165875078
 20
641.78004742203234
 40
0.8369501037788641
  0
CIRCLE
  8
_2-0_
  6
CONTINUOUS
 62
    7
 10
799.6046071766134
 20
639.18392697999911
 40
1.5587436147990275
  0
CIRCLE
  8
_2-0_
  6
CONTINUOUS
 62
    7
 10
791.40425475200891
 20
589.83280381116947
 40
0.418475051889444
  0
CIRCLE
  8
_2-0_
  6
CONTINUOUS
 62
    7
 10
794.67934007220265
 20
594.32434939314953
 40
0.8369501037788641
  0
CIRCLE
  8
_2-0_
  6
CONTINUOUS
 62
    7
 10
787.11626559006527
 20
591.72822895111642
 40
1.5587436147990275
  0
CIRCLE
  8
_2-0_
  6
CONTINUOUS
 62
    7
 10
810.13676713183099
 20
551.74336197219782
 40
0.418475051889444
  0
CIRCLE
  8
_2-0_
  6
CONTINUOUS
 62
    7
 10
813.41185245202485
 20
556.23490755417788
 40
0.8369501037788641
  0
CIRCLE
  8
_2-0_
  6
CONTINUOUS
 62
    7
 10
805.84877796988735
 20
553.63878711214488
 40
1.5587436147990275
  0
CIRCLE
  8
_2-0_
  6
CONTINUOUS
 62
    7
 10
800.77051094192007
 20
505.53649810196998
 40
0.418475051889444
  0
CIRCLE
  8
_2-0_
  6
CONTINUOUS
 62
    7
 10
804.0455962621138
 20
510.0280436839501
 40
0.8369501037788641
  0
CIRCLE
  8
_2-0_
  6
CONTINUOUS
 62
    7
 10
796.48252177997631
 20
507.43192324191693
 40
1.5587436147990275
  0
LINE
  8
_2-0_
  6
CONTINUOUS
 62
    7
 10
672.02009678841466
 20
651.41728962860623
 11
640.1461374042201
 21
651.41728962860623
  0
LINE
  8
_2-0_
  6
CONTINUOUS
 62
    7
 10
640.1461374042201
 20
651.41728962860623
 11
461.82416111796209
 21
691.25375920499152
  0
LINE
  8
_2-0_
  6
CONTINUOUS
 62
    7
 10
672.02009678841466
 20
649.91728962860623
 11
639.9806299893803
 21
649.91728962860623
  0
LINE
  8
_2-0_
  6
CONTINUOUS
 62
    7
 10
639.9806299893803
 20
649.91728962860623
 11
461.07172252023361
 21
689.88487745916029
  0
LINE
  8
_2-0_
  6
CONTINUOUS
 62
    7
 10
672.02009678841466
 20
649.91728962860623
 11
672.02009678841466
 21
651.41728962860623
  0
LINE
  8
_2-0_
  6
CONTINUOUS
 62
    7
 10
996.32588322604147
 20
700.46228962860619
 11
985.74847105659558
 21
689.88487745916029
  0
LINE
  8
_2-0_
  6
CONTINUOUS
 62
    7
 10
1043.2995239619672
 20
700.46228962860619
 11
996.32588322604147
 21
700.46228962860619
  0
LINE
  8
_2-0_
  6
CONTINUOUS
 62
    7
 10
995.70456288248181
 20
701.96228962860619
 11
984.99603245886715
 21
691.25375920499152
  0
LINE
  8
_2-0_
  6
CONTINUOUS
 62
    7
 10
1043.2995239619672
 20
701.96228962860619
 11
995.70456288248181
 21
701.96228962860619
  0
LINE
  8
_2-0_
  6
CONTINUOUS
 62
    7
 10
1043.2995239619672
 20
700.46228962860619
 11
1043.2995239619672
 21
701.96228962860619
  0
LINE
  8
_2-0_
  6
CONTINUOUS
 62
    7
 10
1123.4100967884146
 20
698.86228962860628
 11
1053.4009322729996
 21
698.86228962860628
  0
LINE
  8
_2-0_
  6
CONTINUOUS
 62
    7
 10
1043.7014477506141
 20
704.46228962860619
 11
1053.4009322729996
 21
698.86228962860628
  0
LINE
  8
_2-0_
  6
CONTINUOUS
 62
    7
 10
1043.2995239619672
 20
702.96228962860619
 11
1052.999008484353
 21
697.36228962860628
  0
LINE
  8
_2-0_
  6
CONTINUOUS
 62
    7
 10
1123.4100967884146
 20
697.36228962860628
 11
1052.999008484353
 21
697.36228962860628
  0
LINE
  8
_2-0_
  6
CONTINUOUS
 62
    7
 10
1000.7230042225804
 20
704.81342864969929
 11
997.87186520148725
 21
701.96228962860619
  0
LINE
  8
_2-0_
  6
CONTINUOUS
 62
    7
 10
1043.2995239619672
 20
702.96228962860619
 11
1002.8009454347092
 21
702.96228962860619
  0
LINE
  8
_2-0_
  6
CONTINUOUS
 62
    7
 10
1002.8009454347092
 20
702.96228962860619
 11
1002.8009454347092
 21
704.46228962860619
  0
LINE
  8
_2-0_
  6
CONTINUOUS
 62
    7
 10
1043.7014477506141
 20
704.46228962860619
 11
1002.8009454347092
 21
704.46228962860619
  0
ARC
  8
_2-0_
  6
CONTINUOUS
 62
    7
 10
1002.8009454347092
 20
701.96228962860619
 40
3.5280070009373969
 50
45.122369723830552
 51
126.08497374372983
  0
LINE
  8
_2-0_
  6
DASHED3
 62
    7
 10
1123.4100967884146
 20
696.36228962860628
 11
992.64009678841467
 21
696.36228962860628
  0
LINE
  8
_2-0_
  6
CONTINUOUS
 62
    7
 10
774.80009678841452
 20
651.41728962860623
 11
806.6740561726092
 21
651.41728962860623
  0
LINE
  8
_2-0_
  6
CONTINUOUS
 62
    7
 10
806.6740561726092
 20
651.41728962860623
 11
984.99603245886715
 21
691.25375920499152
  0
LINE
  8
_2-0_
  6
CONTINUOUS
 62
    7
 10
774.80009678841452
 20
649.91728962860623
 11
806.83956358744899
 21
649.91728962860623
  0
LINE
  8
_2-0_
  6
CONTINUOUS
 62
    7
 10
806.83956358744899
 20
649.91728962860623
 11
985.74847105659558
 21
689.88487745916029
  0
LINE
  8
_2-0_
  6
CONTINUOUS
 62
    7
 10
774.80009678841452
 20
649.91728962860623
 11
774.80009678841452
 21
651.41728962860623
  0
LINE
  8
_2-0_
  6
CONTINUOUS
 62
    7
 10
364.91651082224422
 20
696.13768469883462
 11
455.86089720059192
 21
853.65798256930793
  0
LINE
  8
_2-0_
  6
CONTINUOUS
 62
    7
 10
455.86089720059192
 20
853.65798256930793
 11
465.86089720059192
 21
853.65798256930793
  0
LINE
  8
_2-0_
  6
CONTINUOUS
 62
    7
 10
874.01123615955703
 20
592.75104703042143
 11
937.85323809161969
 21
482.17345602717847
  0
LINE
  8
_2-0_
  6
CONTINUOUS
 62
    7
 10
937.85323809161969
 20
482.17345602717847
 11
947.85323809161969
 21
482.17345602717847
  0
LINE
  8
_2-0_
  6
CONTINUOUS
 62
    7
 10
764.48296620120334
 20
706.14765406238212
 11
830.26347031097862
 21
820.08282932800614
  0
LINE
  8
_2-0_
  6
CONTINUOUS
 62
    7
 10
830.26347031097862
 20
820.08282932800614
 11
840.26347031097862
 21
820.08282932800614
  0
LINE
  8
_2-0_
  6
CONTINUOUS
 62
    7
 10
962.72750180510513
 20
597.29776253392163
 11
997.02108202275883
 21
537.89953922350662
  0
LINE
  8
_2-0_
  6
CONTINUOUS
 62
    7
 10
997.02108202275883
 20
537.89953922350662
 11
1007.0210820227588
 21
537.89953922350662
  0
LINE
  8
_2-0_
  6
CONTINUOUS
 62
    7
 10
424.09638285647543
 20
654.45129244451664
 11
424.09638285647543
 21
696.62814510256692
  0
LINE
  8
_2-0_
  6
CONTINUOUS
 62
    7
 10
432.69658285647552
 20
699.42834510256694
 11
421.29618285647553
 21
699.42834510256694
  0
LINE
  8
_2-0_
  6
CONTINUOUS
 62
    7
 10
424.09638285647543
 20
696.62814510256692
 11
421.29618285647553
 21
699.42834510256694
  0
LINE
  8
_2-0_
  6
CONTINUOUS
 62
    7
 10
429.89638285647544
 20
696.62814510256692
 11
432.69658285647552
 21
699.42834510256694
  0
LINE
  8
_2-0_
  6
CONTINUOUS
 62
    7
 10
429.89638285647544
 20
654.45129244451675
 11
426.99638285647552
 21
649.42834510256694
  0
LINE
  8
_2-0_
  6
CONTINUOUS
 62
    7
 10
429.89638285647544
 20
654.45129244451675
 11
429.89638285647544
 21
696.62814510256692
  0
LINE
  8
_2-0_
  6
CONTINUOUS
 62
    7
 10
424.09638285647543
 20
654.45129244451664
 11
426.99638285647552
 21
649.42834510256694
  0
LINE
  8
_2-0_
  6
DASHED2
 62
    7
 10
423.02838285647556
 20
677.19314510256697
 11
424.49638285647541
 21
677.19314510256697
  0
LINE
  8
_2-0_
  6
DASHED2
 62
    7
 10
423.02838285647556
 20
675.29294510256693
 11
424.49638285647541
 21
675.29294510256693
  0
LINE
  8
_2-0_
  6
DASHED2
 62
    7
 10
423.02838285647556
 20
665.79394510256691
 11
424.49638285647541
 21
665.79394510256691
  0
LINE
  8
_2-0_
  6
DASHED2
 62
    7
 10
423.02838285647556
 20
667.69294510256702
 11
424.49638285647541
 21
667.69294510256702
  0
LINE
  8
_2-0_
  6
DASHED2
 62
    7
 10
423.02838285647556
 20
669.5933451025669
 11
424.49638285647541
 21
669.5933451025669
  0
LINE
  8
_2-0_
  6
DASHED2
 62
    7
 10
423.02838285647556
 20
671.49354510256694
 11
424.49638285647541
 21
671.49354510256694
  0
LINE
  8
_2-0_
  6
DASHED2
 62
    7
 10
423.02838285647556
 20
673.39394510256716
 11
424.49638285647541
 21
673.39394510256716
  0
ARC
  8
_2-0_
  6
CONTINUOUS
 62
    7
 10
411.03636085647537
 20
682.62809010256683
 40
12.02006079916025
 50
4.0515020868825955
 51
40.412609770171883
  0
ARC
  8
_2-0_
  6
CONTINUOUS
 62
    7
 10
404.03059085647544
 20
681.82964510256716
 40
19.067119053419354
 50
355.7950026216887
 51
4.9574427922427935
  0
ARC
  8
_2-0_
  6
CONTINUOUS
 62
    7
 10
414.94923285647542
 20
685.79732010256691
 40
6.9873387010452621
 50
41.426405381178789
 51
52.876026285625777
  0
LINE
  8
_2-0_
  6
CONTINUOUS
 62
    7
 10
419.86038285647538
 20
692.08914510256693
 11
419.16638285647548
 21
691.36854510256694
  0
ARC
  8
_2-0_
  6
CONTINUOUS
 62
    7
 10
410.31184341203084
 20
682.3526462136781
 40
13.63722904902037
 50
4.742514265329433
 51
45.558409152256168
  0
ARC
  8
_2-0_
  6
CONTINUOUS
 62
    7
 10
413.33733485647542
 20
682.47030510256673
 40
10.613200086114647
 50
356.29748064263498
 51
5.4599208131890915
  0
LINE
  8
_2-0_
  6
CONTINUOUS
 62
    7
 10
423.02838285647556
 20
679.09354510256685
 11
423.02838285647556
 21
679.49034510256695
  0
LINE
  8
_2-0_
  6
CONTINUOUS
 62
    7
 10
423.04638285647559
 20
680.43154510256704
 11
423.99954562810319
 21
679.49034510256695
  0
LINE
  8
_2-0_
  6
CONTINUOUS
 62
    7
 10
423.02838285647556
 20
679.49034510256695
 11
423.99954562810319
 21
679.49034510256695
  0
LINE
  8
_2-0_
  6
CONTINUOUS
 62
    7
 10
423.02838285647556
 20
679.09354510256685
 11
423.98909116247211
 21
677.59014510256691
  0
LINE
  8
_2-0_
  6
CONTINUOUS
 62
    7
 10
423.02838285647556
 20
673.39394510256716
 11
423.02838285647556
 21
673.79074510256703
  0
LINE
  8
_2-0_
  6
CONTINUOUS
 62
    7
 10
423.02838285647556
 20
677.19314510256697
 11
423.02838285647556
 21
677.59014510256691
  0
LINE
  8
_2-0_
  6
CONTINUOUS
 62
    7
 10
423.02838285647556
 20
675.29294510256693
 11
423.02838285647556
 21
675.68974510256703
  0
LINE
  8
_2-0_
  6
CONTINUOUS
 62
    7
 10
423.02838285647556
 20
665.79394510256691
 11
423.02838285647556
 21
666.19094510256696
  0
LINE
  8
_2-0_
  6
CONTINUOUS
 62
    7
 10
423.02838285647556
 20
667.69294510256702
 11
423.02838285647556
 21
668.08974510256701
  0
LINE
  8
_2-0_
  6
CONTINUOUS
 62
    7
 10
423.02838285647556
 20
669.5933451025669
 11
423.02838285647556
 21
669.990145102567
  0
LINE
  8
_2-0_
  6
CONTINUOUS
 62
    7
 10
423.02838285647556
 20
671.49354510256694
 11
423.02838285647556
 21
671.89054510256699
  0
LINE
  8
_2-0_
  6
CONTINUOUS
 62
    7
 10
423.02838285647556
 20
677.59014510256691
 11
423.98909116247211
 21
677.59014510256691
  0
LINE
  8
_2-0_
  6
CONTINUOUS
 62
    7
 10
423.02838285647556
 20
675.68974510256703
 11
423.98921723967749
 21
675.68974510256703
  0
LINE
  8
_2-0_
  6
CONTINUOUS
 62
    7
 10
423.02838285647556
 20
677.19314510256697
 11
423.98921723967749
 21
675.68974510256703
  0
LINE
  8
_2-0_
  6
CONTINUOUS
 62
    7
 10
423.02838285647556
 20
673.79074510256703
 11
423.98832433397189
 21
673.79074510256703
  0
LINE
  8
_2-0_
  6
CONTINUOUS
 62
    7
 10
423.02838285647556
 20
675.29294510256693
 11
423.98832433397189
 21
673.79074510256703
  0
LINE
  8
_2-0_
  6
CONTINUOUS
 62
    7
 10
423.02838285647556
 20
669.990145102567
 11
423.98921723967749
 21
669.990145102567
  0
LINE
  8
_2-0_
  6
CONTINUOUS
 62
    7
 10
423.02838285647556
 20
671.49354510256694
 11
423.98921723967749
 21
669.990145102567
  0
LINE
  8
_2-0_
  6
CONTINUOUS
 62
    7
 10
423.02838285647556
 20
671.89054510256699
 11
423.98820954761334
 21
671.89054510256699
  0
LINE
  8
_2-0_
  6
CONTINUOUS
 62
    7
 10
423.02838285647556
 20
673.39394510256716
 11
423.98820954761334
 21
671.89054510256699
  0
LINE
  8
_2-0_
  6
CONTINUOUS
 62
    7
 10
423.02838285647556
 20
668.08974510256701
 11
423.98921896722214
 21
668.08974510256701
  0
LINE
  8
_2-0_
  6
CONTINUOUS
 62
    7
 10
423.02838285647556
 20
669.5933451025669
 11
423.98921896722214
 21
668.08974510256701
  0
LINE
  8
_2-0_
  6
CONTINUOUS
 62
    7
 10
423.02838285647556
 20
666.19094510256696
 11
423.98819652922185
 21
666.19094510256696
  0
LINE
  8
_2-0_
  6
CONTINUOUS
 62
    7
 10
423.02838285647556
 20
667.69294510256702
 11
423.98819652922185
 21
666.19094510256696
  0
LINE
  8
_2-0_
  6
DASHED2
 62
    7
 10
429.49638285647563
 20
678.51474510256696
 11
429.49638285647563
 21
663.29694510256695
  0
ARC
  8
_2-0_
  6
CONTINUOUS
 62
    7
 10
442.7172566390841
 20
682.70901988517562
 40
12.716799182876581
 50
132.37502471061384
 51
184.18608276411595
  0
ARC
  8
_2-0_
  6
CONTINUOUS
 62
    7
 10
440.69515785647525
 20
683.22192010256686
 40
11.141243957981073
 50
155.17616440720482
 51
166.44206336835197
  0
LINE
  8
_2-0_
  6
CONTINUOUS
 62
    7
 10
434.91838285647543
 20
691.45534510256698
 11
434.14638285647538
 21
692.10354510256695
  0
ARC
  8
_2-0_
  6
CONTINUOUS
 62
    7
 10
442.45335895171354
 20
682.86876962637643
 40
11.423884766756254
 50
131.26791700126978
 51
178.70703348506169
  0
LINE
  8
_2-0_
  6
CONTINUOUS
 62
    7
 10
431.0303828564754
 20
681.77934510256694
 11
431.03238285647546
 21
683.12654510256698
  0
LINE
  8
_2-0_
  6
DASHED2
 62
    7
 10
430.96438285647548
 20
677.19314510256697
 11
429.49638285647563
 21
677.19314510256697
  0
LINE
  8
_2-0_
  6
DASHED2
 62
    7
 10
430.96438285647548
 20
675.29294510256693
 11
429.49638285647563
 21
675.29294510256693
  0
LINE
  8
_2-0_
  6
DASHED2
 62
    7
 10
430.96438285647548
 20
665.79394510256691
 11
429.49638285647563
 21
665.79394510256691
  0
LINE
  8
_2-0_
  6
DASHED2
 62
    7
 10
430.96438285647548
 20
667.69294510256702
 11
429.49638285647563
 21
667.69294510256702
  0
LINE
  8
_2-0_
  6
DASHED2
 62
    7
 10
430.96438285647548
 20
669.5933451025669
 11
429.49638285647563
 21
669.5933451025669
  0
LINE
  8
_2-0_
  6
DASHED2
 62
    7
 10
430.96438285647548
 20
671.49354510256694
 11
429.49638285647563
 21
671.49354510256694
  0
LINE
  8
_2-0_
  6
DASHED2
 62
    7
 10
430.96438285647548
 20
673.39394510256716
 11
429.49638285647563
 21
673.39394510256716
  0
LINE
  8
_2-0_
  6
CONTINUOUS
 62
    7
 10
430.96438285647548
 20
679.09354510256685
 11
430.96438285647548
 21
679.49034510256695
  0
LINE
  8
_2-0_
  6
CONTINUOUS
 62
    7
 10
430.96438285647548
 20
679.49034510256695
 11
429.99322008484785
 21
679.49034510256695
  0
LINE
  8
_2-0_
  6
CONTINUOUS
 62
    7
 10
430.96438285647548
 20
679.09354510256685
 11
430.00367455047876
 21
677.59014510256691
  0
LINE
  8
_2-0_
  6
CONTINUOUS
 62
    7
 10
430.96438285647548
 20
673.39394510256716
 11
430.96438285647548
 21
673.79074510256703
  0
LINE
  8
_2-0_
  6
CONTINUOUS
 62
    7
 10
430.96438285647548
 20
677.19314510256697
 11
430.96438285647548
 21
677.59014510256691
  0
LINE
  8
_2-0_
  6
CONTINUOUS
 62
    7
 10
430.96438285647548
 20
675.29294510256693
 11
430.96438285647548
 21
675.68974510256703
  0
LINE
  8
_2-0_
  6
CONTINUOUS
 62
    7
 10
430.96438285647548
 20
665.79394510256691
 11
430.96438285647548
 21
666.19094510256696
  0
LINE
  8
_2-0_
  6
CONTINUOUS
 62
    7
 10
430.96438285647548
 20
667.69294510256702
 11
430.96438285647548
 21
668.08974510256701
  0
LINE
  8
_2-0_
  6
CONTINUOUS
 62
    7
 10
430.96438285647548
 20
669.5933451025669
 11
430.96438285647548
 21
669.990145102567
  0
LINE
  8
_2-0_
  6
CONTINUOUS
 62
    7
 10
430.96438285647548
 20
671.49354510256694
 11
430.96438285647548
 21
671.89054510256699
  0
LINE
  8
_2-0_
  6
CONTINUOUS
 62
    7
 10
430.96438285647548
 20
677.59014510256691
 11
430.00367455047876
 21
677.59014510256691
  0
LINE
  8
_2-0_
  6
CONTINUOUS
 62
    7
 10
430.96438285647548
 20
675.68974510256703
 11
430.00354847327355
 21
675.68974510256703
  0
LINE
  8
_2-0_
  6
CONTINUOUS
 62
    7
 10
430.96438285647548
 20
677.19314510256697
 11
430.00354847327355
 21
675.68974510256703
  0
LINE
  8
_2-0_
  6
CONTINUOUS
 62
    7
 10
430.96438285647548
 20
673.79074510256703
 11
430.00444137897898
 21
673.79074510256703
  0
LINE
  8
_2-0_
  6
CONTINUOUS
 62
    7
 10
430.96438285647548
 20
675.29294510256693
 11
430.00444137897898
 21
673.79074510256703
  0
LINE
  8
_2-0_
  6
CONTINUOUS
 62
    7
 10
430.96438285647548
 20
669.990145102567
 11
430.00354847327355
 21
669.990145102567
  0
LINE
  8
_2-0_
  6
CONTINUOUS
 62
    7
 10
430.96438285647548
 20
671.49354510256694
 11
430.00354847327355
 21
669.990145102567
  0
LINE
  8
_2-0_
  6
CONTINUOUS
 62
    7
 10
430.96438285647548
 20
671.89054510256699
 11
430.0045561653377
 21
671.89054510256699
  0
LINE
  8
_2-0_
  6
CONTINUOUS
 62
    7
 10
430.96438285647548
 20
673.39394510256716
 11
430.0045561653377
 21
671.89054510256699
  0
LINE
  8
_2-0_
  6
CONTINUOUS
 62
    7
 10
430.96438285647548
 20
668.08974510256701
 11
430.00354674572873
 21
668.08974510256701
  0
LINE
  8
_2-0_
  6
CONTINUOUS
 62
    7
 10
430.96438285647548
 20
669.5933451025669
 11
430.00354674572873
 21
668.08974510256701
  0
LINE
  8
_2-0_
  6
CONTINUOUS
 62
    7
 10
430.96438285647548
 20
666.19094510256696
 11
430.00456918372902
 21
666.19094510256696
  0
LINE
  8
_2-0_
  6
CONTINUOUS
 62
    7
 10
430.96438285647548
 20
667.69294510256702
 11
430.00456918372902
 21
666.19094510256696
  0
LINE
  8
_2-0_
  6
DASHED2
 62
    7
 10
424.49638285647541
 20
678.51474510256696
 11
424.49638285647541
 21
663.29694510256695
  0
LINE
  8
_2-0_
  6
DASHED2
 62
    7
 10
427.8383828564755
 20
674.71554510256715
 11
426.11038285647538
 21
674.71554510256715
  0
LINE
  8
_2-0_
  6
DASHED2
 62
    7
 10
427.8383828564755
 20
674.33234510256716
 11
426.11038285647538
 21
674.33234510256716
  0
LINE
  8
_2-0_
  6
DASHED2
 62
    7
 10
427.8383828564755
 20
676.23274510256692
 11
426.11038285647538
 21
676.23274510256692
  0
LINE
  8
_2-0_
  6
DASHED2
 62
    7
 10
427.8383828564755
 20
676.61574510256696
 11
426.11038285647538
 21
676.61574510256696
  0
LINE
  8
_2-0_
  6
DASHED2
 62
    7
 10
427.8383828564755
 20
678.13294510256696
 11
426.11038285647538
 21
678.13294510256696
  0
LINE
  8
_2-0_
  6
DASHED2
 62
    7
 10
427.8383828564755
 20
678.51474510256696
 11
426.11038285647538
 21
678.51474510256696
  0
LINE
  8
_2-0_
  6
DASHED2
 62
    7
 10
427.8383828564755
 20
679.15694510256685
 11
426.11038285647538
 21
679.15694510256685
  0
LINE
  8
_2-0_
  6
DASHED2
 62
    7
 10
427.8383828564755
 20
679.49034510256695
 11
426.11038285647538
 21
679.49034510256695
  0
LINE
  8
_2-0_
  6
DASHED2
 62
    7
 10
426.59438285647536
 20
669.015945102567
 11
424.49638285647541
 21
669.015945102567
  0
LINE
  8
_2-0_
  6
DASHED2
 62
    7
 10
427.54638285647559
 20
672.81514510256693
 11
426.11038285647538
 21
672.81514510256693
  0
LINE
  8
_2-0_
  6
DASHED2
 62
    7
 10
427.32638285647556
 20
672.43334510256705
 11
426.11038285647538
 21
672.43334510256705
  0
LINE
  8
_2-0_
  6
DASHED2
 62
    7
 10
423.98909116247211
 20
677.59014510256691
 11
424.49638285647541
 21
677.59014510256691
  0
LINE
  8
_2-0_
  6
DASHED2
 62
    7
 10
424.01119444687794
 20
664.25474510256686
 11
424.49638285647541
 21
664.25474510256686
  0
LINE
  8
_2-0_
  6
DASHED2
 62
    7
 10
423.98819652922185
 20
666.19094510256696
 11
424.49638285647541
 21
666.19094510256696
  0
LINE
  8
_2-0_
  6
DASHED2
 62
    7
 10
423.98921896722214
 20
668.08974510256701
 11
424.49638285647541
 21
668.08974510256701
  0
LINE
  8
_2-0_
  6
DASHED2
 62
    7
 10
423.98921723967749
 20
669.990145102567
 11
424.49638285647541
 21
669.990145102567
  0
LINE
  8
_2-0_
  6
DASHED2
 62
    7
 10
423.98820954761334
 20
671.89054510256699
 11
424.49638285647541
 21
671.89054510256699
  0
LINE
  8
_2-0_
  6
DASHED2
 62
    7
 10
423.98832433397189
 20
673.79074510256703
 11
424.49638285647541
 21
673.79074510256703
  0
LINE
  8
_2-0_
  6
DASHED2
 62
    7
 10
423.98921723967749
 20
675.68974510256703
 11
424.49638285647541
 21
675.68974510256703
  0
LINE
  8
_2-0_
  6
DASHED2
 62
    7
 10
430.00367455047876
 20
677.59014510256691
 11
429.49638285647563
 21
677.59014510256691
  0
LINE
  8
_2-0_
  6
DASHED2
 62
    7
 10
430.00456918372902
 20
666.19094510256696
 11
429.49638285647563
 21
666.19094510256696
  0
LINE
  8
_2-0_
  6
DASHED2
 62
    7
 10
430.00354674572873
 20
668.08974510256701
 11
429.49638285647563
 21
668.08974510256701
  0
LINE
  8
_2-0_
  6
DASHED2
 62
    7
 10
430.00354847327355
 20
669.990145102567
 11
429.49638285647563
 21
669.990145102567
  0
LINE
  8
_2-0_
  6
DASHED2
 62
    7
 10
430.0045561653377
 20
671.89054510256699
 11
429.49638285647563
 21
671.89054510256699
  0
LINE
  8
_2-0_
  6
DASHED2
 62
    7
 10
430.00444137897898
 20
673.79074510256703
 11
429.49638285647563
 21
673.79074510256703
  0
LINE
  8
_2-0_
  6
DASHED2
 62
    7
 10
430.00354847327355
 20
675.68974510256703
 11
429.49638285647563
 21
675.68974510256703
  0
LINE
  8
_2-0_
  6
CONTINUOUS
 62
    7
 10
423.02838285647556
 20
665.79394510256691
 11
424.01119444687794
 21
664.25474510256686
  0
LINE
  8
_2-0_
  6
CONTINUOUS
 62
    7
 10
422.99638285647546
 20
664.25474510256686
 11
424.01119444687794
 21
664.25474510256686
  0
LINE
  8
_2-0_
  6
CONTINUOUS
 62
    7
 10
422.99638285647546
 20
664.25474510256686
 11
422.99638285647546
 21
658.38523634925127
  0
LINE
  8
_2-0_
  6
CONTINUOUS
 62
    7
 10
430.99638285647541
 20
664.25474510256686
 11
429.98157126607293
 21
664.25474510256686
  0
LINE
  8
_2-0_
  6
CONTINUOUS
 62
    7
 10
430.96438285647548
 20
665.79394510256691
 11
429.98157126607293
 21
664.25474510256686
  0
LINE
  8
_2-0_
  6
CONTINUOUS
 62
    7
 10
431.00438285647544
 20
680.48881716734422
 11
429.99322008484785
 21
679.49034510256695
  0
LINE
  8
_2-0_
  6
CONTINUOUS
 62
    7
 10
431.00438285647544
 20
681.76834510256697
 11
431.00438285647544
 21
680.48881716734422
  0
LINE
  8
_2-0_
  6
DASHED2
 62
    7
 10
424.49638285647541
 20
663.29694510256695
 11
429.49638285647563
 21
663.29694510256695
  0
LINE
  8
_2-0_
  6
DASHED2
 62
    7
 10
428.38438285647555
 20
672.81514510256693
 11
429.49638285647563
 21
672.81514510256693
  0
LINE
  8
_2-0_
  6
DASHED2
 62
    7
 10
428.25238285647544
 20
672.43334510256705
 11
429.49638285647563
 21
672.43334510256705
  0
LINE
  8
_2-0_
  6
CONTINUOUS
 62
    7
 10
422.99638285647546
 20
688.4203601969067
 11
423.51838285647534
 21
687.89934510256694
  0
LINE
  8
_2-0_
  6
CONTINUOUS
 62
    7
 10
430.58333248710608
 20
687.89934510256694
 11
430.99638285647541
 21
688.41829404856526
  0
LINE
  8
_2-0_
  6
CONTINUOUS
 62
    7
 10
430.99638285647541
 20
688.41829404856526
 11
430.99638285647541
 21
695.03622969640458
  0
LINE
  8
_2-0_
  6
CONTINUOUS
 62
    7
 10
422.99638285647546
 20
688.4203601969067
 11
422.99638285647546
 21
695.03603578069885
  0
LINE
  8
_2-0_
  6
CONTINUOUS
 62
    7
 10
430.99638285647541
 20
695.03622969640458
 11
431.73849826263779
 21
695.77834510256696
  0
LINE
  8
_2-0_
  6
DASHED2
 62
    7
 10
423.88538475154576
 20
695.03603578069885
 11
422.99638285647546
 21
695.03603578069885
  0
LINE
  8
_2-0_
  6
DASHED2
 62
    7
 10
430.99638285647541
 20
695.03603578069885
 11
430.12138096140512
 21
695.03603578069885
  0
LINE
  8
_2-0_
  6
DASHED2
 62
    7
 10
429.51237567337785
 20
695.03603578069885
 11
424.49439003957309
 21
695.03603578069885
  0
LINE
  8
_2-0_
  6
CONTINUOUS
 62
    7
 10
422.99638285647546
 20
658.38523634925127
 11
424.50066392911992
 21
655.77974510256695
  0
LINE
  8
_2-0_
  6
CONTINUOUS
 62
    7
 10
430.99638285647541
 20
664.25474510256686
 11
430.99638285647541
 21
658.38523634925127
  0
LINE
  8
_2-0_
  6
CONTINUOUS
 62
    7
 10
430.99638285647541
 20
658.38523634925127
 11
429.49210178383112
 21
655.77974510256695
  0
LINE
  8
_2-0_
  6
CONTINUOUS
 62
    7
 10
422.99638285647546
 20
695.03603578069885
 11
422.25407353460741
 21
695.77834510256696
  0
LINE
  8
_2-0_
  6
DASHED2
 62
    7
 10
430.21921958361361
 20
695.77834510256696
 11
430.20492708176721
 21
695.76350793153483
  0
LINE
  8
_2-0_
  6
DASHED2
 62
    7
 10
429.89638285647544
 20
695.77834510256696
 11
424.09638285647543
 21
695.77834510256696
  0
LINE
  8
_2-0_
  6
CONTINUOUS
 62
    7
 10
422.25407353460741
 20
695.77834510256696
 11
424.09638285647543
 21
695.77834510256696
  0
LINE
  8
_2-0_
  6
CONTINUOUS
 62
    7
 10
431.73849826263779
 20
695.77834510256696
 11
429.89638285647544
 21
695.77834510256696
  0
ARC
  8
_2-0_
  6
DASHED2
 62
    7
 10
480.33261785647551
 20
679.45898510256734
 40
50.869247184058253
 50
172.80096185739851
 51
177.38401321009891
  0
LINE
  8
_2-0_
  6
DASHED2
 62
    7
 10
429.89638285647544
 20
681.78074510256693
 11
429.51638285647562
 21
681.78074510256693
  0
LINE
  8
_2-0_
  6
CONTINUOUS
 62
    7
 10
430.03438285647547
 20
681.78074510256693
 11
429.89638285647544
 21
681.78074510256693
  0
ARC
  8
_2-0_
  6
CONTINUOUS
 62
    7
 10
417.0232628564753
 20
684.8301451025668
 40
7.1837714645164583
 50
10.414571251914561
 51
25.292579033513555
  0
ARC
  8
_2-0_
  6
DASHED2
 62
    7
 10
404.50884285647544
 20
681.76728176923348
 40
20.067547773580664
 50
0.050431402692386
 51
12.556948514115463
  0
LINE
  8
_2-0_
  6
DASHED2
 62
    7
 10
424.57638285647545
 20
681.78494510256701
 11
424.09638285647543
 21
681.78494510256701
  0
LINE
  8
_2-0_
  6
CONTINUOUS
 62
    7
 10
423.92838285647542
 20
681.78494510256678
 11
424.09638285647543
 21
681.78494510256678
  0
LINE
  8
_2-0_
  6
DASHED2
 62
    7
 10
424.50066392911992
 20
655.77974510256695
 11
425.83363652031693
 21
655.77974510256695
  0
LINE
  8
_2-0_
  6
DASHED2
 62
    7
 10
426.23778170874965
 20
655.77974510256695
 11
427.75498400420133
 21
655.77974510256695
  0
LINE
  8
_2-0_
  6
DASHED2
 62
    7
 10
428.15912919263411
 20
655.77974510256695
 11
429.49210178383112
 21
655.77974510256695
  0
LINE
  8
_2-0_
  6
DASHED2
 62
    7
 10
422.99638285647546
 20
688.4203601969067
 11
426.59638285647543
 21
688.4203601969067
  0
LINE
  8
_2-0_
  6
DASHED2
 62
    7
 10
427.39638285647561
 20
688.4203601969067
 11
430.99638285647541
 21
688.4203601969067
  0
LINE
  8
_2-0_
  6
DASHED2
 62
    7
 10
423.51838285647534
 20
687.89934510256694
 11
426.59638285647543
 21
687.89934510256694
  0
LINE
  8
_2-0_
  6
DASHED2
 62
    7
 10
427.39638285647561
 20
687.89934510256694
 11
430.58333248710608
 21
687.89934510256694
  0
LINE
  8
_2-0_
  6
DASHED2
 62
    7
 10
429.99322008484785
 20
679.49034510256695
 11
428.63838285647557
 21
679.49034510256695
  0
LINE
  8
_2-0_
  6
DASHED2
 62
    7
 10
428.63838285647557
 20
679.09354510256685
 11
430.96438285647548
 21
679.09354510256685
  0
LINE
  8
_2-0_
  6
DASHED2
 62
    7
 10
429.49638285647563
 20
674.33234510256716
 11
428.63838285647557
 21
674.33234510256716
  0
LINE
  8
_2-0_
  6
DASHED2
 62
    7
 10
429.49638285647563
 20
678.51474510256696
 11
428.63838285647557
 21
678.51474510256696
  0
LINE
  8
_2-0_
  6
DASHED2
 62
    7
 10
429.49638285647563
 20
678.13294510256696
 11
428.63838285647557
 21
678.13294510256696
  0
LINE
  8
_2-0_
  6
DASHED2
 62
    7
 10
429.49638285647563
 20
674.71554510256715
 11
428.63838285647557
 21
674.71554510256715
  0
LINE
  8
_2-0_
  6
DASHED2
 62
    7
 10
429.49638285647563
 20
676.23274510256692
 11
428.63838285647557
 21
676.23274510256692
  0
LINE
  8
_2-0_
  6
DASHED2
 62
    7
 10
429.49638285647563
 20
676.61574510256696
 11
428.63838285647557
 21
676.61574510256696
  0
LINE
  8
_2-0_
  6
DASHED2
 62
    7
 10
423.99954562810319
 20
679.49034510256695
 11
425.31038285647537
 21
679.49034510256695
  0
LINE
  8
_2-0_
  6
DASHED2
 62
    7
 10
423.02838285647556
 20
679.09354510256685
 11
425.31038285647537
 21
679.09354510256685
  0
LINE
  8
_2-0_
  6
DASHED2
 62
    7
 10
425.31038285647537
 20
672.43334510256705
 11
424.49638285647541
 21
672.43334510256705
  0
LINE
  8
_2-0_
  6
DASHED2
 62
    7
 10
425.31038285647537
 20
674.71554510256715
 11
424.49638285647541
 21
674.71554510256715
  0
LINE
  8
_2-0_
  6
DASHED2
 62
    7
 10
425.31038285647537
 20
674.33234510256716
 11
424.49638285647541
 21
674.33234510256716
  0
LINE
  8
_2-0_
  6
DASHED2
 62
    7
 10
424.49638285647541
 20
678.13294510256696
 11
425.31038285647537
 21
678.13294510256696
  0
LINE
  8
_2-0_
  6
DASHED2
 62
    7
 10
425.31038285647537
 20
676.23274510256692
 11
424.49638285647541
 21
676.23274510256692
  0
LINE
  8
_2-0_
  6
DASHED2
 62
    7
 10
425.31038285647537
 20
676.61574510256696
 11
424.49638285647541
 21
676.61574510256696
  0
LINE
  8
_2-0_
  6
DASHED2
 62
    7
 10
424.49638285647541
 20
678.51474510256696
 11
425.31038285647537
 21
678.51474510256696
  0
LINE
  8
_2-0_
  6
DASHED2
 62
    7
 10
425.31038285647537
 20
672.81514510256693
 11
424.49638285647541
 21
672.81514510256693
  0
LINE
  8
_2-0_
  6
DASHED2
 62
    7
 10
426.61968335841027
 20
670.533145102567
 11
424.49638285647541
 21
670.533145102567
  0
LINE
  8
_2-0_
  6
DASHED2
 62
    7
 10
426.7746153684638
 20
670.91474510256705
 11
424.49638285647541
 21
670.91474510256705
  0
LINE
  8
_2-0_
  6
DASHED2
 62
    7
 10
427.48310580550356
 20
670.533145102567
 11
429.49638285647563
 21
670.533145102567
  0
LINE
  8
_2-0_
  6
DASHED2
 62
    7
 10
427.63803781555708
 20
670.91474510256705
 11
429.49638285647563
 21
670.91474510256705
  0
LINE
  8
_2-0_
  6
DASHED2
 62
    7
 10
427.39638285647561
 20
669.015945102567
 11
429.49638285647563
 21
669.015945102567
  0
LINE
  8
_2-0_
  6
DASHED2
 62
    7
 10
427.39638285647561
 20
668.63274510256701
 11
429.49638285647563
 21
668.63274510256701
  0
LINE
  8
_2-0_
  6
DASHED2
 62
    7
 10
427.39638285647561
 20
664.83354510256709
 11
429.49638285647563
 21
664.83354510256709
  0
LINE
  8
_2-0_
  6
DASHED2
 62
    7
 10
427.39638285647561
 20
666.73374510256713
 11
429.49638285647563
 21
666.73374510256713
  0
LINE
  8
_2-0_
  6
DASHED2
 62
    7
 10
427.39638285647561
 20
665.2165451025669
 11
429.49638285647563
 21
665.2165451025669
  0
LINE
  8
_2-0_
  6
DASHED2
 62
    7
 10
427.39638285647561
 20
667.11554510256701
 11
429.49638285647563
 21
667.11554510256701
  0
LINE
  8
_2-0_
  6
DASHED2
 62
    7
 10
426.59438285647536
 20
668.63274510256701
 11
424.49638285647541
 21
668.63274510256701
  0
LINE
  8
_2-0_
  6
DASHED2
 62
    7
 10
426.59438285647536
 20
664.83354510256709
 11
424.49638285647541
 21
664.83354510256709
  0
LINE
  8
_2-0_
  6
DASHED2
 62
    7
 10
426.59438285647536
 20
665.2165451025669
 11
424.49638285647541
 21
665.2165451025669
  0
LINE
  8
_2-0_
  6
DASHED2
 62
    7
 10
426.59438285647536
 20
666.73374510256713
 11
424.49638285647541
 21
666.73374510256713
  0
LINE
  8
_2-0_
  6
DASHED2
 62
    7
 10
426.59438285647536
 20
667.11554510256701
 11
424.49638285647541
 21
667.11554510256701
  0
LINE
  8
_2-0_
  6
DASHED2
 62
    7
 10
429.98157126607293
 20
664.25474510256686
 11
429.49638285647563
 21
664.25474510256686
  0
ARC
  8
_2-0_
  6
DASHED2
 62
    7
 10
426.99638285647546
 20
663.74354510256694
 40
0.4000000000000056
 50
180
 51
359.99999999999682
  0
ARC
  8
_2-0_
  6
DASHED2
 62
    7
 10
425.71038285647541
 20
671.80094510256697
 40
0.3999999999999914
 50
180
 51
359.99999999999795
  0
LINE
  8
_2-0_
  6
DASHED2
 62
    7
 10
425.31038285647537
 20
683.96275774904075
 11
425.31038285647537
 21
671.80094510256697
  0
LINE
  8
_2-0_
  6
DASHED2
 62
    7
 10
426.59638285647543
 20
686.1901750875744
 11
425.31038285647537
 21
683.96275774904075
  0
LINE
  8
_2-0_
  6
DASHED2
 62
    7
 10
426.11038285647555
 20
683.74839839509582
 11
426.11038285647555
 21
671.80094510256697
  0
LINE
  8
_2-0_
  6
DASHED2
 62
    7
 10
427.39638285647561
 20
685.97581573362947
 11
426.11038285647555
 21
683.74839839509582
  0
LINE
  8
_2-0_
  6
DASHED2
 62
    7
 10
426.59638285647543
 20
691.00134510256692
 11
426.59638285647543
 21
686.1901750875744
  0
LINE
  8
_2-0_
  6
DASHED2
 62
    7
 10
427.39638285647561
 20
691.00134510256692
 11
427.39638285647561
 21
685.97581573362947
  0
ARC
  8
_2-0_
  6
DASHED2
 62
    7
 10
426.99638285647546
 20
691.00134510256692
 40
0.4000000000000056
 50
0
 51
180
  0
LINE
  8
_2-0_
  6
DASHED2
 62
    7
 10
427.8383828564755
 20
673.53482131073804
 11
427.8383828564755
 21
685.52414510256699
  0
ARC
  8
_2-0_
  6
DASHED2
 62
    7
 10
428.23838285647554
 20
685.52414510256699
 40
0.3999999999999914
 50
359.99999999999693
 51
180.00000000000304
  0
LINE
  8
_2-0_
  6
DASHED2
 62
    7
 10
426.59638285647543
 20
670.47575559645236
 11
426.59638285647543
 21
663.74354510256694
  0
LINE
  8
_2-0_
  6
DASHED2
 62
    7
 10
426.59638285647543
 20
670.47575559645236
 11
427.8383828564755
 21
673.53482131073804
  0
LINE
  8
_2-0_
  6
DASHED2
 62
    7
 10
427.39638285647561
 20
670.31954510255616
 11
427.39638285647561
 21
663.74354510256694
  0
LINE
  8
_2-0_
  6
DASHED2
 62
    7
 10
427.39638285647561
 20
670.31954510255616
 11
428.63838285647557
 21
673.37861081684184
  0
LINE
  8
_2-0_
  6
DASHED2
 62
    7
 10
428.63838285647557
 20
685.52414510256699
 11
428.63838285647557
 21
673.37861081684184
  0
LINE
  8
_2-0_
  6
DASHED2
 62
    7
 10
424.3963828564755
 20
662.37514510256699
 11
424.74638285647558
 21
662.37514510256699
  0
LINE
  8
_2-0_
  6
DASHED2
 62
    7
 10
429.24638285647546
 20
662.37514510256699
 11
429.59638285647554
 21
662.37514510256699
  0
LINE
  8
_2-0_
  6
DASHED2
 62
    7
 10
424.74638285647558
 20
658.36292368905561
 11
424.74638285647558
 21
662.37514510256699
  0
LINE
  8
_2-0_
  6
DASHED2
 62
    7
 10
429.24638285647546
 20
658.36292368905561
 11
429.24638285647546
 21
662.37514510256699
  0
LINE
  8
_2-0_
  6
DASHED2
 62
    7
 10
424.3963828564755
 20
658.26914147170464
 11
424.3963828564755
 21
662.37514510256699
  0
LINE
  8
_2-0_
  6
DASHED2
 62
    7
 10
429.59638285647554
 20
658.26914147170464
 11
429.59638285647554
 21
662.37514510256699
  0
LINE
  8
_2-0_
  6
DASHED2
 62
    7
 10
424.3963828564755
 20
658.26914147170464
 11
425.83363652031693
 21
655.77974510256695
  0
LINE
  8
_2-0_
  6
DASHED2
 62
    7
 10
424.74638285647558
 20
658.36292368905561
 11
426.23778170874965
 21
655.77974510256695
  0
LINE
  8
_2-0_
  6
DASHED2
 62
    7
 10
429.24638285647546
 20
658.36292368905561
 11
427.75498400420133
 21
655.77974510256695
  0
LINE
  8
_2-0_
  6
DASHED2
 62
    7
 10
429.59638285647554
 20
658.26914147170464
 11
428.15912919263411
 21
655.77974510256695
  0
LINE
  8
_2-0_
  6
DASHED2
 62
    7
 10
424.49439003957309
 20
695.03603578069885
 11
423.75395605289413
 21
695.77646976737788
  0
LINE
  8
_2-0_
  6
DASHED2
 62
    7
 10
424.49439003957309
 20
695.03603578069885
 11
424.49439003957309
 21
690.40034510256703
  0
LINE
  8
_2-0_
  6
DASHED2
 62
    7
 10
424.49439003957309
 20
690.40034510256703
 11
423.75395605289413
 21
695.77646976737788
  0
LINE
  8
_2-0_
  6
DASHED2
 62
    7
 10
429.49837567337784
 20
695.03603578069885
 11
430.23880966005692
 21
695.77646976737788
  0
LINE
  8
_2-0_
  6
DASHED2
 62
    7
 10
429.49837567337784
 20
695.03603578069885
 11
429.49837567337784
 21
690.40034510256703
  0
LINE
  8
_2-0_
  6
DASHED2
 62
    7
 10
429.49837567337784
 20
690.40034510256703
 11
430.23880966005692
 21
695.77646976737788
  0
LINE
  8
_2-0_
  6
CONTINUOUS
 62
    7
 10
1016.8783405276774
 20
654.47759686852805
 11
1016.8783405276774
 21
696.65444952657822
  0
LINE
  8
_2-0_
  6
CONTINUOUS
 62
    7
 10
1025.4785405276775
 20
699.45464952657835
 11
1014.0781405276775
 21
699.45464952657835
  0
LINE
  8
_2-0_
  6
CONTINUOUS
 62
    7
 10
1016.8783405276774
 20
696.65444952657822
 11
1014.0781405276775
 21
699.45464952657835
  0
LINE
  8
_2-0_
  6
CONTINUOUS
 62
    7
 10
1022.6783405276774
 20
696.65444952657822
 11
1025.4785405276775
 21
699.45464952657835
  0
LINE
  8
_2-0_
  6
CONTINUOUS
 62
    7
 10
1022.6783405276774
 20
654.47759686852805
 11
1019.7783405276775
 21
649.45464952657835
  0
LINE
  8
_2-0_
  6
CONTINUOUS
 62
    7
 10
1022.6783405276774
 20
654.47759686852805
 11
1022.6783405276774
 21
696.65444952657822
  0
LINE
  8
_2-0_
  6
CONTINUOUS
 62
    7
 10
1016.8783405276774
 20
654.47759686852805
 11
1019.7783405276775
 21
649.45464952657835
  0
LINE
  8
_2-0_
  6
DASHED2
 62
    7
 10
1015.8103405276775
 20
677.21944952657827
 11
1017.2783405276773
 21
677.21944952657827
  0
LINE
  8
_2-0_
  6
DASHED2
 62
    7
 10
1015.8103405276775
 20
675.31924952657823
 11
1017.2783405276773
 21
675.31924952657823
  0
LINE
  8
_2-0_
  6
DASHED2
 62
    7
 10
1015.8103405276775
 20
665.82024952657832
 11
1017.2783405276773
 21
665.82024952657832
  0
LINE
  8
_2-0_
  6
DASHED2
 62
    7
 10
1015.8103405276775
 20
667.71924952657832
 11
1017.2783405276773
 21
667.71924952657832
  0
LINE
  8
_2-0_
  6
DASHED2
 62
    7
 10
1015.8103405276775
 20
669.61964952657831
 11
1017.2783405276773
 21
669.61964952657831
  0
LINE
  8
_2-0_
  6
DASHED2
 62
    7
 10
1015.8103405276775
 20
671.51984952657824
 11
1017.2783405276773
 21
671.51984952657824
  0
LINE
  8
_2-0_
  6
DASHED2
 62
    7
 10
1015.8103405276775
 20
673.42024952657835
 11
1017.2783405276773
 21
673.42024952657835
  0
ARC
  8
_2-0_
  6
CONTINUOUS
 62
    7
 10
1003.8183185276772
 20
682.65439452657824
 40
12.02006079916025
 50
4.0515020868825955
 51
40.412609770171883
  0
ARC
  8
_2-0_
  6
CONTINUOUS
 62
    7
 10
996.81254852767722
 20
681.85594952657834
 40
19.067119053419354
 50
355.7950026216887
 51
4.9574427922427935
  0
ARC
  8
_2-0_
  6
CONTINUOUS
 62
    7
 10
1007.7311905276772
 20
685.82362452657833
 40
6.9873387010452621
 50
41.426405381178789
 51
52.876026285625777
  0
LINE
  8
_2-0_
  6
CONTINUOUS
 62
    7
 10
1012.6423405276773
 20
692.11544952657823
 11
1011.9483405276774
 21
691.39484952657824
  0
ARC
  8
_2-0_
  6
CONTINUOUS
 62
    7
 10
1003.0938010832326
 20
682.37895063768951
 40
13.63722904902037
 50
4.742514265329433
 51
45.558409152256168
  0
ARC
  8
_2-0_
  6
CONTINUOUS
 62
    7
 10
1006.1192925276772
 20
682.49660952657814
 40
10.613200086114647
 50
356.29748064263498
 51
5.4599208131890915
  0
LINE
  8
_2-0_
  6
CONTINUOUS
 62
    7
 10
1015.8103405276775
 20
679.11984952657826
 11
1015.8103405276775
 21
679.51664952657836
  0
LINE
  8
_2-0_
  6
CONTINUOUS
 62
    7
 10
1015.8283405276775
 20
680.45784952657823
 11
1016.7815032993051
 21
679.51664952657836
  0
LINE
  8
_2-0_
  6
CONTINUOUS
 62
    7
 10
1015.8103405276775
 20
679.51664952657836
 11
1016.7815032993051
 21
679.51664952657836
  0
LINE
  8
_2-0_
  6
CONTINUOUS
 62
    7
 10
1015.8103405276775
 20
679.11984952657826
 11
1016.7710488336741
 21
677.61644952657821
  0
LINE
  8
_2-0_
  6
CONTINUOUS
 62
    7
 10
1015.8103405276775
 20
673.42024952657835
 11
1015.8103405276775
 21
673.81704952657833
  0
LINE
  8
_2-0_
  6
CONTINUOUS
 62
    7
 10
1015.8103405276775
 20
677.21944952657827
 11
1015.8103405276775
 21
677.61644952657821
  0
LINE
  8
_2-0_
  6
CONTINUOUS
 62
    7
 10
1015.8103405276775
 20
675.31924952657823
 11
1015.8103405276775
 21
675.71604952657833
  0
LINE
  8
_2-0_
  6
CONTINUOUS
 62
    7
 10
1015.8103405276775
 20
665.82024952657832
 11
1015.8103405276775
 21
666.21724952657826
  0
LINE
  8
_2-0_
  6
CONTINUOUS
 62
    7
 10
1015.8103405276775
 20
667.71924952657832
 11
1015.8103405276775
 21
668.11604952657831
  0
LINE
  8
_2-0_
  6
CONTINUOUS
 62
    7
 10
1015.8103405276775
 20
669.61964952657831
 11
1015.8103405276775
 21
670.0164495265783
  0
LINE
  8
_2-0_
  6
CONTINUOUS
 62
    7
 10
1015.8103405276775
 20
671.51984952657824
 11
1015.8103405276775
 21
671.91684952657829
  0
LINE
  8
_2-0_
  6
CONTINUOUS
 62
    7
 10
1015.8103405276775
 20
677.61644952657821
 11
1016.7710488336741
 21
677.61644952657821
  0
LINE
  8
_2-0_
  6
CONTINUOUS
 62
    7
 10
1015.8103405276775
 20
675.71604952657833
 11
1016.7711749108794
 21
675.71604952657833
  0
LINE
  8
_2-0_
  6
CONTINUOUS
 62
    7
 10
1015.8103405276775
 20
677.21944952657827
 11
1016.7711749108794
 21
675.71604952657833
  0
LINE
  8
_2-0_
  6
CONTINUOUS
 62
    7
 10
1015.8103405276775
 20
673.81704952657833
 11
1016.7702820051738
 21
673.81704952657833
  0
LINE
  8
_2-0_
  6
CONTINUOUS
 62
    7
 10
1015.8103405276775
 20
675.31924952657823
 11
1016.7702820051738
 21
673.81704952657833
  0
LINE
  8
_2-0_
  6
CONTINUOUS
 62
    7
 10
1015.8103405276775
 20
670.0164495265783
 11
1016.7711749108794
 21
670.0164495265783
  0
LINE
  8
_2-0_
  6
CONTINUOUS
 62
    7
 10
1015.8103405276775
 20
671.51984952657824
 11
1016.7711749108794
 21
670.0164495265783
  0
LINE
  8
_2-0_
  6
CONTINUOUS
 62
    7
 10
1015.8103405276775
 20
671.91684952657829
 11
1016.7701672188152
 21
671.91684952657829
  0
LINE
  8
_2-0_
  6
CONTINUOUS
 62
    7
 10
1015.8103405276775
 20
673.42024952657835
 11
1016.7701672188152
 21
671.91684952657829
  0
LINE
  8
_2-0_
  6
CONTINUOUS
 62
    7
 10
1015.8103405276775
 20
668.11604952657831
 11
1016.7711766384241
 21
668.11604952657831
  0
LINE
  8
_2-0_
  6
CONTINUOUS
 62
    7
 10
1015.8103405276775
 20
669.61964952657831
 11
1016.7711766384241
 21
668.11604952657831
  0
LINE
  8
_2-0_
  6
CONTINUOUS
 62
    7
 10
1015.8103405276775
 20
666.21724952657826
 11
1016.7701542004238
 21
666.21724952657826
  0
LINE
  8
_2-0_
  6
CONTINUOUS
 62
    7
 10
1015.8103405276775
 20
667.71924952657832
 11
1016.7701542004238
 21
666.21724952657826
  0
LINE
  8
_2-0_
  6
DASHED2
 62
    7
 10
1022.2783405276775
 20
678.54104952657826
 11
1022.2783405276775
 21
663.32324952657825
  0
ARC
  8
_2-0_
  6
CONTINUOUS
 62
    7
 10
1035.4992143102861
 20
682.73532430918692
 40
12.716799182876581
 50
132.37502471061384
 51
184.18608276411595
  0
ARC
  8
_2-0_
  6
CONTINUOUS
 62
    7
 10
1033.4771155276771
 20
683.24822452657816
 40
11.141243957981073
 50
155.17616440720482
 51
166.44206336835197
  0
LINE
  8
_2-0_
  6
CONTINUOUS
 62
    7
 10
1027.7003405276773
 20
691.48164952657817
 11
1026.9283405276774
 21
692.12984952657825
  0
ARC
  8
_2-0_
  6
CONTINUOUS
 62
    7
 10
1035.2353166229154
 20
682.89507405038773
 40
11.423884766756254
 50
131.26791700126978
 51
178.70703348506169
  0
LINE
  8
_2-0_
  6
CONTINUOUS
 62
    7
 10
1023.8123405276774
 20
681.80564952657824
 11
1023.8143405276774
 21
683.15284952657839
  0
LINE
  8
_2-0_
  6
DASHED2
 62
    7
 10
1023.7463405276774
 20
677.21944952657827
 11
1022.2783405276775
 21
677.21944952657827
  0
LINE
  8
_2-0_
  6
DASHED2
 62
    7
 10
1023.7463405276774
 20
675.31924952657823
 11
1022.2783405276775
 21
675.31924952657823
  0
LINE
  8
_2-0_
  6
DASHED2
 62
    7
 10
1023.7463405276774
 20
665.82024952657832
 11
1022.2783405276775
 21
665.82024952657832
  0
LINE
  8
_2-0_
  6
DASHED2
 62
    7
 10
1023.7463405276774
 20
667.71924952657832
 11
1022.2783405276775
 21
667.71924952657832
  0
LINE
  8
_2-0_
  6
DASHED2
 62
    7
 10
1023.7463405276774
 20
669.61964952657831
 11
1022.2783405276775
 21
669.61964952657831
  0
LINE
  8
_2-0_
  6
DASHED2
 62
    7
 10
1023.7463405276774
 20
671.51984952657824
 11
1022.2783405276775
 21
671.51984952657824
  0
LINE
  8
_2-0_
  6
DASHED2
 62
    7
 10
1023.7463405276774
 20
673.42024952657835
 11
1022.2783405276775
 21
673.42024952657835
  0
LINE
  8
_2-0_
  6
CONTINUOUS
 62
    7
 10
1023.7463405276774
 20
679.11984952657826
 11
1023.7463405276774
 21
679.51664952657836
  0
LINE
  8
_2-0_
  6
CONTINUOUS
 62
    7
 10
1023.7463405276774
 20
679.51664952657836
 11
1022.7751777560497
 21
679.51664952657836
  0
LINE
  8
_2-0_
  6
CONTINUOUS
 62
    7
 10
1023.7463405276774
 20
679.11984952657826
 11
1022.7856322216808
 21
677.61644952657821
  0
LINE
  8
_2-0_
  6
CONTINUOUS
 62
    7
 10
1023.7463405276774
 20
673.42024952657835
 11
1023.7463405276774
 21
673.81704952657833
  0
LINE
  8
_2-0_
  6
CONTINUOUS
 62
    7
 10
1023.7463405276774
 20
677.21944952657827
 11
1023.7463405276774
 21
677.61644952657821
  0
LINE
  8
_2-0_
  6
CONTINUOUS
 62
    7
 10
1023.7463405276774
 20
675.31924952657823
 11
1023.7463405276774
 21
675.71604952657833
  0
LINE
  8
_2-0_
  6
CONTINUOUS
 62
    7
 10
1023.7463405276774
 20
665.82024952657832
 11
1023.7463405276774
 21
666.21724952657826
  0
LINE
  8
_2-0_
  6
CONTINUOUS
 62
    7
 10
1023.7463405276774
 20
667.71924952657832
 11
1023.7463405276774
 21
668.11604952657831
  0
LINE
  8
_2-0_
  6
CONTINUOUS
 62
    7
 10
1023.7463405276774
 20
669.61964952657831
 11
1023.7463405276774
 21
670.0164495265783
  0
LINE
  8
_2-0_
  6
CONTINUOUS
 62
    7
 10
1023.7463405276774
 20
671.51984952657824
 11
1023.7463405276774
 21
671.91684952657829
  0
LINE
  8
_2-0_
  6
CONTINUOUS
 62
    7
 10
1023.7463405276774
 20
677.61644952657821
 11
1022.7856322216808
 21
677.61644952657821
  0
LINE
  8
_2-0_
  6
CONTINUOUS
 62
    7
 10
1023.7463405276774
 20
675.71604952657833
 11
1022.7855061444754
 21
675.71604952657833
  0
LINE
  8
_2-0_
  6
CONTINUOUS
 62
    7
 10
1023.7463405276774
 20
677.21944952657827
 11
1022.7855061444754
 21
675.71604952657833
  0
LINE
  8
_2-0_
  6
CONTINUOUS
 62
    7
 10
1023.7463405276774
 20
673.81704952657833
 11
1022.786399050181
 21
673.81704952657833
  0
LINE
  8
_2-0_
  6
CONTINUOUS
 62
    7
 10
1023.7463405276774
 20
675.31924952657823
 11
1022.786399050181
 21
673.81704952657833
  0
LINE
  8
_2-0_
  6
CONTINUOUS
 62
    7
 10
1023.7463405276774
 20
670.0164495265783
 11
1022.7855061444754
 21
670.0164495265783
  0
LINE
  8
_2-0_
  6
CONTINUOUS
 62
    7
 10
1023.7463405276774
 20
671.51984952657824
 11
1022.7855061444754
 21
670.0164495265783
  0
LINE
  8
_2-0_
  6
CONTINUOUS
 62
    7
 10
1023.7463405276774
 20
671.91684952657829
 11
1022.7865138365396
 21
671.91684952657829
  0
LINE
  8
_2-0_
  6
CONTINUOUS
 62
    7
 10
1023.7463405276774
 20
673.42024952657835
 11
1022.7865138365396
 21
671.91684952657829
  0
LINE
  8
_2-0_
  6
CONTINUOUS
 62
    7
 10
1023.7463405276774
 20
668.11604952657831
 11
1022.7855044169307
 21
668.11604952657831
  0
LINE
  8
_2-0_
  6
CONTINUOUS
 62
    7
 10
1023.7463405276774
 20
669.61964952657831
 11
1022.7855044169307
 21
668.11604952657831
  0
LINE
  8
_2-0_
  6
CONTINUOUS
 62
    7
 10
1023.7463405276774
 20
666.21724952657826
 11
1022.786526854931
 21
666.21724952657826
  0
LINE
  8
_2-0_
  6
CONTINUOUS
 62
    7
 10
1023.7463405276774
 20
667.71924952657832
 11
1022.786526854931
 21
666.21724952657826
  0
LINE
  8
_2-0_
  6
DASHED2
 62
    7
 10
1017.2783405276773
 20
678.54104952657826
 11
1017.2783405276773
 21
663.32324952657825
  0
LINE
  8
_2-0_
  6
DASHED2
 62
    7
 10
1020.6203405276774
 20
674.74184952657833
 11
1018.8923405276773
 21
674.74184952657833
  0
LINE
  8
_2-0_
  6
DASHED2
 62
    7
 10
1020.6203405276774
 20
674.35864952657835
 11
1018.8923405276773
 21
674.35864952657835
  0
LINE
  8
_2-0_
  6
DASHED2
 62
    7
 10
1020.6203405276774
 20
676.25904952657834
 11
1018.8923405276773
 21
676.25904952657834
  0
LINE
  8
_2-0_
  6
DASHED2
 62
    7
 10
1020.6203405276774
 20
676.64204952657826
 11
1018.8923405276773
 21
676.64204952657826
  0
LINE
  8
_2-0_
  6
DASHED2
 62
    7
 10
1020.6203405276774
 20
678.15924952657838
 11
1018.8923405276773
 21
678.15924952657838
  0
LINE
  8
_2-0_
  6
DASHED2
 62
    7
 10
1020.6203405276774
 20
678.54104952657826
 11
1018.8923405276773
 21
678.54104952657826
  0
LINE
  8
_2-0_
  6
DASHED2
 62
    7
 10
1020.6203405276774
 20
679.18324952657827
 11
1018.8923405276773
 21
679.18324952657827
  0
LINE
  8
_2-0_
  6
DASHED2
 62
    7
 10
1020.6203405276774
 20
679.51664952657836
 11
1018.8923405276773
 21
679.51664952657836
  0
LINE
  8
_2-0_
  6
DASHED2
 62
    7
 10
1019.3763405276773
 20
669.0422495265783
 11
1017.2783405276773
 21
669.0422495265783
  0
LINE
  8
_2-0_
  6
DASHED2
 62
    7
 10
1020.3283405276775
 20
672.84144952657823
 11
1018.8923405276773
 21
672.84144952657823
  0
LINE
  8
_2-0_
  6
DASHED2
 62
    7
 10
1020.1083405276775
 20
672.45964952657823
 11
1018.8923405276773
 21
672.45964952657823
  0
LINE
  8
_2-0_
  6
DASHED2
 62
    7
 10
1016.7710488336741
 20
677.61644952657821
 11
1017.2783405276773
 21
677.61644952657821
  0
LINE
  8
_2-0_
  6
DASHED2
 62
    7
 10
1016.7931521180799
 20
664.28104952657827
 11
1017.2783405276773
 21
664.28104952657827
  0
LINE
  8
_2-0_
  6
DASHED2
 62
    7
 10
1016.7701542004238
 20
666.21724952657826
 11
1017.2783405276773
 21
666.21724952657826
  0
LINE
  8
_2-0_
  6
DASHED2
 62
    7
 10
1016.7711766384241
 20
668.11604952657831
 11
1017.2783405276773
 21
668.11604952657831
  0
LINE
  8
_2-0_
  6
DASHED2
 62
    7
 10
1016.7711749108794
 20
670.0164495265783
 11
1017.2783405276773
 21
670.0164495265783
  0
LINE
  8
_2-0_
  6
DASHED2
 62
    7
 10
1016.7701672188152
 20
671.91684952657829
 11
1017.2783405276773
 21
671.91684952657829
  0
LINE
  8
_2-0_
  6
DASHED2
 62
    7
 10
1016.7702820051738
 20
673.81704952657833
 11
1017.2783405276773
 21
673.81704952657833
  0
LINE
  8
_2-0_
  6
DASHED2
 62
    7
 10
1016.7711749108794
 20
675.71604952657833
 11
1017.2783405276773
 21
675.71604952657833
  0
LINE
  8
_2-0_
  6
DASHED2
 62
    7
 10
1022.7856322216808
 20
677.61644952657821
 11
1022.2783405276775
 21
677.61644952657821
  0
LINE
  8
_2-0_
  6
DASHED2
 62
    7
 10
1022.786526854931
 20
666.21724952657826
 11
1022.2783405276775
 21
666.21724952657826
  0
LINE
  8
_2-0_
  6
DASHED2
 62
    7
 10
1022.7855044169307
 20
668.11604952657831
 11
1022.2783405276775
 21
668.11604952657831
  0
LINE
  8
_2-0_
  6
DASHED2
 62
    7
 10
1022.7855061444754
 20
670.0164495265783
 11
1022.2783405276775
 21
670.0164495265783
  0
LINE
  8
_2-0_
  6
DASHED2
 62
    7
 10
1022.7865138365396
 20
671.91684952657829
 11
1022.2783405276775
 21
671.91684952657829
  0
LINE
  8
_2-0_
  6
DASHED2
 62
    7
 10
1022.786399050181
 20
673.81704952657833
 11
1022.2783405276775
 21
673.81704952657833
  0
LINE
  8
_2-0_
  6
DASHED2
 62
    7
 10
1022.7855061444754
 20
675.71604952657833
 11
1022.2783405276775
 21
675.71604952657833
  0
LINE
  8
_2-0_
  6
CONTINUOUS
 62
    7
 10
1015.8103405276775
 20
665.82024952657832
 11
1016.7931521180799
 21
664.28104952657827
  0
LINE
  8
_2-0_
  6
CONTINUOUS
 62
    7
 10
1015.7783405276774
 20
664.28104952657827
 11
1016.7931521180799
 21
664.28104952657827
  0
LINE
  8
_2-0_
  6
CONTINUOUS
 62
    7
 10
1015.7783405276774
 20
664.28104952657827
 11
1015.7783405276774
 21
658.41154077326246
  0
LINE
  8
_2-0_
  6
CONTINUOUS
 62
    7
 10
1023.7783405276774
 20
664.28104952657827
 11
1022.7635289372749
 21
664.28104952657827
  0
LINE
  8
_2-0_
  6
CONTINUOUS
 62
    7
 10
1023.7463405276774
 20
665.82024952657832
 11
1022.7635289372749
 21
664.28104952657827
  0
LINE
  8
_2-0_
  6
CONTINUOUS
 62
    7
 10
1023.7863405276773
 20
680.51512159135564
 11
1022.7751777560497
 21
679.51664952657836
  0
LINE
  8
_2-0_
  6
CONTINUOUS
 62
    7
 10
1023.7863405276773
 20
681.79464952657838
 11
1023.7863405276773
 21
680.51512159135564
  0
LINE
  8
_2-0_
  6
DASHED2
 62
    7
 10
1017.2783405276773
 20
663.32324952657825
 11
1022.2783405276775
 21
663.32324952657825
  0
LINE
  8
_2-0_
  6
DASHED2
 62
    7
 10
1021.1663405276774
 20
672.84144952657823
 11
1022.2783405276775
 21
672.84144952657823
  0
LINE
  8
_2-0_
  6
DASHED2
 62
    7
 10
1021.0343405276774
 20
672.45964952657823
 11
1022.2783405276775
 21
672.45964952657823
  0
LINE
  8
_2-0_
  6
CONTINUOUS
 62
    7
 10
1015.7783405276774
 20
688.446664620918
 11
1016.3003405276772
 21
687.92564952657824
  0
LINE
  8
_2-0_
  6
CONTINUOUS
 62
    7
 10
1023.365290158308
 20
687.92564952657824
 11
1023.7783405276774
 21
688.44459847257656
  0
LINE
  8
_2-0_
  6
CONTINUOUS
 62
    7
 10
1023.7783405276774
 20
688.44459847257656
 11
1023.7783405276774
 21
695.06253412041588
  0
LINE
  8
_2-0_
  6
CONTINUOUS
 62
    7
 10
1015.7783405276774
 20
688.446664620918
 11
1015.7783405276774
 21
695.06234020471015
  0
LINE
  8
_2-0_
  6
CONTINUOUS
 62
    7
 10
1023.7783405276774
 20
695.06253412041588
 11
1024.5204559338397
 21
695.80464952657826
  0
LINE
  8
_2-0_
  6
DASHED2
 62
    7
 10
1016.6673424227477
 20
695.06234020471015
 11
1015.7783405276774
 21
695.06234020471015
  0
LINE
  8
_2-0_
  6
DASHED2
 62
    7
 10
1023.7783405276774
 20
695.06234020471015
 11
1022.903338632607
 21
695.06234020471015
  0
LINE
  8
_2-0_
  6
DASHED2
 62
    7
 10
1022.2943333445799
 20
695.06234020471015
 11
1017.2763477107751
 21
695.06234020471015
  0
LINE
  8
_2-0_
  6
CONTINUOUS
 62
    7
 10
1015.7783405276774
 20
658.41154077326246
 11
1017.2826216003218
 21
655.80604952657836
  0
LINE
  8
_2-0_
  6
CONTINUOUS
 62
    7
 10
1023.7783405276774
 20
664.28104952657827
 11
1023.7783405276774
 21
658.41154077326246
  0
LINE
  8
_2-0_
  6
CONTINUOUS
 62
    7
 10
1023.7783405276774
 20
658.41154077326246
 11
1022.274059455033
 21
655.80604952657836
  0
LINE
  8
_2-0_
  6
CONTINUOUS
 62
    7
 10
1015.7783405276774
 20
695.06234020471015
 11
1015.0360312058093
 21
695.80464952657826
  0
LINE
  8
_2-0_
  6
DASHED2
 62
    7
 10
1023.0011772548155
 20
695.80464952657826
 11
1022.986884752969
 21
695.78981235554602
  0
LINE
  8
_2-0_
  6
DASHED2
 62
    7
 10
1022.6783405276774
 20
695.80464952657826
 11
1016.8783405276774
 21
695.80464952657826
  0
LINE
  8
_2-0_
  6
CONTINUOUS
 62
    7
 10
1015.0360312058093
 20
695.80464952657826
 11
1016.8783405276774
 21
695.80464952657826
  0
LINE
  8
_2-0_
  6
CONTINUOUS
 62
    7
 10
1024.5204559338397
 20
695.80464952657826
 11
1022.6783405276774
 21
695.80464952657826
  0
ARC
  8
_2-0_
  6
DASHED2
 62
    7
 10
1073.1145755276773
 20
679.48528952657875
 40
50.869247184058253
 50
172.80096185739851
 51
177.38401321009891
  0
LINE
  8
_2-0_
  6
DASHED2
 62
    7
 10
1022.6783405276774
 20
681.80704952657834
 11
1022.2983405276775
 21
681.80704952657834
  0
LINE
  8
_2-0_
  6
CONTINUOUS
 62
    7
 10
1022.8163405276773
 20
681.80704952657834
 11
1022.6783405276774
 21
681.80704952657834
  0
ARC
  8
_2-0_
  6
CONTINUOUS
 62
    7
 10
1009.8052205276771
 20
684.85644952657822
 40
7.1837714645164583
 50
10.414571251914561
 51
25.292579033513555
  0
ARC
  8
_2-0_
  6
DASHED2
 62
    7
 10
997.29080052767722
 20
681.79358619324489
 40
20.067547773580664
 50
0.050431402692386
 51
12.556948514115463
  0
LINE
  8
_2-0_
  6
DASHED2
 62
    7
 10
1017.3583405276775
 20
681.81124952657819
 11
1016.8783405276774
 21
681.81124952657819
  0
LINE
  8
_2-0_
  6
CONTINUOUS
 62
    7
 10
1016.7103405276773
 20
681.81124952657819
 11
1016.8783405276774
 21
681.81124952657819
  0
LINE
  8
_2-0_
  6
DASHED2
 62
    7
 10
1017.2826216003218
 20
655.80604952657836
 11
1018.6155941915188
 21
655.80604952657836
  0
LINE
  8
_2-0_
  6
DASHED2
 62
    7
 10
1019.0197393799515
 20
655.80604952657836
 11
1020.5369416754033
 21
655.80604952657836
  0
LINE
  8
_2-0_
  6
DASHED2
 62
    7
 10
1020.9410868638359
 20
655.80604952657836
 11
1022.274059455033
 21
655.80604952657836
  0
LINE
  8
_2-0_
  6
DASHED2
 62
    7
 10
1015.7783405276774
 20
688.446664620918
 11
1019.3783405276774
 21
688.446664620918
  0
LINE
  8
_2-0_
  6
DASHED2
 62
    7
 10
1020.1783405276774
 20
688.446664620918
 11
1023.7783405276774
 21
688.446664620918
  0
LINE
  8
_2-0_
  6
DASHED2
 62
    7
 10
1016.3003405276772
 20
687.92564952657824
 11
1019.3783405276774
 21
687.92564952657824
  0
LINE
  8
_2-0_
  6
DASHED2
 62
    7
 10
1020.1783405276774
 20
687.92564952657824
 11
1023.365290158308
 21
687.92564952657824
  0
LINE
  8
_2-0_
  6
DASHED2
 62
    7
 10
1022.7751777560497
 20
679.51664952657836
 11
1021.4203405276774
 21
679.51664952657836
  0
LINE
  8
_2-0_
  6
DASHED2
 62
    7
 10
1021.4203405276774
 20
679.11984952657826
 11
1023.7463405276774
 21
679.11984952657826
  0
LINE
  8
_2-0_
  6
DASHED2
 62
    7
 10
1022.2783405276775
 20
674.35864952657835
 11
1021.4203405276774
 21
674.35864952657835
  0
LINE
  8
_2-0_
  6
DASHED2
 62
    7
 10
1022.2783405276775
 20
678.54104952657826
 11
1021.4203405276774
 21
678.54104952657826
  0
LINE
  8
_2-0_
  6
DASHED2
 62
    7
 10
1022.2783405276775
 20
678.15924952657838
 11
1021.4203405276774
 21
678.15924952657838
  0
LINE
  8
_2-0_
  6
DASHED2
 62
    7
 10
1022.2783405276775
 20
674.74184952657833
 11
1021.4203405276774
 21
674.74184952657833
  0
LINE
  8
_2-0_
  6
DASHED2
 62
    7
 10
1022.2783405276775
 20
676.25904952657834
 11
1021.4203405276774
 21
676.25904952657834
  0
LINE
  8
_2-0_
  6
DASHED2
 62
    7
 10
1022.2783405276775
 20
676.64204952657826
 11
1021.4203405276774
 21
676.64204952657826
  0
LINE
  8
_2-0_
  6
DASHED2
 62
    7
 10
1016.7815032993051
 20
679.51664952657836
 11
1018.0923405276774
 21
679.51664952657836
  0
LINE
  8
_2-0_
  6
DASHED2
 62
    7
 10
1015.8103405276775
 20
679.11984952657826
 11
1018.0923405276774
 21
679.11984952657826
  0
LINE
  8
_2-0_
  6
DASHED2
 62
    7
 10
1018.0923405276774
 20
672.45964952657823
 11
1017.2783405276773
 21
672.45964952657823
  0
LINE
  8
_2-0_
  6
DASHED2
 62
    7
 10
1018.0923405276774
 20
674.74184952657833
 11
1017.2783405276773
 21
674.74184952657833
  0
LINE
  8
_2-0_
  6
DASHED2
 62
    7
 10
1018.0923405276774
 20
674.35864952657835
 11
1017.2783405276773
 21
674.35864952657835
  0
LINE
  8
_2-0_
  6
DASHED2
 62
    7
 10
1017.2783405276773
 20
678.15924952657838
 11
1018.0923405276774
 21
678.15924952657838
  0
LINE
  8
_2-0_
  6
DASHED2
 62
    7
 10
1018.0923405276774
 20
676.25904952657834
 11
1017.2783405276773
 21
676.25904952657834
  0
LINE
  8
_2-0_
  6
DASHED2
 62
    7
 10
1018.0923405276774
 20
676.64204952657826
 11
1017.2783405276773
 21
676.64204952657826
  0
LINE
  8
_2-0_
  6
DASHED2
 62
    7
 10
1017.2783405276773
 20
678.54104952657826
 11
1018.0923405276774
 21
678.54104952657826
  0
LINE
  8
_2-0_
  6
DASHED2
 62
    7
 10
1018.0923405276774
 20
672.84144952657823
 11
1017.2783405276773
 21
672.84144952657823
  0
LINE
  8
_2-0_
  6
DASHED2
 62
    7
 10
1019.4016410296121
 20
670.55944952657819
 11
1017.2783405276773
 21
670.55944952657819
  0
LINE
  8
_2-0_
  6
DASHED2
 62
    7
 10
1019.5565730396656
 20
670.94104952657835
 11
1017.2783405276773
 21
670.94104952657835
  0
LINE
  8
_2-0_
  6
DASHED2
 62
    7
 10
1020.2650634767053
 20
670.55944952657819
 11
1022.2783405276775
 21
670.55944952657819
  0
LINE
  8
_2-0_
  6
DASHED2
 62
    7
 10
1020.4199954867589
 20
670.94104952657835
 11
1022.2783405276775
 21
670.94104952657835
  0
LINE
  8
_2-0_
  6
DASHED2
 62
    7
 10
1020.1783405276774
 20
669.0422495265783
 11
1022.2783405276775
 21
669.0422495265783
  0
LINE
  8
_2-0_
  6
DASHED2
 62
    7
 10
1020.1783405276774
 20
668.65904952657831
 11
1022.2783405276775
 21
668.65904952657831
  0
LINE
  8
_2-0_
  6
DASHED2
 62
    7
 10
1020.1783405276774
 20
664.85984952657827
 11
1022.2783405276775
 21
664.85984952657827
  0
LINE
  8
_2-0_
  6
DASHED2
 62
    7
 10
1020.1783405276774
 20
666.76004952657831
 11
1022.2783405276775
 21
666.76004952657831
  0
LINE
  8
_2-0_
  6
DASHED2
 62
    7
 10
1020.1783405276774
 20
665.24284952657831
 11
1022.2783405276775
 21
665.24284952657831
  0
LINE
  8
_2-0_
  6
DASHED2
 62
    7
 10
1020.1783405276774
 20
667.14184952657831
 11
1022.2783405276775
 21
667.14184952657831
  0
LINE
  8
_2-0_
  6
DASHED2
 62
    7
 10
1019.3763405276773
 20
668.65904952657831
 11
1017.2783405276773
 21
668.65904952657831
  0
LINE
  8
_2-0_
  6
DASHED2
 62
    7
 10
1019.3763405276773
 20
664.85984952657827
 11
1017.2783405276773
 21
664.85984952657827
  0
LINE
  8
_2-0_
  6
DASHED2
 62
    7
 10
1019.3763405276773
 20
665.24284952657831
 11
1017.2783405276773
 21
665.24284952657831
  0
LINE
  8
_2-0_
  6
DASHED2
 62
    7
 10
1019.3763405276773
 20
666.76004952657831
 11
1017.2783405276773
 21
666.76004952657831
  0
LINE
  8
_2-0_
  6
DASHED2
 62
    7
 10
1019.3763405276773
 20
667.14184952657831
 11
1017.2783405276773
 21
667.14184952657831
  0
LINE
  8
_2-0_
  6
DASHED2
 62
    7
 10
1022.7635289372749
 20
664.28104952657827
 11
1022.2783405276775
 21
664.28104952657827
  0
ARC
  8
_2-0_
  6
DASHED2
 62
    7
 10
1019.7783405276773
 20
663.76984952657835
 40
0.4000000000000056
 50
180
 51
359.99999999999682
  0
ARC
  8
_2-0_
  6
DASHED2
 62
    7
 10
1018.4923405276772
 20
671.82724952657827
 40
0.3999999999999914
 50
180
 51
359.99999999999795
  0
LINE
  8
_2-0_
  6
DASHED2
 62
    7
 10
1018.0923405276774
 20
683.98906217305216
 11
1018.0923405276774
 21
671.82724952657827
  0
LINE
  8
_2-0_
  6
DASHED2
 62
    7
 10
1019.3783405276774
 20
686.2164795115857
 11
1018.0923405276774
 21
683.98906217305216
  0
LINE
  8
_2-0_
  6
DASHED2
 62
    7
 10
1018.8923405276773
 20
683.77470281910723
 11
1018.8923405276773
 21
671.82724952657827
  0
LINE
  8
_2-0_
  6
DASHED2
 62
    7
 10
1020.1783405276774
 20
686.00212015764077
 11
1018.8923405276773
 21
683.77470281910723
  0
LINE
  8
_2-0_
  6
DASHED2
 62
    7
 10
1019.3783405276774
 20
691.02764952657822
 11
1019.3783405276774
 21
686.2164795115857
  0
LINE
  8
_2-0_
  6
DASHED2
 62
    7
 10
1020.1783405276774
 20
691.02764952657822
 11
1020.1783405276774
 21
686.00212015764077
  0
ARC
  8
_2-0_
  6
DASHED2
 62
    7
 10
1019.7783405276773
 20
691.02764952657822
 40
0.4000000000000056
 50
0
 51
180
  0
LINE
  8
_2-0_
  6
DASHED2
 62
    7
 10
1020.6203405276774
 20
673.56112573474945
 11
1020.6203405276774
 21
685.55044952657818
  0
ARC
  8
_2-0_
  6
DASHED2
 62
    7
 10
1021.0203405276774
 20
685.55044952657818
 40
0.3999999999999914
 50
359.99999999999693
 51
180.00000000000304
  0
LINE
  8
_2-0_
  6
DASHED2
 62
    7
 10
1019.3783405276774
 20
670.50206002046377
 11
1019.3783405276774
 21
663.76984952657835
  0
LINE
  8
_2-0_
  6
DASHED2
 62
    7
 10
1019.3783405276774
 20
670.50206002046377
 11
1020.6203405276774
 21
673.56112573474945
  0
LINE
  8
_2-0_
  6
DASHED2
 62
    7
 10
1020.1783405276774
 20
670.34584952656758
 11
1020.1783405276774
 21
663.76984952657835
  0
LINE
  8
_2-0_
  6
DASHED2
 62
    7
 10
1020.1783405276774
 20
670.34584952656758
 11
1021.4203405276774
 21
673.40491524085326
  0
LINE
  8
_2-0_
  6
DASHED2
 62
    7
 10
1021.4203405276774
 20
685.55044952657818
 11
1021.4203405276774
 21
673.40491524085326
  0
LINE
  8
_2-0_
  6
DASHED2
 62
    7
 10
1017.1783405276774
 20
662.40144952657829
 11
1017.5283405276774
 21
662.40144952657829
  0
LINE
  8
_2-0_
  6
DASHED2
 62
    7
 10
1022.0283405276774
 20
662.40144952657829
 11
1022.3783405276774
 21
662.40144952657829
  0
LINE
  8
_2-0_
  6
DASHED2
 62
    7
 10
1017.5283405276774
 20
658.38922811306702
 11
1017.5283405276774
 21
662.40144952657829
  0
LINE
  8
_2-0_
  6
DASHED2
 62
    7
 10
1022.0283405276774
 20
658.38922811306702
 11
1022.0283405276774
 21
662.40144952657829
  0
LINE
  8
_2-0_
  6
DASHED2
 62
    7
 10
1017.1783405276774
 20
658.29544589571606
 11
1017.1783405276774
 21
662.40144952657829
  0
LINE
  8
_2-0_
  6
DASHED2
 62
    7
 10
1022.3783405276774
 20
658.29544589571606
 11
1022.3783405276774
 21
662.40144952657829
  0
LINE
  8
_2-0_
  6
DASHED2
 62
    7
 10
1017.1783405276774
 20
658.29544589571606
 11
1018.6155941915188
 21
655.80604952657836
  0
LINE
  8
_2-0_
  6
DASHED2
 62
    7
 10
1017.5283405276774
 20
658.38922811306702
 11
1019.0197393799515
 21
655.80604952657836
  0
LINE
  8
_2-0_
  6
DASHED2
 62
    7
 10
1022.0283405276774
 20
658.38922811306702
 11
1020.5369416754033
 21
655.80604952657836
  0
LINE
  8
_2-0_
  6
DASHED2
 62
    7
 10
1022.3783405276774
 20
658.29544589571606
 11
1020.9410868638359
 21
655.80604952657836
  0
LINE
  8
_2-0_
  6
DASHED2
 62
    7
 10
1017.2763477107751
 20
695.06234020471015
 11
1016.535913724096
 21
695.80277419138929
  0
LINE
  8
_2-0_
  6
DASHED2
 62
    7
 10
1017.2763477107751
 20
695.06234020471015
 11
1017.2763477107751
 21
690.42664952657833
  0
LINE
  8
_2-0_
  6
DASHED2
 62
    7
 10
1017.2763477107751
 20
690.42664952657833
 11
1016.535913724096
 21
695.80277419138929
  0
LINE
  8
_2-0_
  6
DASHED2
 62
    7
 10
1022.2803333445797
 20
695.06234020471015
 11
1023.0207673312588
 21
695.80277419138929
  0
LINE
  8
_2-0_
  6
DASHED2
 62
    7
 10
1022.2803333445797
 20
695.06234020471015
 11
1022.2803333445797
 21
690.42664952657833
  0
LINE
  8
_2-0_
  6
DASHED2
 62
    7
 10
1022.2803333445797
 20
690.42664952657833
 11
1023.0207673312588
 21
695.80277419138929
  0
ARC
  8
_2-0_
  6
CONTINUOUS
 62
    7
 10
705.9934277407956
 20
729.18097514858437
 40
12.541522815958821
 50
358.40589830420583
 51
89.535521226132573
  0
LINE
  8
_2-0_
  6
CONTINUOUS
 62
    7
 10
727.61509678841446
 20
625.97708586287001
 11
730.95509678841449
 21
625.97708586287001
  0
LINE
  8
_2-0_
  6
CONTINUOUS
 62
    7
 10
714.91589678841478
 20
625.48228962860617
 11
723.41009678841476
 21
625.80445802912641
  0
LINE
  8
_2-0_
  6
CONTINUOUS
 62
    7
 10
731.90429678841451
 20
625.48228962860617
 11
723.41009678841476
 21
625.80445802912641
  0
LINE
  8
_2-0_
  6
CONTINUOUS
 62
    7
 10
774.12149678841456
 20
520.4472896286062
 11
774.12689678841457
 21
529.17728962860622
  0
LINE
  8
_2-0_
  6
CONTINUOUS
 62
    7
 10
774.12689678841457
 20
529.17728962860622
 11
769.81229678841464
 21
534.11728962860616
  0
LINE
  8
_2-0_
  6
CONTINUOUS
 62
    7
 10
769.81229678841464
 20
534.11728962860616
 11
771.67529678841458
 21
582.68728962860621
  0
LINE
  8
_2-0_
  6
CONTINUOUS
 62
    7
 10
731.90429678841451
 20
625.48228962860617
 11
731.90429678841451
 21
625.48228962860617
  0
LINE
  8
_2-0_
  6
CONTINUOUS
 62
    7
 10
731.90429678841451
 20
625.48228962860617
 11
739.83731035799576
 21
623.6945122436382
  0
LINE
  8
_2-0_
  6
CONTINUOUS
 62
    7
 10
739.83731035799576
 20
623.6945122436382
 11
747.31452379829875
 21
620.65838285336838
  0
LINE
  8
_2-0_
  6
CONTINUOUS
 62
    7
 10
747.31452379829875
 20
620.65838285336838
 11
754.10874576259221
 21
616.46615271296469
  0
LINE
  8
_2-0_
  6
CONTINUOUS
 62
    7
 10
754.10874576259221
 20
616.46615271296469
 11
760.0135372545335
 21
611.24520061387227
  0
LINE
  8
_2-0_
  6
CONTINUOUS
 62
    7
 10
760.0135372545335
 20
611.24520061387227
 11
764.84948417260864
 21
605.15416254369302
  0
LINE
  8
_2-0_
  6
CONTINUOUS
 62
    7
 10
764.84948417260864
 20
605.15416254369302
 11
768.46964871681905
 21
598.37811161197521
  0
LINE
  8
_2-0_
  6
CONTINUOUS
 62
    7
 10
768.46964871681905
 20
598.37811161197521
 11
770.76403401938057
 21
591.1229346974319
  0
LINE
  8
_2-0_
  6
CONTINUOUS
 62
    7
 10
770.76403401938057
 20
591.1229346974319
 11
771.66292634388981
 21
583.60907667931474
  0
LINE
  8
_2-0_
  6
CONTINUOUS
 62
    7
 10
771.66292634388981
 20
583.60907667931474
 11
771.67529678841458
 21
582.68728962860609
  0
LINE
  8
_2-0_
  6
CONTINUOUS
 62
    7
 10
672.69869678841474
 20
520.4472896286062
 11
672.69329678841473
 21
529.17728962860622
  0
LINE
  8
_2-0_
  6
CONTINUOUS
 62
    7
 10
672.69329678841473
 20
529.17728962860622
 11
677.00789678841477
 21
534.11728962860616
  0
LINE
  8
_2-0_
  6
CONTINUOUS
 62
    7
 10
677.00789678841477
 20
534.11728962860616
 11
675.14489678841471
 21
582.68728962860621
  0
LINE
  8
_2-0_
  6
CONTINUOUS
 62
    7
 10
675.14489678841471
 20
582.68728962860609
 11
675.14489678841471
 21
582.68728962860609
  0
LINE
  8
_2-0_
  6
CONTINUOUS
 62
    7
 10
675.14489678841471
 20
582.68728962860609
 11
675.87110507489581
 21
590.21714064951652
  0
LINE
  8
_2-0_
  6
CONTINUOUS
 62
    7
 10
675.87110507489581
 20
590.21714064951652
 11
677.99842912623944
 21
597.51583266064506
  0
LINE
  8
_2-0_
  6
CONTINUOUS
 62
    7
 10
677.99842912623944
 20
597.51583266064506
 11
681.46223127762346
 21
604.36159859855013
  0
LINE
  8
_2-0_
  6
CONTINUOUS
 62
    7
 10
681.46223127762346
 20
604.36159859855013
 11
686.15726565344642
 21
610.54643332933313
  0
LINE
  8
_2-0_
  6
CONTINUOUS
 62
    7
 10
686.15726565344642
 20
610.54643332933313
 11
691.94087601000103
 21
615.88241377937663
  0
LINE
  8
_2-0_
  6
CONTINUOUS
 62
    7
 10
691.94087601000103
 20
615.88241377937663
 11
698.63733027325156
 21
620.2074088828424
  0
LINE
  8
_2-0_
  6
CONTINUOUS
 62
    7
 10
698.63733027325156
 20
620.2074088828424
 11
706.0431600689783
 21
623.39000585206475
  0
LINE
  8
_2-0_
  6
CONTINUOUS
 62
    7
 10
706.0431600689783
 20
623.39000585206475
 11
713.93334300636889
 21
625.33350308860577
  0
LINE
  8
_2-0_
  6
CONTINUOUS
 62
    7
 10
713.93334300636889
 20
625.33350308860577
 11
714.91589678841478
 21
625.48228962860617
  0
LINE
  8
_2-0_
  6
CONTINUOUS
 62
    7
 10
672.08009678841461
 20
677.56208586287016
 11
693.97009678841459
 21
733.44708586286993
  0
ARC
  8
_2-0_
  6
CONTINUOUS
 62
    7
 10
706.30780512174795
 20
728.3897941962033
 40
13.333988372581555
 50
90.914040599390702
 51
157.71101753536519
  0
LINE
  8
_2-0_
  6
CONTINUOUS
 62
    7
 10
672.08009678841461
 20
677.56208586287016
 11
652.39509678841455
 21
660.91208586286996
  0
LINE
  8
_2-0_
  6
CONTINUOUS
 62
    7
 10
652.39509678841455
 20
660.91208586286996
 11
652.39509678841455
 21
653.99708586287011
  0
LINE
  8
_2-0_
  6
CONTINUOUS
 62
    7
 10
652.39509678841455
 20
653.99708586287011
 11
643.41009678841465
 21
653.99708586287011
  0
LINE
  8
_2-0_
  6
CONTINUOUS
 62
    7
 10
643.41009678841465
 20
653.99708586287011
 11
643.41009678841465
 21
656.48208586287012
  0
LINE
  8
_2-0_
  6
CONTINUOUS
 62
    7
 10
643.41009678841465
 20
656.48208586287012
 11
646.30509678841463
 21
659.04708586287006
  0
LINE
  8
_2-0_
  6
CONTINUOUS
 62
    7
 10
646.30509678841463
 20
659.04708586287006
 11
652.12009678841468
 21
669.07708586287015
  0
LINE
  8
_2-0_
  6
CONTINUOUS
 62
    7
 10
652.12009678841468
 20
669.07708586287015
 11
658.28509678841453
 21
669.07708586287015
  0
LINE
  8
_2-0_
  6
CONTINUOUS
 62
    7
 10
658.28509678841453
 20
669.07708586287015
 11
663.94009678841462
 21
678.95208586287004
  0
LINE
  8
_2-0_
  6
CONTINUOUS
 62
    7
 10
663.94009678841462
 20
678.95208586287004
 11
670.07009678841473
 21
678.95208586287004
  0
LINE
  8
_2-0_
  6
CONTINUOUS
 62
    7
 10
670.07009678841473
 20
678.95208586287004
 11
670.98009678841458
 21
697.5970858628699
  0
LINE
  8
_2-0_
  6
CONTINUOUS
 62
    7
 10
670.98009678841458
 20
697.5970858628699
 11
677.33009678841472
 21
697.5970858628699
  0
LINE
  8
_2-0_
  6
CONTINUOUS
 62
    7
 10
677.33009678841472
 20
697.5970858628699
 11
678.45509678841472
 21
716.2570858628701
  0
LINE
  8
_2-0_
  6
CONTINUOUS
 62
    7
 10
678.45509678841472
 20
716.2570858628701
 11
684.60509678841458
 21
716.2570858628701
  0
LINE
  8
_2-0_
  6
CONTINUOUS
 62
    7
 10
684.60509678841458
 20
716.2570858628701
 11
685.78009678841465
 21
734.91208586287007
  0
LINE
  8
_2-0_
  6
CONTINUOUS
 62
    7
 10
685.78009678841465
 20
734.91208586287007
 11
691.87509678841468
 21
734.87208586287011
  0
LINE
  8
_2-0_
  6
CONTINUOUS
 62
    7
 10
692.79509678841464
 20
753.04708586287006
 11
691.87509678841468
 21
734.87208586287011
  0
ARC
  8
_2-0_
  6
CONTINUOUS
 62
    7
 10
693.29618855670731
 20
753.04095781408955
 40
0.501129238053992
 50
90.124825614061564
 51
179.29934225283787
  0
LINE
  8
_2-0_
  6
CONTINUOUS
 62
    7
 10
699.13509678841467
 20
753.53708586287007
 11
693.29509678841464
 21
753.54208586286995
  0
LINE
  8
_2-0_
  6
CONTINUOUS
 62
    7
 10
701.90509678841465
 20
760.62708586287022
 11
699.13509678841467
 21
753.53708586287007
  0
ARC
  8
_2-0_
  6
CONTINUOUS
 62
    7
 10
706.54803012174796
 20
758.79955252953675
 40
4.9896601108914549
 50
131.14350850034057
 51
158.51460215086433
  0
ARC
  8
_2-0_
  6
CONTINUOUS
 62
    7
 10
723.69572178841452
 20
733.4512733628701
 40
35.560634965868886
 50
90.460207839570344
 51
125.06667207345112
  0
ARC
  8
_2-0_
  6
CONTINUOUS
 62
    7
 10
723.12447178841467
 20
733.4512733628701
 40
35.560634965868886
 50
54.933327926548877
 51
89.539792160429656
  0
ARC
  8
_2-0_
  6
CONTINUOUS
 62
    7
 10
740.27216345508123
 20
758.79955252953675
 40
4.9896601108914549
 50
21.485397849135666
 51
48.85649149965942
  0
LINE
  8
_2-0_
  6
CONTINUOUS
 62
    7
 10
744.91509678841453
 20
760.62708586287022
 11
747.68509678841451
 21
753.53708586287007
  0
LINE
  8
_2-0_
  6
CONTINUOUS
 62
    7
 10
747.68509678841451
 20
753.53708586287007
 11
753.52509678841454
 21
753.54208586286995
  0
ARC
  8
_2-0_
  6
CONTINUOUS
 62
    7
 10
753.52400502012188
 20
753.04095781408955
 40
0.501129238053992
 50
0.7006577471621247
 51
89.875174385938436
  0
LINE
  8
_2-0_
  6
CONTINUOUS
 62
    7
 10
754.02509678841454
 20
753.04708586287006
 11
754.9450967884145
 21
734.87208586287011
  0
LINE
  8
_2-0_
  6
CONTINUOUS
 62
    7
 10
761.04009678841453
 20
734.91208586287007
 11
754.9450967884145
 21
734.87208586287011
  0
LINE
  8
_2-0_
  6
CONTINUOUS
 62
    7
 10
762.2150967884146
 20
716.2570858628701
 11
761.04009678841453
 21
734.91208586287007
  0
LINE
  8
_2-0_
  6
CONTINUOUS
 62
    7
 10
768.36509678841458
 20
716.2570858628701
 11
762.2150967884146
 21
716.2570858628701
  0
LINE
  8
_2-0_
  6
CONTINUOUS
 62
    7
 10
769.49009678841446
 20
697.5970858628699
 11
768.36509678841458
 21
716.2570858628701
  0
LINE
  8
_2-0_
  6
CONTINUOUS
 62
    7
 10
775.84009678841448
 20
697.5970858628699
 11
769.49009678841446
 21
697.5970858628699
  0
LINE
  8
_2-0_
  6
CONTINUOUS
 62
    7
 10
776.75009678841445
 20
678.95208586287004
 11
775.84009678841448
 21
697.5970858628699
  0
LINE
  8
_2-0_
  6
CONTINUOUS
 62
    7
 10
782.88009678841468
 20
678.95208586287004
 11
776.75009678841445
 21
678.95208586287004
  0
LINE
  8
_2-0_
  6
CONTINUOUS
 62
    7
 10
788.53509678841465
 20
669.07708586287015
 11
782.88009678841468
 21
678.95208586287004
  0
LINE
  8
_2-0_
  6
CONTINUOUS
 62
    7
 10
794.7000967884145
 20
669.07708586287015
 11
788.53509678841465
 21
669.07708586287015
  0
LINE
  8
_2-0_
  6
CONTINUOUS
 62
    7
 10
800.51509678841455
 20
659.04708586287006
 11
794.7000967884145
 21
669.07708586287015
  0
LINE
  8
_2-0_
  6
CONTINUOUS
 62
    7
 10
803.41009678841465
 20
656.48208586287012
 11
800.51509678841455
 21
659.04708586287006
  0
LINE
  8
_2-0_
  6
CONTINUOUS
 62
    7
 10
803.41009678841465
 20
653.99708586287011
 11
803.41009678841465
 21
656.48208586287012
  0
LINE
  8
_2-0_
  6
CONTINUOUS
 62
    7
 10
794.42509678841463
 20
653.99708586287011
 11
803.41009678841465
 21
653.99708586287011
  0
LINE
  8
_2-0_
  6
CONTINUOUS
 62
    7
 10
794.42509678841463
 20
660.91208586286996
 11
794.42509678841463
 21
653.99708586287011
  0
LINE
  8
_2-0_
  6
CONTINUOUS
 62
    7
 10
774.74009678841458
 20
677.56208586287016
 11
794.42509678841463
 21
660.91208586286996
  0
LINE
  8
_2-0_
  6
CONTINUOUS
 62
    7
 10
774.74009678841458
 20
677.56208586287016
 11
752.85009678841459
 21
733.44708586286993
  0
ARC
  8
_2-0_
  6
CONTINUOUS
 62
    7
 10
740.51238845508124
 20
728.3897941962033
 40
13.333988372581555
 50
22.288982464634799
 51
89.085959400609283
  0
ARC
  8
_2-0_
  6
CONTINUOUS
 62
    7
 10
740.82676583603359
 20
729.18097514858437
 40
12.541522815958821
 50
90.464478773867427
 51
181.59410169579419
  0
LINE
  8
_2-0_
  6
CONTINUOUS
 62
    7
 10
719.20509678841472
 20
625.97708586287001
 11
719.20509678841472
 21
627.49208586287
  0
LINE
  8
_2-0_
  6
CONTINUOUS
 62
    7
 10
715.86509678841469
 20
625.97708586287001
 11
719.20509678841472
 21
625.97708586287001
  0
LINE
  8
_2-0_
  6
CONTINUOUS
 62
    7
 10
715.86509678841469
 20
635.97708586287001
 11
715.86509678841469
 21
625.97708586287001
  0
LINE
  8
_2-0_
  6
CONTINUOUS
 62
    7
 10
719.20509678841472
 20
627.49208586287
 11
723.51509678841467
 21
627.49208586287
  0
LINE
  8
_2-0_
  6
CONTINUOUS
 62
    7
 10
727.61509678841446
 20
627.49208586287
 11
723.30509678841452
 21
627.49208586287
  0
LINE
  8
_2-0_
  6
CONTINUOUS
 62
    7
 10
727.61509678841446
 20
627.49208586287
 11
727.61509678841446
 21
625.97708586287001
  0
LINE
  8
_2-0_
  6
CONTINUOUS
 62
    7
 10
730.95509678841449
 20
625.97708586287001
 11
730.95509678841449
 21
635.97708586287001
  0
LINE
  8
_2-0_
  6
CONTINUOUS
 62
    7
 10
715.86509678841469
 20
635.97708586287001
 11
719.27497645892174
 21
635.97708586287001
  0
LINE
  8
_2-0_
  6
CONTINUOUS
 62
    7
 10
718.53009678841454
 20
728.83208586286992
 11
719.27497645892174
 21
635.97708586287001
  0
LINE
  8
_2-0_
  6
CONTINUOUS
 62
    7
 10
730.95509678841449
 20
635.97708586287001
 11
727.54521711790744
 21
635.97708586287001
  0
LINE
  8
_2-0_
  6
CONTINUOUS
 62
    7
 10
728.29009678841453
 20
728.83208586286992
 11
727.54521711790744
 21
635.97708586287001
  0
LINE
  8
_2-0_
  6
CONTINUOUS
 62
    7
 10
672.02009678841466
 20
651.91728962860623
 11
640.20130654249999
 21
651.91728962860623
  0
LINE
  8
_2-0_
  6
CONTINUOUS
 62
    7
 10
673.02009678841478
 20
650.91728962860634
 11
673.02009678841478
 21
539.84228962860607
  0
ARC
  8
_2-0_
  6
CONTINUOUS
 62
    7
 10
672.02009678841466
 20
650.91728962860634
 40
1
 50
0
 51
90.000000000000014
  0
LINE
  8
_2-0_
  6
CONTINUOUS
 62
    7
 10
640.20130654249999
 20
651.91728962860623
 11
589.89236784356035
 21
663.15612035288746
  0
LINE
  8
_2-0_
  6
CONTINUOUS
 62
    7
 10
774.80009678841452
 20
651.91728962860623
 11
806.61888703432942
 21
651.91728962860623
  0
LINE
  8
_2-0_
  6
CONTINUOUS
 62
    7
 10
773.80009678841463
 20
650.91728962860634
 11
773.80009678841463
 21
539.84228962860607
  0
ARC
  8
_2-0_
  6
CONTINUOUS
 62
    7
 10
774.80009678841452
 20
650.91728962860634
 40
1
 50
89.999999999999986
 51
180
  0
LINE
  8
_2-0_
  6
CONTINUOUS
 62
    7
 10
806.61888703432942
 20
651.91728962860623
 11
856.92782573326895
 21
663.15612035288746
  0
LINE
  8
_2-0_
  6
CONTINUOUS
 62
    7
 10
774.80009678841452
 20
653.91728962860611
 11
806.61888703432942
 21
653.91728962860611
  0
ARC
  8
_2-0_
  6
CONTINUOUS
 62
    7
 10
774.80009678841452
 20
650.91728962860634
 40
3.0000000000000004
 50
90
 51
180
  0
LINE
  8
_2-0_
  6
CONTINUOUS
 62
    7
 10
856.49178126578022
 20
665.10800795784121
 11
856.92782573326895
 21
663.15612035288746
  0
LINE
  8
_2-0_
  6
CONTINUOUS
 62
    7
 10
806.18284256684069
 20
653.86917723356009
 11
856.49178126578022
 21
665.10800795784121
  0
LINE
  8
_2-0_
  6
CONTINUOUS
 62
    7
 10
771.80009678841452
 20
539.84228962860607
 11
773.80009678841463
 21
539.84228962860607
  0
LINE
  8
_2-0_
  6
CONTINUOUS
 62
    7
 10
771.80009678841452
 20
650.91728962860634
 11
771.80009678841452
 21
539.84228962860607
  0
LINE
  8
_2-0_
  6
CONTINUOUS
 62
    7
 10
672.02009678841466
 20
653.91728962860611
 11
640.20130654249999
 21
653.91728962860611
  0
ARC
  8
_2-0_
  6
CONTINUOUS
 62
    7
 10
672.02009678841466
 20
650.91728962860634
 40
3.0000000000000004
 50
0
 51
90.000000000000014
  0
LINE
  8
_2-0_
  6
CONTINUOUS
 62
    7
 10
675.02009678841455
 20
539.84228962860607
 11
673.02009678841478
 21
539.84228962860607
  0
LINE
  8
_2-0_
  6
CONTINUOUS
 62
    7
 10
675.02009678841455
 20
650.91728962860634
 11
675.02009678841455
 21
539.84228962860607
  0
LINE
  8
_2-0_
  6
CONTINUOUS
 62
    7
 10
590.32841231104896
 20
665.10800795784121
 11
589.89236784356035
 21
663.15612035288746
  0
LINE
  8
_2-0_
  6
CONTINUOUS
 62
    7
 10
640.63735100998861
 20
653.86917723356009
 11
590.32841231104896
 21
665.10800795784121
  0
ARC
  8
_2-0_
  6
CONTINUOUS
 62
    7
 10
856.92782573326895
 20
663.15612035288746
 40
3.5900121369192792
 50
85.57048975730531
 51
161.69478030265577
  0
LINE
  8
_2-0_
  6
CONTINUOUS
 62
    7
 10
857.20509152816294
 20
666.73540950329289
 11
865.53639469920927
 21
664.50304354671198
  0
LINE
  8
_2-0_
  6
CONTINUOUS
 62
    7
 10
589.61510204866636
 20
666.73540950329289
 11
581.28379887762003
 21
664.50304354671198
  0
ARC
  8
_2-0_
  6
CONTINUOUS
 62
    7
 10
589.89236784356035
 20
663.15612035288746
 40
3.5900121369192792
 50
18.305219697344228
 51
94.42951024269469
  0
LINE
  8
_2-0_
  6
CONTINUOUS
 62
    7
 10
893.24759072196684
 20
722.17296573436192
 11
903.24759072196684
 21
722.17296573436192
  0
LINE
  8
_2-0_
  6
CONTINUOUS
 62
    7
 10
859.68633004384913
 20
664.04315707379828
 11
893.24759072196684
 21
722.17296573436192
  0
CIRCLE
  8
_2-0_
  6
CONTINUOUS
 62
    7
 10
364.91651082224422
 20
696.13768469883462
 40
2
  0
CIRCLE
  8
_2-0_
  6
CONTINUOUS
 62
    7
 10
441.19190824015095
 20
698.88308033034468
 40
2
  0
CIRCLE
  8
_2-0_
  6
CONTINUOUS
 62
    7
 10
538.98919996567361
 20
673.12210618885547
 40
2
  0
CIRCLE
  8
_2-0_
  6
CONTINUOUS
 62
    7
 10
564.20063392540897
 20
666.34383524885197
 40
2
  0
CIRCLE
  8
_2-0_
  6
CONTINUOUS
 62
    7
 10
764.48296620120334
 20
706.14765406238212
 40
2
  0
CIRCLE
  8
_2-0_
  6
CONTINUOUS
 62
    7
 10
812.77706888380317
 20
654.57305148825913
 40
2
  0
CIRCLE
  8
_2-0_
  6
CONTINUOUS
 62
    7
 10
859.68633004384913
 20
664.04315707379828
 40
2
  0
CIRCLE
  8
_2-0_
  6
CONTINUOUS
 62
    7
 10
874.01123615955703
 20
592.75104703042143
 40
2
  0
CIRCLE
  8
_2-0_
  6
CONTINUOUS
 62
    7
 10
962.72750180510513
 20
597.29776253392163
 40
2
  0
CIRCLE
  8
_2-0_
  6
CONTINUOUS
 62
    7
 10
778.09125133485043
 20
567.82695648541903
 40
2
  0
LINE
  8
_2-0_
  6
CONTINUOUS
 62
    7
 10
1027.9383907324777
 20
695.36228962860616
 11
1108.0733706873764
 21
615.22228962860606
  0
LINE
  8
_2-0_
  6
CONTINUOUS
 62
    7
 10
1042.0800834247959
 20
695.36228962860616
 11
1122.2150633796948
 21
615.22228962860606
  0
LINE
  8
_2-0_
  6
CONTINUOUS
 62
    7
 10
323.41009678841459
 20
695.36228962860616
 11
424.09638285647543
 21
695.36228962860616
  0
LINE
  8
_2-0_
  6
CONTINUOUS
 62
    7
 10
429.82462952128526
 20
695.36228962860616
 11
454.18009678841457
 21
695.36228962860616
  0
LINE
  8
_2-0_
  6
CONTINUOUS
 62
    7
 10
774.80009678841452
 20
291.14546411650423
 11
774.80009678841452
 21
649.41728962860623
  0
LINE
  8
_2-0_
  6
CONTINUOUS
 62
    7
 10
774.80009678841452
 20
649.41728962860623
 11
809.18807681001294
 21
649.41728962860623
  0
LINE
  8
_2-0_
  6
CONTINUOUS
 62
    7
 10
1123.4100967884146
 20
695.36228962860616
 11
1022.6783405276774
 21
695.36228962860616
  0
LINE
  8
_2-0_
  6
CONTINUOUS
 62
    7
 10
1016.8783405276774
 20
695.36228962860616
 11
992.64009678841467
 21
695.36228962860616
  0
LINE
  8
_2-0_
  6
CONTINUOUS
 62
    7
 10
848.8742598120682
 20
326.22720989670853
 11
858.8742598120682
 21
326.22720989670853
  0
LINE
  8
_2-0_
  6
CONTINUOUS
 62
    7
 10
780.94304273789339
 20
443.88752928916983
 11
848.8742598120682
 21
326.22720989670853
  0
CIRCLE
  8
_2-0_
  6
CONTINUOUS
 62
    7
 10
780.94304273789339
 20
443.88752928916983
 40
2
  0
LINE
  8
_0-0_
  6
CONTINUOUS
 62
    7
 10
1011.8700969838977
 20
605.52228962860625
 11
820.48759115198709
 21
414.13728962860614
  0
LINE
  8
_0-0_
  6
CONTINUOUS
 62
    7
 10
464.65509678841454
 20
605.52228962860625
 11
565.42009678841464
 21
534.52228962860613
  0
LINE
  8
_0-0_
  6
CONTINUOUS
 62
    7
 10
360.48260374436296
 20
414.13728962860614
 11
515.81930370138434
 21
569.47149132740185
  0
LINE
  8
_0-0_
  6
CONTINUOUS
 62
    7
 10
1040.1541839287838
 20
605.52228962860625
 11
848.77167809687307
 21
414.13728962860614
  0
LINE
  8
_0-0_
  6
CONTINUOUS
 62
    7
 10
1026.0121404563408
 20
605.52228962860625
 11
834.62963462443008
 21
414.13728962860625
  0
LINE
  8
_0-0_
  6
CONTINUOUS
 62
    7
 10
388.76710244236904
 20
414.13728962860614
 11
532.4121402159376
 21
557.78001717930215
  0
LINE
  8
_0-0_
  6
CONTINUOUS
 62
    7
 10
374.62485309336603
 20
414.13728962860614
 11
524.11572195866097
 21
563.62575425335206
  0
LINE
  8
_0-0_
  6
CONTINUOUS
 62
    7
 10
323.41009678841459
 20
414.13728962860614
 11
659.67509678841463
 21
414.13728962860614
  0
LINE
  8
_0-0_
  6
CONTINUOUS
 62
    7
 10
464.65509678841454
 20
605.52228962860625
 11
323.41009678841459
 21
605.52228962860625
  0
LINE
  8
_0-0_
  6
CONTINUOUS
 62
    7
 10
982.16509678841464
 20
605.52228962860625
 11
881.40009678841454
 21
534.52228962860613
  0
LINE
  8
_0-0_
  6
CONTINUOUS
 62
    7
 10
982.16509678841464
 20
605.52228962860625
 11
1123.4100967884146
 21
605.52228962860625
  0
LINE
  8
_0-0_
  6
CONTINUOUS
 62
    7
 10
787.14509678841455
 20
414.13728962860614
 11
1123.4100967884146
 21
414.13728962860614
  0
TEXT
  8
_2-0_
 62
    7
 10
180.65418445220558
 20
140.84125598240831
 40
20.000000000000018
 41
0.9999999999999988
 50
0
  1
●ＡＹドレンを「後付け」で納める場合
  0
TEXT
  8
_e-0_
 62
    7
 10
468.35412520999449
 20
843.24914423561927
 40
20.000000000000107
 41
0.9999999999999935
 50
0
  1
絶縁シート
  0
TEXT
  8
_e-0_
 62
    7
 10
839.78020204352163
 20
791.06637357205705
 40
20.000000000000107
 41
0.9999999999999962
 50
0
  1
(アルミダイキャスト製)
  0
TEXT
  8
_e-0_
 62
    7
 10
844.39021368496526
 20
810.27475541140507
 40
20.000000000000107
 41
0.9999999999999962
 50
0
  1
ストレーナー
  0
TEXT
  8
_e-0_
 62
    7
 10
678.47933927266718
 20
843.57756725815193
 40
20.000000000000107
 41
0.9999999999999962
 50
0
  1
ＡＹボンド５８０ＮＦ
  0
TEXT
  8
_e-0_
 62
    7
 10
685.3943567348324
 20
906.58105969121357
 40
20.000000000000107
 41
0.9999999999999935
 50
0
  1
リベットルーフ
  0
LINE
  8
_2-0_
  6
CONTINUOUS
 62
    7
 10
665.64839507697252
 20
854.7679198812699
 11
675.64839507697252
 21
854.7679198812699
  0
LINE
  8
_2-0_
  6
CONTINUOUS
 62
    7
 10
672.78653629283986
 20
917.57729862868609
 11
682.78653629283986
 21
917.57729862868609
  0
LINE
  8
_2-0_
  6
CONTINUOUS
 62
    7
 10
557.62229794545885
 20
667.66123110611773
 11
665.64839507697252
 21
854.7679198812699
  0
LINE
  8
_2-0_
  6
CONTINUOUS
 62
    7
 10
532.6536119096404
 20
674.8599537837772
 11
672.78653629283986
 21
917.57729862868609
  0
LINE
  8
_2-0_
  6
CONTINUOUS
 62
    7
 10
475.71201710071023
 20
819.30888041678736
 11
485.71201710071023
 21
819.30888041678736
  0
TEXT
  8
_e-0_
 62
    7
 10
489.38827517001027
 20
807.13738637764482
 40
20.000000000000107
 41
0.9999999999999935
 50
0
  1
ＦＬ鋼板
  0
LINE
  8
_2-0_
  6
CONTINUOUS
 62
    7
 10
406.18414900342628
 20
698.88308033034468
 11
475.71201710071023
 21
819.30888041678736
  0
LINE
  8
_2-0_
  6
CONTINUOUS
 62
    7
 10
812.77706888380317
 20
654.57305148825913
 11
871.4748978956236
 21
756.24067363072243
  0
LINE
  8
_2-0_
  6
CONTINUOUS
 62
    7
 10
871.4748978956236
 20
756.24067363072243
 11
880.7346433778423
 21
756.24067363072243
  0
TEXT
  8
_e-0_
 62
    7
 10
1008.9156691624322
 20
528.11587845140275
 40
20.000000000000107
 41
0.9999999999999962
 50
0
  1
旧防水層
  0
TEXT
  8
_e-0_
 62
    7
 10
949.75385309724015
 20
471.25906820693245
 40
20.000000000000107
 41
0.9999999999999962
 50
0
  1
モルタル充填
  0
TEXT
  8
_e-0_
 62
    7
 10
862.93196718338686
 20
316.18339882392894
 40
20.000000000000107
 41
0.9999999999999962
 50
0
  1
塩ビパイプ
  0
TEXT
  8
_e-0_
 62
    7
 10
882.16669796901658
 20
744.25961256971596
 40
20.000000000000107
 41
0.9999999999999962
 50
0
  1
ＡＹドレンタテ型
  0
TEXT
  8
_e-0_
 62
    7
 10
669.53103174514365
 20
778.6031939336458
 40
20.000000000000107
 41
0.9999999999999962
 50
0
  1
ＦＬシール
  0
LINE
  8
_2-0_
  6
CONTINUOUS
 62
    7
 10
586.18143603573094
 20
664.04315707379828
 11
658.68132860533547
 21
789.61665454763863
  0
LINE
  8
_2-0_
  6
CONTINUOUS
 62
    7
 10
658.68132860533547
 20
789.61665454763863
 11
668.68132860533547
 21
789.61665454763863
  0
TEXT
  8
_e-0_
 62
    7
 10
901.24537712029326
 20
711.26384694764442
 40
20.000000000000107
 41
0.9999999999999962
 50
0
  1
ＦＬシール
  0
TEXT
  8
_e-0_
 62
    7
 10
1026.9978311653356
 20
721.52663347718601
 40
20.000000000000107
 41
0.9999999999999962
 50
0
  1
ＦＬシール
  0
LINE
  8
_2-0_
  6
CONTINUOUS
 62
    7
 10
1003.6536137267296
 20
704.94550121153725
 11
1019.2293851872199
 21
731.92352874818766
  0
LINE
  8
_2-0_
  6
CONTINUOUS
 62
    7
 10
1019.2293851872199
 20
731.92352874818766
 11
1029.22938518722
 21
731.92352874818766
  0
TEXT
  8
_e-0_
 62
    7
 10
1237.9830919681926
 20
165.98334059744468
 40
20.000000000000018
 41
0.9999999999999988
 50
0
  1
×
  0
ENDSEC
  0
EOF
