  0
SECTION
  2
HEADER
  9
$ACADVER
  1
AC1009
  9
$INSBASE
 10
0
 20
0
 30
0
  9
$EXTMIN
 10
0
 20
0
  9
$EXTMAX
 10
2970
 20
2100
  9
$LIMMIN
 10
0
 20
0
  9
$LIMMAX
 10
2970
 20
2100
  9
$LTSCALE
 40
10
  0
ENDSEC
  0
SECTION
  2
TABLES
  0
TABLE
  2
LTYPE
 70
     9
  0
LTYPE
  2
CONTINUOUS
 70
    64
  3
実線
 72
    65
 73
     0
 40
0.0
  0
LTYPE
  2
DASHED1
 70
    64
  3
--  --  --  --  --  --  --  --  
 72
    65
 73
     2
 40
2.5
 49
1.25
 49
-1.25
  0
LTYPE
  2
DASHED2
 70
    64
  3
----    ----    ----    ----    
 72
    65
 73
     2
 40
5.0
 49
2.5
 49
-2.5
  0
LTYPE
  2
DASHED3
 70
    64
  3
------  ------  ------  ------  
 72
    65
 73
     2
 40
5.0
 49
3.75
 49
-1.25
  0
LTYPE
  2
CENTER1
 70
    64
  3
----- - ----- - ----- - ----- - 
 72
    65
 73
     4
 40
10.0
 49
6.25
 49
-1.25
 49
1.25
 49
-1.25
  0
LTYPE
  2
CENTER2
 70
    64
  3
----------  --  ----------  --  
 72
    65
 73
     4
 40
20.0
 49
12.5
 49
-2.5
 49
2.5
 49
-2.5
  0
LTYPE
  2
PHANTOM1
 70
    64
  3
--- - - --- - - --- - - --- - - 
 72
    65
 73
     6
 40
10.0
 49
3.25
 49
-1.25
 49
1.25
 49
-1.25
 49
1.25
 49
-1.25
  0
LTYPE
  2
PHANTOM2
 70
    64
  3
--------  -  -  --------  -  -  
 72
    65
 73
     6
 40
20.0
 49
10.0
 49
-2.5
 49
1.25
 49
-2.5
 49
1.25
 49
-2.5
  0
LTYPE
  2
DOT
 70
    64
  3
-   -   -   -   -   -   -   -   
 72
    65
 73
     2
 40
2.5
 49
0.625
 49
-1.875
  0
LTYPE
  2
DUMMY
 70
    64
  3
ダミー
 72
    65
 73
     0
 40
0.0
  0
LTYPE
  2
RAND1
 70
    64
  3
ランダム線1
 72
    65
 73
     4
 40
10.0
 49
1.0
 49
-2.0
 49
3.0
 49
-4.0
  0
LTYPE
  2
RAND2
 70
    64
  3
ランダム線2
 72
    65
 73
     4
 40
14.0
 49
2.0
 49
-3.0
 49
4.0
 49
-5.0
  0
LTYPE
  2
RAND3
 70
    64
  3
ランダム線3
 72
    65
 73
     4
 40
18.0
 49
3.0
 49
-4.0
 49
5.0
 49
-6.0
  0
LTYPE
  2
RAND4
 70
    64
  3
ランダム線4
 72
    65
 73
     4
 40
22.0
 49
4.0
 49
-5.0
 49
6.0
 49
-7.0
  0
LTYPE
  2
RAND5
 70
    64
  3
ランダム線5
 72
    65
 73
     4
 40
26.0
 49
5.0
 49
-6.0
 49
7.0
 49
-8.0
  0
LTYPE
  2
LONG1
 70
    64
  3
----------  --  ----------  --  
 72
    65
 73
     4
 40
40.0
 49
32.5
 49
-2.5
 49
2.5
 49
-2.5
  0
LTYPE
  2
LONG2
 70
    64
  3
--------  -  -  --------  -  -  
 72
    65
 73
     6
 40
40.0
 49
30.0
 49
-2.5
 49
1.25
 49
-2.5
 49
1.25
 49
-2.5
  0
LTYPE
  2
LONG3
 70
    64
  3
+++++++++++++++..+++++++++++++++
 72
    65
 73
     2
 40
40.0
 49
37.5
 49
-2.5
  0
LTYPE
  2
LONG4
 70
    64
  3
+++++++++++++++..+++++++++++++++
 72
    65
 73
     2
 40
80.0
 49
75.0
 49
-5.0
  0
LTYPE
  2
LONG5
 70
    64
  3
----------  --  ----------  --  
 72
    65
 73
     4
 40
60.0
 49
37.5
 49
-7.5
 49
7.5
 49
-7.5
  0
LTYPE
  2
dashed
 70
   64
  3
-------   -------------   ------
 72
   65
 73
    2
 40
7.5
 49
6
 49
-1.5
  0
LTYPE
  2
dashed_spaced
 70
   64
  3
----        --------        ----
 72
   65
 73
    2
 40
12
 49
6
 49
-6
  0
LTYPE
  2
long_dashed_dotted
 70
   64
  3
------------- --- --------------
 72
   65
 73
    4
 40
15.25
 49
12
 49
-1.5
 49
0.25
 49
-1.5
  0
LTYPE
  2
long_dashed_double-dotted
 70
   64
  3
----------- --- --- ------------
 72
   65
 73
    6
 40
17
 49
12
 49
-1.5
 49
0.25
 49
-1.5
 49
0.25
 49
-1.5
  0
LTYPE
  2
long_dashed_triplicate-dotted
 70
   64
  3
--------- --- --- --- ----------
 72
   65
 73
    8
 40
18.75
 49
12
 49
-1.5
 49
0.25
 49
-1.5
 49
0.25
 49
-1.5
 49
0.25
 49
-1.5
  0
LTYPE
  2
dotted
 70
   64
  3
   -       -       -       -    
 72
   65
 73
    2
 40
1.75
 49
0.25
 49
-1.5
  0
LTYPE
  2
chain
 70
   64
  3
-------------- -- --------------
 72
   65
 73
    4
 40
18.5
 49
12
 49
-1.5
 49
3.5
 49
-1.5
  0
LTYPE
  2
chain_double_dash
 70
   64
  3
------------ -- -- -------------
 72
   65
 73
    6
 40
23.5
 49
12
 49
-1.5
 49
3.5
 49
-1.5
 49
3.5
 49
-1.5
  0
LTYPE
  2
dashed_dotted
 70
   64
  3
-----------     -     ----------
 72
   65
 73
    4
 40
9.25
 49
6
 49
-1.5
 49
0.25
 49
-1.5
  0
LTYPE
  2
double-dashed_dotted
 70
   64
  3
------   -----------   -   -----
 72
   65
 73
    6
 40
16.75
 49
6
 49
-1.5
 49
6
 49
-1.5
 49
0.25
 49
-1.5
  0
LTYPE
  2
dashed_double-dotted
 70
   64
  3
---------    -    -    ---------
 72
   65
 73
    6
 40
11
 49
6
 49
-1.5
 49
0.25
 49
-1.5
 49
0.25
 49
-1.5
  0
LTYPE
  2
double-dashed_double-dotted
 70
   64
  3
-----   ---------   -   -   ----
 72
   65
 73
    8
 40
18.5
 49
6
 49
-1.5
 49
6
 49
-1.5
 49
0.25
 49
-1.5
 49
0.25
 49
-1.5
  0
LTYPE
  2
dashed_triplicate-dotted
 70
   64
  3
-------    -    -    -    ------
 72
   65
 73
    8
 40
12.75
 49
6
 49
-1.5
 49
0.25
 49
-1.5
 49
0.25
 49
-1.5
 49
0.25
 49
-1.5
  0
LTYPE
  2
double-dashed_triplicate-dotted
 70
   64
  3
-----  ---------  -  -  -  -----
 72
   65
 73
   10
 40
20.25
 49
6
 49
-1.5
 49
6
 49
-1.5
 49
0.25
 49
-1.5
 49
0.25
 49
-1.5
 49
0.25
 49
-1.5
  0
LTYPE
  2
undefined
 70
   64
  3
--------------------------------
 72
   65
 73
    0
 40
0
  0
LTYPE
  2
AIGENLINE001
 70
   64
  3
----        --------        ----
 72
   65
 73
    2
 40
4.5800000000000001
 49
2.29
 49
-2.29
  0
LTYPE
  2
AIGENLINE002
 70
   64
  3
------     -----------     -----
 72
   65
 73
    2
 40
6.8700000000000001
 49
4.5800000000000001
 49
-2.29
  0
ENDTAB
  0
TABLE
  2
STYLE
  5
3
100
AcDbSymbolTable
 70
     1
  0
STYLE
  5
10
100
AcDbSymbolTableRecord
100
AcDbTextStyleTableRecord
  2
STANDARD
 70
     0
 40
0.0
 41
1.0
 50
0.0
 71
     0
 42
0.2
  3
txt
  4
bigfont.shx
  0
STYLE
  5
26
100
AcDbSymbolTableRecord
100
AcDbTextStyleTableRecord
  2
TATEGAKI
 70
    68
 40
0.0
 41
1.0
 50
0.0
 71
     0
 42
1.0
  3
txt
  4
bigfont.shx
  0
ENDTAB
  0
TABLE
  2
LAYER
 70
    3
  0
LAYER
  2
_0-0_文字
 70
   64
 62
    7
  6
CONTINUOUS
  0
LAYER
  2
_0-1_レイヤ___3
 70
   64
 62
    7
  6
CONTINUOUS
  0
LAYER
  2
ADD_LINE
 70
   64
 62
    7
  6
CONTINUOUS
  0
ENDTAB
  0
ENDSEC
  0
SECTION
  2
BLOCKS
  0
BLOCK
  2
-000-AIGNBL01020035
 70
   64
 10
0
 20
0
 30
0
  0
LINE
  8
_0-0_文字
  6
CONTINUOUS
 62
    7
 10
2978.599956
 20
667.89998999999989
 11
3038.699955
 21
762.29998899999998
  0
LINE
  8
_0-0_文字
  6
CONTINUOUS
 62
    7
 10
3038.699955
 20
762.29998899999998
 11
3047.799955
 21
762.29998899999998
  0
ENDBLK
  0
BLOCK
  2
-001-AIGNBL01020037
 70
   64
 10
0
 20
0
 30
0
  0
LINE
  8
_0-0_文字
  6
CONTINUOUS
 62
    7
 10
2893.2999570000002
 20
720.59998900000005
 11
2921.9999560000001
 21
765.59998900000005
  0
LINE
  8
_0-0_文字
  6
CONTINUOUS
 62
    7
 10
2921.9999560000001
 20
765.59998900000005
 11
2931.099956
 21
765.59998900000005
  0
ENDBLK
  0
BLOCK
  2
-002-AIGNBL0102003A
 70
   64
 10
0
 20
0
 30
0
  0
LINE
  8
_0-0_文字
  6
CONTINUOUS
 62
    7
 10
2984.6999559999999
 20
793.99998800000003
 11
3023.8999549999999
 21
854.09998700000006
  0
LINE
  8
_0-0_文字
  6
CONTINUOUS
 62
    7
 10
3023.8999549999999
 20
854.09998700000006
 11
3032.9999550000002
 21
854.09998700000006
  0
ENDBLK
  0
BLOCK
  2
-003-AIGNBL0102003C
 70
   64
 10
0
 20
0
 30
0
  0
LINE
  8
_0-0_文字
  6
CONTINUOUS
 62
    7
 10
3235.7999519999998
 20
620.69999099999995
 11
3264.299951
 21
668.29998999999998
  0
LINE
  8
_0-0_文字
  6
CONTINUOUS
 62
    7
 10
3264.299951
 20
668.29998999999998
 11
3281.4999509999998
 21
668.29998999999998
  0
ENDBLK
  0
BLOCK
  2
-004-AIGNBL0102003F
 70
   64
 10
0
 20
0
 30
0
  0
LINE
  8
_0-0_文字
  6
CONTINUOUS
 62
    7
 10
3126.3999530000001
 20
577.399991
 11
3152.5999529999999
 21
530.79999199999997
  0
LINE
  8
_0-0_文字
  6
CONTINUOUS
 62
    7
 10
3152.5999529999999
 20
530.79999199999997
 11
3164.0999529999999
 21
530.79999199999997
  0
ENDBLK
  0
ENDSEC
  0
SECTION
  2
ENTITIES
  0
ARC
  8
_0-1_レイヤ___3
  6
CONTINUOUS
 62
    7
 10
-7457.1225270732621
 20
10245.265671888299
 40
100.75331131322194
 50
212.54457606520913
 51
215.40440375223901
  0
ARC
  8
_0-1_レイヤ___3
  6
CONTINUOUS
 62
    7
 10
-7368.9514147695209
 20
10307.718363524889
 40
208.80176608438552
 50
215.35576722286694
 51
221.36723647424384
  0
ARC
  8
_0-1_レイヤ___3
  6
CONTINUOUS
 62
    7
 10
-7295.4624294196119
 20
10370.285434729602
 40
305.30820552446175
 50
221.06477429997616
 51
231.22765018658944
  0
ARC
  8
_0-1_レイヤ___3
  6
CONTINUOUS
 62
    7
 10
-7258.362933726452
 20
10413.75814627555
 40
362.43800051855288
 50
230.95883511048854
 51
251.35346403312775
  0
ARC
  8
_0-1_レイヤ___3
  6
CONTINUOUS
 62
    7
 10
-7236.372632740311
 20
10469.15351598549
 40
421.96811857702386
 50
250.92920805381576
 51
264.01576111916944
  0
ARC
  8
_0-1_レイヤ___3
  6
CONTINUOUS
 62
    7
 10
-7225.624236278828
 20
10543.900922169672
 40
497.43720610569824
 50
263.68207230856342
 51
270.12317171358148
  0
ARC
  8
_0-1_レイヤ___3
  6
CONTINUOUS
 62
    7
 10
-6992.0793464044109
 20
10245.524901377814
 40
100.97057184263099
 50
324.50269853745323
 51
327.35954730735853
  0
ARC
  8
_0-1_レイヤ___3
  6
CONTINUOUS
 62
    7
 10
-7080.3419905560786
 20
10307.947173220191
 40
209.07582118488784
 50
318.61534655888227
 51
324.62063211809948
  0
ARC
  8
_0-1_レイヤ___3
  6
CONTINUOUS
 62
    7
 10
-7153.8774882642865
 20
10370.555279866292
 40
305.64394410371006
 50
308.76992808749981
 51
318.92296844706647
  0
ARC
  8
_0-1_レイヤ___3
  6
CONTINUOUS
 62
    7
 10
-7190.9073149430596
 20
10414.013847156648
 40
362.71881065871321
 50
288.65165821912348
 51
309.03173518611686
  0
ARC
  8
_0-1_レイヤ___3
  6
CONTINUOUS
 62
    7
 10
-7212.7783179116759
 20
10469.116770693032
 40
421.93378546990601
 50
275.98762352174964
 51
289.07257752973072
  0
ARC
  8
_0-1_レイヤ___3
  6
CONTINUOUS
 62
    7
 10
-7223.4878580387031
 20
10543.581941679005
 40
497.11822129585721
 50
269.87702048518202
 51
276.31995190691799
  0
ARC
  8
_0-1_レイヤ___3
  6
CONTINUOUS
 62
    7
 10
-5185.0304285955899
 20
10245.524901377814
 40
100.97057184263099
 50
212.64045269264147
 51
215.49730146254677
  0
ARC
  8
_0-1_レイヤ___3
  6
CONTINUOUS
 62
    7
 10
-5096.767783943922
 20
10307.947182752343
 40
209.07582711155425
 50
215.37936993240487
 51
221.38465549162211
  0
ARC
  8
_0-1_レイヤ___3
  6
CONTINUOUS
 62
    7
 10
-5023.232286235715
 20
10370.555274237853
 40
305.6439400285019
 50
221.07703081915608
 51
231.23007117872271
  0
ARC
  8
_0-1_レイヤ___3
  6
CONTINUOUS
 62
    7
 10
-4986.2024600569393
 20
10414.01384715665
 40
362.71881065871611
 50
230.96826481388334
 51
251.34834178087678
  0
ARC
  8
_0-1_レイヤ___3
  6
CONTINUOUS
 62
    7
 10
-4964.331457088324
 20
10469.116770693026
 40
421.93378546990107
 50
250.92742247026916
 51
264.01237647825019
  0
ARC
  8
_0-1_レイヤ___3
  6
CONTINUOUS
 62
    7
 10
-4953.6219169612968
 20
10543.581941679005
 40
497.11822129585721
 50
263.68004809308201
 51
270.12297951481798
  0
ARC
  8
_0-1_レイヤ___3
  6
CONTINUOUS
 62
    7
 10
-4719.9458454184714
 20
10245.502223718258
 40
100.93010227782503
 50
324.50212566871829
 51
327.36012017609352
  0
ARC
  8
_0-1_レイヤ___3
  6
CONTINUOUS
 62
    7
 10
-4808.1795151263923
 20
10307.897670728831
 40
208.99619450303933
 50
318.61419937969004
 51
324.6217751962829
  0
ARC
  8
_0-1_レイヤ___3
  6
CONTINUOUS
 62
    7
 10
-4881.720450069015
 20
10370.546924357084
 40
305.59543296261558
 50
308.76110452106741
 51
318.91711841601511
  0
ARC
  8
_0-1_レイヤ___3
  6
CONTINUOUS
 62
    7
 10
-4918.8186128357247
 20
10414.07234736759
 40
362.76505117262622
 50
288.64440299195792
 51
309.02607158712721
  0
ARC
  8
_0-1_レイヤ___3
  6
CONTINUOUS
 62
    7
 10
-4940.7607794280339
 20
10469.392114969156
 40
422.20788163462777
 50
275.98405340598731
 51
289.06580929539717
  0
ARC
  8
_0-1_レイヤ___3
  6
CONTINUOUS
 62
    7
 10
-4951.4884073483645
 20
10543.953934779165
 40
497.49021243480115
 50
269.87717178965931
 51
276.31758418819595
  0
ARC
  8
_0-1_レイヤ___3
  6
CONTINUOUS
 62
    7
 10
-5820.122552073216
 20
10136.864055111702
 40
100.75331131325974
 50
144.59559624777546
 51
147.45542393480537
  0
ARC
  8
_0-1_レイヤ___3
  6
CONTINUOUS
 62
    7
 10
-5731.9514397695193
 20
10074.411363475112
 40
208.80176608438552
 50
138.63276352575616
 51
144.64423277713306
  0
ARC
  8
_0-1_レイヤ___3
  6
CONTINUOUS
 62
    7
 10
-5658.4624539196111
 20
10011.84428664744
 40
305.30820959523527
 50
128.77234907943739
 51
138.93522496605067
  0
ARC
  8
_0-1_レイヤ___3
  6
CONTINUOUS
 62
    7
 10
-5621.3629577264519
 20
9968.3715807244553
 40
362.43800051855004
 50
108.64653596687252
 51
129.04116488951172
  0
ARC
  8
_0-1_レイヤ___3
  6
CONTINUOUS
 62
    7
 10
-5599.37265674031
 20
9912.9762110145002
 40
421.96811857703369
 50
95.984238880830276
 51
109.07079194618395
  0
ARC
  8
_0-1_レイヤ___3
  6
CONTINUOUS
 62
    7
 10
-5588.6242602788279
 20
9838.228804830349
 40
497.437206105678
 50
89.876828286418629
 51
96.317927691436736
  0
ARC
  8
_0-1_レイヤ___3
  6
CONTINUOUS
 62
    7
 10
-5354.9872379267836
 20
10136.864055111679
 40
100.75331131327245
 50
32.544576065205391
 51
35.404403752235282
  0
ARC
  8
_0-1_レイヤ___3
  6
CONTINUOUS
 62
    7
 10
-5443.1583502304802
 20
10074.411363475123
 40
208.80176608437881
 50
35.3557672228646
 51
41.367236474241516
  0
ARC
  8
_0-1_レイヤ___3
  6
CONTINUOUS
 62
    7
 10
-5516.6473355803882
 20
10011.8442922704
 40
305.30820552446175
 50
41.064774299976172
 51
51.227650186589457
  0
ARC
  8
_0-1_レイヤ___3
  6
CONTINUOUS
 62
    7
 10
-5553.7468312735482
 20
9968.3715807244516
 40
362.43800051855288
 50
50.958835110488543
 51
71.35346403312775
  0
ARC
  8
_0-1_レイヤ___3
  6
CONTINUOUS
 62
    7
 10
-5575.737132259691
 20
9912.9762110145057
 40
421.96811857702875
 50
70.929208053815913
 51
84.015761119169582
  0
ARC
  8
_0-1_レイヤ___3
  6
CONTINUOUS
 62
    7
 10
-5586.4855287211731
 20
9838.2288048303399
 40
497.43720610568812
 50
83.682072308563349
 51
90.123171713581442
  0
ARC
  8
_0-1_レイヤ___3
  6
CONTINUOUS
 62
    7
 10
-2913.022595073262
 20
10245.265671888321
 40
100.75331131323469
 50
212.54457606521987
 51
215.40440375224975
  0
ARC
  8
_0-1_レイヤ___3
  6
CONTINUOUS
 62
    7
 10
-2824.851482769519
 20
10307.718363524882
 40
208.80176608438217
 50
215.35576722286575
 51
221.36723647424267
  0
ARC
  8
_0-1_レイヤ___3
  6
CONTINUOUS
 62
    7
 10
-2751.3624974196114
 20
10370.285434729598
 40
305.30820552445948
 50
221.06477429997577
 51
231.22765018658905
  0
ARC
  8
_0-1_レイヤ___3
  6
CONTINUOUS
 62
    7
 10
-2714.2630012264522
 20
10413.758149055178
 40
362.43800299241127
 50
230.95883532587561
 51
251.3534642485148
  0
ARC
  8
_0-1_レイヤ___3
  6
CONTINUOUS
 62
    7
 10
-2692.2727002403099
 20
10469.153511626333
 40
421.96811429374725
 50
250.92920792458665
 51
264.0157609899403
  0
ARC
  8
_0-1_レイヤ___3
  6
CONTINUOUS
 62
    7
 10
-2681.5243042788275
 20
10543.900922169658
 40
497.43720610568312
 50
263.68207230856331
 51
270.12317171358143
  0
ARC
  8
_0-1_レイヤ___3
  6
CONTINUOUS
 62
    7
 10
-2447.8872809267382
 20
10245.26567188831
 40
100.75331131322829
 50
324.59559624775562
 51
327.45542393478553
  0
ARC
  8
_0-1_レイヤ___3
  6
CONTINUOUS
 62
    7
 10
-2536.0583932304803
 20
10307.718363524889
 40
208.80176608438552
 50
318.63276352575616
 51
324.64423277713308
  0
ARC
  8
_0-1_レイヤ___3
  6
CONTINUOUS
 62
    7
 10
-2609.5473785803892
 20
10370.285434729598
 40
305.30820552445948
 50
308.77234981341098
 51
318.93522570002426
  0
ARC
  8
_0-1_レイヤ___3
  6
CONTINUOUS
 62
    7
 10
-2646.646874773548
 20
10413.758149055178
 40
362.43800299241127
 50
288.6465357514852
 51
309.04116467412439
  0
ARC
  8
_0-1_レイヤ___3
  6
CONTINUOUS
 62
    7
 10
-2668.6371757596903
 20
10469.153511626329
 40
421.96811429374492
 50
275.98423901005975
 51
289.07079207541341
  0
ARC
  8
_0-1_レイヤ___3
  6
CONTINUOUS
 62
    7
 10
-2679.3855722211724
 20
10543.900931055636
 40
497.43721499271589
 50
269.87682823102801
 51
276.31792763604608
  0
ARC
  8
_0-1_レイヤ___3
  6
CONTINUOUS
 62
    7
 10
-3548.0304525955444
 20
10136.604825622173
 40
100.97057184267514
 50
144.50269853746238
 51
147.35954730736768
  0
ARC
  8
_0-1_レイヤ___3
  6
CONTINUOUS
 62
    7
 10
-3459.7678084439217
 20
10074.182553779816
 40
209.07582118488446
 50
138.6153465588834
 51
144.62063211810062
  0
ARC
  8
_0-1_レイヤ___3
  6
CONTINUOUS
 62
    7
 10
-3386.2323107357138
 20
10011.574447133704
 40
305.6439441037146
 50
128.76992808749898
 51
138.92296844706561
  0
ARC
  8
_0-1_レイヤ___3
  6
CONTINUOUS
 62
    7
 10
-3349.2024840569402
 20
9968.1158798433553
 40
362.71881065871321
 50
108.65165821912348
 51
129.03173518611692
  0
ARC
  8
_0-1_レイヤ___3
  6
CONTINUOUS
 62
    7
 10
-3327.3314810883239
 20
9913.0129563069768
 40
421.93378546990107
 50
95.987623521749811
 51
109.07257752973085
  0
ARC
  8
_0-1_レイヤ___3
  6
CONTINUOUS
 62
    7
 10
-3316.6219409612968
 20
9838.547785320985
 40
497.11822129586727
 50
89.877020485181959
 51
96.319951906917922
  0
ARC
  8
_0-1_レイヤ___3
  6
CONTINUOUS
 62
    7
 10
-3082.9458704185172
 20
10136.627503281728
 40
100.93010227786918
 50
32.639879823897374
 51
35.497874331272577
  0
ARC
  8
_0-1_レイヤ___3
  6
CONTINUOUS
 62
    7
 10
-3171.1795401263917
 20
10074.232056271177
 40
208.99619450303595
 50
35.378224803715909
 51
41.385800620308785
  0
ARC
  8
_0-1_レイヤ___3
  6
CONTINUOUS
 62
    7
 10
-3244.7204745690146
 20
10011.582808269704
 40
305.59542888809187
 50
41.082880850402226
 51
51.23889474534996
  0
ARC
  8
_0-1_レイヤ___3
  6
CONTINUOUS
 62
    7
 10
-3281.8186368357237
 20
9968.0573796324115
 40
362.76505117262764
 50
50.973928412872894
 51
71.355597008042196
  0
ARC
  8
_0-1_レイヤ___3
  6
CONTINUOUS
 62
    7
 10
-3303.7608034280352
 20
9912.73761203084
 40
422.20788163463277
 50
70.934190704602969
 51
84.015946594012817
  0
ARC
  8
_0-1_レイヤ___3
  6
CONTINUOUS
 62
    7
 10
-3314.4884313483644
 20
9838.1757922208526
 40
497.49021243478586
 50
83.682415811803978
 51
90.1228282103406
  0
ARC
  8
_0-1_レイヤ___3
  6
CONTINUOUS
 62
    7
 10
-6834.9576104027974
 20
10144.758611797955
 40
85.687131946339932
 50
144.22233369227075
 51
147.28839169837414
  0
ARC
  8
_0-1_レイヤ___3
  6
CONTINUOUS
 62
    7
 10
-6772.3665018165402
 20
10100.105046321711
 40
162.57352260626021
 50
139.79746805851795
 51
144.35142471935831
  0
ARC
  8
_0-1_レイヤ___3
  6
CONTINUOUS
 62
    7
 10
-6716.1446876625705
 20
10053.353651080004
 40
235.69226502681684
 50
128.64561282955955
 51
139.93931535075046
  0
ARC
  8
_0-1_レイヤ___3
  6
CONTINUOUS
 62
    7
 10
-6684.3717736842755
 20
10016.65063554152
 40
284.20673230090733
 50
110.99190648966825
 51
129.02750531113131
  0
ARC
  8
_0-1_レイヤ___3
  6
CONTINUOUS
 62
    7
 10
-6666.7549979676569
 20
9975.7474653034878
 40
328.71106488204566
 50
95.239897903240603
 51
111.30471079897622
  0
ARC
  8
_0-1_レイヤ___3
  6
CONTINUOUS
 62
    7
 10
-6657.2413299848804
 20
9909.5217699453515
 40
395.54368721071808
 50
89.900565237320635
 51
95.736139417888069
  0
ARC
  8
_0-1_レイヤ___3
  6
CONTINUOUS
 62
    7
 10
-6478.1521475972031
 20
10144.758611797977
 40
85.68713194632798
 50
32.711608301614113
 51
35.777666307717489
  0
ARC
  8
_0-1_レイヤ___3
  6
CONTINUOUS
 62
    7
 10
-6540.7432561834594
 20
10100.105046321711
 40
162.57352260626021
 50
35.648575280641708
 51
40.202531941482064
  0
ARC
  8
_0-1_レイヤ___3
  6
CONTINUOUS
 62
    7
 10
-6596.9650698374298
 20
10053.353656136811
 40
235.69226138958246
 50
40.060683786625717
 51
51.354386307816618
  0
ARC
  8
_0-1_レイヤ___3
  6
CONTINUOUS
 62
    7
 10
-6628.7379833157238
 20
10016.650635541526
 40
284.20673230090097
 50
50.972494688867947
 51
69.008093510331008
  0
ARC
  8
_0-1_レイヤ___3
  6
CONTINUOUS
 62
    7
 10
-6646.3547595323425
 20
9975.7474617603402
 40
328.71106836472558
 50
68.695289344213663
 51
84.760102239949276
  0
ARC
  8
_0-1_レイヤ___3
  6
CONTINUOUS
 62
    7
 10
-6655.8684275151199
 20
9909.5217797552341
 40
395.54367739998446
 50
84.263860512151453
 51
90.099434692718887
  0
ARC
  8
_0-1_レイヤ___3
  6
CONTINUOUS
 62
    7
 10
-6333.9576174028389
 20
10237.371115202044
 40
85.687131946304817
 50
212.71160830164183
 51
215.77766630774522
  0
ARC
  8
_0-1_レイヤ___3
  6
CONTINUOUS
 62
    7
 10
-6271.3665088165408
 20
10282.024680678278
 40
162.57352260625143
 50
215.64857528063774
 51
220.20253194147807
  0
ARC
  8
_0-1_レイヤ___3
  6
CONTINUOUS
 62
    7
 10
-6215.1446951625703
 20
10328.77607086319
 40
235.69226138958246
 50
220.0606837866257
 51
231.35438630781661
  0
ARC
  8
_0-1_レイヤ___3
  6
CONTINUOUS
 62
    7
 10
-6183.3717816842764
 20
10365.479091458477
 40
284.20673230090415
 50
230.9724946888683
 51
249.00809351033138
  0
ARC
  8
_0-1_レイヤ___3
  6
CONTINUOUS
 62
    7
 10
-6165.7550054676576
 20
10406.382265239659
 40
328.71106836472171
 50
248.69528934421351
 51
264.76010223994911
  0
ARC
  8
_0-1_レイヤ___3
  6
CONTINUOUS
 62
    7
 10
-6156.2413374848802
 20
10472.607947244769
 40
395.54367739998446
 50
264.26386051215144
 51
270.09943469271889
  0
ARC
  8
_0-1_レイヤ___3
  6
CONTINUOUS
 62
    7
 10
-5977.1521550971602
 20
10237.371096519395
 40
85.687121429300191
 50
324.22234402269203
 51
327.28840202879542
  0
ARC
  8
_0-1_レイヤ___3
  6
CONTINUOUS
 62
    7
 10
-6039.743263183459
 20
10282.024680678278
 40
162.57352260625143
 50
319.79746805852193
 51
324.35142471936229
  0
ARC
  8
_0-1_レイヤ___3
  6
CONTINUOUS
 62
    7
 10
-6095.9650773374287
 20
10328.776075920003
 40
235.69226502682088
 50
308.64561282955856
 51
319.9393153507495
  0
ARC
  8
_0-1_レイヤ___3
  6
CONTINUOUS
 62
    7
 10
-6127.7379913157238
 20
10365.479091458477
 40
284.20673230090415
 50
290.99190648966862
 51
309.02750531113168
  0
ARC
  8
_0-1_レイヤ___3
  6
CONTINUOUS
 62
    7
 10
-6145.3547670323424
 20
10406.382261696517
 40
328.71106488204964
 50
275.23989790324043
 51
291.30471079897609
  0
ARC
  8
_0-1_レイヤ___3
  6
CONTINUOUS
 62
    7
 10
-6154.8684350151198
 20
10472.60795705465
 40
395.54368721071808
 50
269.90056523732062
 51
275.73613941788807
  0
ARC
  8
_0-1_レイヤ___3
  6
CONTINUOUS
 62
    7
 10
-4562.8576439027975
 20
10144.758630480626
 40
85.687121429323383
 50
144.22234402271977
 51
147.28840202882316
  0
ARC
  8
_0-1_レイヤ___3
  6
CONTINUOUS
 62
    7
 10
-4500.2665358165405
 20
10100.105046321711
 40
162.57352260626021
 50
139.79746805851795
 51
144.35142471935831
  0
ARC
  8
_0-1_レイヤ___3
  6
CONTINUOUS
 62
    7
 10
-4444.0447216625707
 20
10053.353651079999
 40
235.69226502682088
 50
128.64561282955856
 51
139.93931535074947
  0
ARC
  8
_0-1_レイヤ___3
  6
CONTINUOUS
 62
    7
 10
-4412.2718076842757
 20
10016.650635541522
 40
284.20673230090415
 50
110.99190648966862
 51
129.0275053111317
  0
ARC
  8
_0-1_レイヤ___3
  6
CONTINUOUS
 62
    7
 10
-4394.6550319676571
 20
9975.747465303486
 40
328.71106488204964
 50
95.239897903240447
 51
111.30471079897607
  0
ARC
  8
_0-1_レイヤ___3
  6
CONTINUOUS
 62
    7
 10
-4385.1413639848806
 20
9909.5217699453642
 40
395.54368721070705
 50
89.90056523732072
 51
95.73613941788814
  0
ARC
  8
_0-1_レイヤ___3
  6
CONTINUOUS
 62
    7
 10
-4206.1892611875182
 20
10144.733370282671
 40
85.731971558135825
 50
32.712410299046745
 51
35.776864310284864
  0
ARC
  8
_0-1_レイヤ___3
  6
CONTINUOUS
 62
    7
 10
-4268.8078522340775
 20
10100.054739876003
 40
162.65530541513274
 50
35.649720744070684
 51
40.201386478045109
  0
ARC
  8
_0-1_レイヤ___3
  6
CONTINUOUS
 62
    7
 10
-4325.0235368896301
 20
10053.33922448892
 40
235.74627358302268
 50
40.05422816298821
 51
51.343586766425858
  0
ARC
  8
_0-1_レイヤ___3
  6
CONTINUOUS
 62
    7
 10
-4357.5478157618109
 20
10015.621078401622
 40
285.52275923749096
 50
50.974792361685537
 51
70.765150450440316
  0
ARC
  8
_0-1_レイヤ___3
  6
CONTINUOUS
 62
    7
 10
-4375.8269770371544
 20
9970.1725065434257
 40
334.4639357459223
 50
70.373519651520297
 51
85.910519893971738
  0
ARC
  8
_0-1_レイヤ___3
  6
CONTINUOUS
 62
    7
 10
-4383.9992004674614
 20
9903.8985793447791
 40
401.16654099226736
 50
85.421325868018101
 51
90.065086140256781
  0
ARC
  8
_0-1_レイヤ___3
  6
CONTINUOUS
 62
    7
 10
-4061.8622254001116
 20
10237.436075383321
 40
85.802528749285102
 50
212.71367058105758
 51
215.7756040283295
  0
ARC
  8
_0-1_レイヤ___3
  6
CONTINUOUS
 62
    7
 10
-3999.1870760191214
 20
10282.286544738772
 40
162.87201205520844
 50
215.68663731110288
 51
220.23440846731762
  0
ARC
  8
_0-1_レイヤ___3
  6
CONTINUOUS
 62
    7
 10
-3942.9175568337532
 20
10329.089688295313
 40
236.06034213028335
 50
220.0850184249372
 51
231.36454602664637
  0
ARC
  8
_0-1_レイヤ___3
  6
CONTINUOUS
 62
    7
 10
-3910.3895361090076
 20
10366.825234270487
 40
285.8521394627619
 50
230.99411895665307
 51
250.76855345956992
  0
ARC
  8
_0-1_レイヤ___3
  6
CONTINUOUS
 62
    7
 10
-3892.1624755039556
 20
10412.175246068236
 40
334.68285969358692
 50
250.37954526170159
 51
265.90970154733179
  0
ARC
  8
_0-1_レイヤ___3
  6
CONTINUOUS
 62
    7
 10
-3884.0090733106636
 20
10478.2707129091
 40
401.2061044525978
 50
265.42155495706544
 51
270.06485705120957
  0
ARC
  8
_0-1_レイヤ___3
  6
CONTINUOUS
 62
    7
 10
-3705.1521885971601
 20
10237.371115202024
 40
85.687131946292851
 50
324.22233369226649
 51
327.28839169836988
  0
ARC
  8
_0-1_レイヤ___3
  6
CONTINUOUS
 62
    7
 10
-3767.7432971834596
 20
10282.024680678292
 40
162.57352260626021
 50
319.79746805851795
 51
324.35142471935831
  0
ARC
  8
_0-1_レイヤ___3
  6
CONTINUOUS
 62
    7
 10
-3823.9651113374293
 20
10328.776075920003
 40
235.69226502682088
 50
308.64561282955856
 51
319.9393153507495
  0
ARC
  8
_0-1_レイヤ___3
  6
CONTINUOUS
 62
    7
 10
-3855.7380253157235
 20
10365.479091458477
 40
284.20673230090415
 50
290.99190648966862
 51
309.02750531113168
  0
ARC
  8
_0-1_レイヤ___3
  6
CONTINUOUS
 62
    7
 10
-3873.354801032342
 20
10406.382261696512
 40
328.71106488204566
 50
275.2398979032406
 51
291.3047107989762
  0
ARC
  8
_0-1_レイヤ___3
  6
CONTINUOUS
 62
    7
 10
-3882.8684690151194
 20
10472.60795705465
 40
395.54368721071808
 50
269.90056523732062
 51
275.73613941788807
  0
ARC
  8
_0-1_レイヤ___3
  6
CONTINUOUS
 62
    7
 10
-2290.8576774027965
 20
10144.758611797966
 40
85.687131946333949
 50
144.22233369227664
 51
147.28839169838002
  0
ARC
  8
_0-1_レイヤ___3
  6
CONTINUOUS
 62
    7
 10
-2228.2665688165407
 20
10100.105046321725
 40
162.57352260625143
 50
139.79746805852193
 51
144.35142471936226
  0
ARC
  8
_0-1_レイヤ___3
  6
CONTINUOUS
 62
    7
 10
-2172.0447551625703
 20
10053.353656136807
 40
235.69226138958453
 50
128.64561369218288
 51
139.93931621337379
  0
ARC
  8
_0-1_レイヤ___3
  6
CONTINUOUS
 62
    7
 10
-2140.2718416842758
 20
10016.650635541526
 40
284.20673230090256
 50
110.99190648966881
 51
129.02750531113188
  0
ARC
  8
_0-1_レイヤ___3
  6
CONTINUOUS
 62
    7
 10
-2122.6550654676571
 20
9975.747461760342
 40
328.71106836472364
 50
95.239897760050809
 51
111.30471065578642
  0
ARC
  8
_0-1_レイヤ___3
  6
CONTINUOUS
 62
    7
 10
-2113.1413974848801
 20
9909.5217797552341
 40
395.54367739998446
 50
89.900565307281127
 51
95.736139487848547
  0
ARC
  8
_0-1_レイヤ___3
  6
CONTINUOUS
 62
    7
 10
-1934.0522155972035
 20
10144.758611797955
 40
85.687131946339932
 50
32.711608301625859
 51
35.777666307729241
  0
ARC
  8
_0-1_レイヤ___3
  6
CONTINUOUS
 62
    7
 10
-1996.6433241834598
 20
10100.105046321725
 40
162.57352260625143
 50
35.648575280637729
 51
40.202531941478085
  0
ARC
  8
_0-1_レイヤ___3
  6
CONTINUOUS
 62
    7
 10
-2052.8651378374298
 20
10053.353656136811
 40
235.69226138958246
 50
40.060683786625717
 51
51.354386307816618
  0
ARC
  8
_0-1_レイヤ___3
  6
CONTINUOUS
 62
    7
 10
-2084.6380513157237
 20
10016.650635541526
 40
284.20673230090256
 50
50.972494688868125
 51
69.008093510331193
  0
ARC
  8
_0-1_レイヤ___3
  6
CONTINUOUS
 62
    7
 10
-2102.2548275323425
 20
9975.747461760342
 40
328.71106836472364
 50
68.695289344213577
 51
84.760102239949205
  0
ARC
  8
_0-1_レイヤ___3
  6
CONTINUOUS
 62
    7
 10
-2111.7684955151199
 20
9909.5217797552286
 40
395.54367739998997
 50
84.263860512151496
 51
90.09943469271893
  0
ARC
  8
_0-1_レイヤ___3
  6
CONTINUOUS
 62
    7
 10
-1789.8576854028386
 20
10237.371115202044
 40
85.687131946304817
 50
212.71160830164183
 51
215.77766630774522
  0
ARC
  8
_0-1_レイヤ___3
  6
CONTINUOUS
 62
    7
 10
-1727.2665768165405
 20
10282.024680678269
 40
162.57352260624702
 50
215.64857528063575
 51
220.20253194147608
  0
ARC
  8
_0-1_レイヤ___3
  6
CONTINUOUS
 62
    7
 10
-1671.0447626625705
 20
10328.776075920005
 40
235.69226502682301
 50
220.06068464925102
 51
231.35438717044192
  0
ARC
  8
_0-1_レイヤ___3
  6
CONTINUOUS
 62
    7
 10
-1639.2718491842761
 20
10365.479088307937
 40
284.20672953857877
 50
230.9724943672266
 51
249.00809318868966
  0
ARC
  8
_0-1_レイヤ___3
  6
CONTINUOUS
 62
    7
 10
-1621.6550734676571
 20
10406.382265239659
 40
328.71106836472364
 50
248.69528934421356
 51
264.76010223994922
  0
ARC
  8
_0-1_レイヤ___3
  6
CONTINUOUS
 62
    7
 10
-1612.1414054848799
 20
10472.607947244769
 40
395.54367739998446
 50
264.26386051215144
 51
270.09943469271889
  0
ARC
  8
_0-1_レイヤ___3
  6
CONTINUOUS
 62
    7
 10
-1433.0522225971606
 20
10237.371115202033
 40
85.68713194629882
 50
324.22233369226063
 51
327.28839169836402
  0
ARC
  8
_0-1_レイヤ___3
  6
CONTINUOUS
 62
    7
 10
-1495.6433311834594
 20
10282.024680678278
 40
162.57352260625143
 50
319.79746805852193
 51
324.35142471936229
  0
ARC
  8
_0-1_レイヤ___3
  6
CONTINUOUS
 62
    7
 10
-1551.8651453374298
 20
10328.77607592001
 40
235.69226502682505
 50
308.64561282955759
 51
319.93931535074847
  0
ARC
  8
_0-1_レイヤ___3
  6
CONTINUOUS
 62
    7
 10
-1583.6380588157244
 20
10365.479088307933
 40
284.20672953857724
 50
290.99190681131051
 51
309.02750563277357
  0
ARC
  8
_0-1_レイヤ___3
  6
CONTINUOUS
 62
    7
 10
-1601.2548345323426
 20
10406.382265239659
 40
328.71106836472171
 50
275.23989776005089
 51
291.30471065578649
  0
ARC
  8
_0-1_レイヤ___3
  6
CONTINUOUS
 62
    7
 10
-1610.7685030151197
 20
10472.60795705465
 40
395.54368721071808
 50
269.90056523732062
 51
275.73613941788807
  0
ARC
  8
_0-1_レイヤ___3
  6
CONTINUOUS
 62
    7
 10
-640.93049659558972
 20
10245.524901377827
 40
100.9705718426374
 50
212.64045269264682
 51
215.49730146255212
  0
ARC
  8
_0-1_レイヤ___3
  6
CONTINUOUS
 62
    7
 10
-552.66785194392128
 20
10307.947182752345
 40
209.0758271115559
 50
215.37936993240547
 51
221.38465549162268
  0
ARC
  8
_0-1_レイヤ___3
  6
CONTINUOUS
 62
    7
 10
-479.13235423571393
 20
10370.555274237853
 40
305.6439400285019
 50
221.07703081915608
 51
231.23007117872271
  0
ARC
  8
_0-1_レイヤ___3
  6
CONTINUOUS
 62
    7
 10
-442.10252755693944
 20
10414.013849938307
 40
362.7188131343749
 50
230.96826502924114
 51
251.34834199623455
  0
ARC
  8
_0-1_レイヤ___3
  6
CONTINUOUS
 62
    7
 10
-420.23152458832328
 20
10469.11676633332
 40
421.93378118613771
 50
250.92742234098728
 51
264.01237634896836
  0
ARC
  8
_0-1_レイヤ___3
  6
CONTINUOUS
 62
    7
 10
-409.52198446129643
 20
10543.581950562448
 40
497.11823018035136
 50
263.68004814851218
 51
270.12297957024816
  0
ARC
  8
_0-1_レイヤ___3
  6
CONTINUOUS
 62
    7
 10
-175.84591341847215
 20
10245.502223718271
 40
100.93010227783145
 50
324.50212566871295
 51
327.36012017608812
  0
ARC
  8
_0-1_レイヤ___3
  6
CONTINUOUS
 62
    7
 10
-264.07958312639153
 20
10307.897670728826
 40
208.9961945030376
 50
318.6141993796906
 51
324.62177519628352
  0
ARC
  8
_0-1_レイヤ___3
  6
CONTINUOUS
 62
    7
 10
-337.62051756901485
 20
10370.546918730302
 40
305.59542888809415
 50
308.76110525464964
 51
318.91711914959734
  0
ARC
  8
_0-1_レイヤ___3
  6
CONTINUOUS
 62
    7
 10
-374.71868033572463
 20
10414.072350149027
 40
362.76505364824902
 50
288.6444027766882
 51
309.02607137185748
  0
ARC
  8
_0-1_レイヤ___3
  6
CONTINUOUS
 62
    7
 10
-396.6608469280348
 20
10469.392110608376
 40
422.20787734973584
 50
275.98405353516426
 51
289.06580942457413
  0
ARC
  8
_0-1_レイヤ___3
  6
CONTINUOUS
 62
    7
 10
-407.38847434836458
 20
10543.953934779156
 40
497.49021243479353
 50
269.87717178965937
 51
276.31758418819595
  0
ARC
  8
_0-1_レイヤ___3
  6
CONTINUOUS
 62
    7
 10
-1276.0226190732164
 20
10136.86405511169
 40
100.7533113132661
 50
144.59559624777009
 51
147.4554239348
  0
ARC
  8
_0-1_レイヤ___3
  6
CONTINUOUS
 62
    7
 10
-1187.8515067695196
 20
10074.411363475117
 40
208.80176608438217
 50
138.63276352575733
 51
144.64423277713425
  0
ARC
  8
_0-1_レイヤ___3
  6
CONTINUOUS
 62
    7
 10
-1114.3625214196113
 20
10011.8442922704
 40
305.30820552446175
 50
128.77234981341056
 51
138.93522570002384
  0
ARC
  8
_0-1_レイヤ___3
  6
CONTINUOUS
 62
    7
 10
-1077.2630257264518
 20
9968.3715807244535
 40
362.43800051855146
 50
108.64653596687239
 51
129.04116488951158
  0
ARC
  8
_0-1_レイヤ___3
  6
CONTINUOUS
 62
    7
 10
-1055.2727247403093
 20
9912.976211014502
 40
421.96811857703125
 50
95.984238880830361
 51
109.07079194618402
  0
ARC
  8
_0-1_レイヤ___3
  6
CONTINUOUS
 62
    7
 10
-1044.5243282788269
 20
9838.2288048303435
 40
497.43720610568312
 50
89.876828286418601
 51
96.317927691436694
  0
ARC
  8
_0-1_レイヤ___3
  6
CONTINUOUS
 62
    7
 10
-810.8873059267836
 20
10136.864055111695
 40
100.75331131326293
 50
32.544576065197333
 51
35.404403752227225
  0
ARC
  8
_0-1_レイヤ___3
  6
CONTINUOUS
 62
    7
 10
-899.05841773048019
 20
10074.411372997445
 40
208.80176016648454
 50
35.355765171199238
 51
41.367234422576153
  0
ARC
  8
_0-1_レイヤ___3
  6
CONTINUOUS
 62
    7
 10
-972.5474030803889
 20
10011.84428664744
 40
305.30820959523527
 50
41.064775033949324
 51
51.22765092056261
  0
ARC
  8
_0-1_レイヤ___3
  6
CONTINUOUS
 62
    7
 10
-1009.6468992735483
 20
9968.3715807244535
 40
362.43800051855209
 50
50.958835110488486
 51
71.353464033127693
  0
ARC
  8
_0-1_レイヤ___3
  6
CONTINUOUS
 62
    7
 10
-1031.6372002596906
 20
9912.9762110145039
 40
421.96811857702994
 50
70.929208053815955
 51
84.015761119169611
  0
ARC
  8
_0-1_レイヤ___3
  6
CONTINUOUS
 62
    7
 10
-1042.385596721173
 20
9838.2288048303435
 40
497.43720610568312
 50
83.682072308563306
 51
90.123171713581399
  0
ARC
  8
_0-1_レイヤ___3
  6
CONTINUOUS
 62
    7
 10
-18.757711402796531
 20
10144.758611797961
 40
85.687131946336947
 50
144.22233369227371
 51
147.2883916983771
  0
ARC
  8
_0-1_レイヤ___3
  6
CONTINUOUS
 62
    7
 10
43.83339718345951
 20
10100.105046321722
 40
162.57352260625362
 50
139.79746805852093
 51
144.35142471936129
  0
ARC
  8
_0-1_レイヤ___3
  6
CONTINUOUS
 62
    7
 10
100.05521083742991
 20
10053.353656136809
 40
235.69226138958345
 50
128.64561369218313
 51
139.93931621337404
  0
ARC
  8
_0-1_レイヤ___3
  6
CONTINUOUS
 62
    7
 10
131.82812431572415
 20
10016.650635541526
 40
284.20673230090256
 50
110.99190648966881
 51
129.02750531113188
  0
ARC
  8
_0-1_レイヤ___3
  6
CONTINUOUS
 62
    7
 10
149.4449005323429
 20
9975.7474617603439
 40
328.71106836472256
 50
95.239897760050852
 51
111.30471065578647
  0
ARC
  8
_0-1_レイヤ___3
  6
CONTINUOUS
 62
    7
 10
158.95856851511979
 20
9909.5217797552305
 40
395.54367739998719
 50
89.900565307281099
 51
95.736139487848533
  0
ARC
  8
_0-1_レイヤ___3
  6
CONTINUOUS
 62
    7
 10
337.95232440006856
 20
10144.693651616688
 40
85.802528749315769
 50
32.713670581037185
 51
35.77560402830909
  0
ARC
  8
_0-1_レイヤ___3
  6
CONTINUOUS
 62
    7
 10
275.27717551912218
 20
10099.843194853276
 40
162.87200430350629
 50
35.686633815836018
 51
40.234404972050754
  0
ARC
  8
_0-1_レイヤ___3
  6
CONTINUOUS
 62
    7
 10
219.00765633375315
 20
10053.040033641475
 40
236.0603457731514
 50
40.085019287030654
 51
51.364546888739845
  0
ARC
  8
_0-1_レイヤ___3
  6
CONTINUOUS
 62
    7
 10
186.47963510900809
 20
10015.304492729518
 40
285.85213946276093
 50
50.994118956652962
 51
70.768553459569802
  0
ARC
  8
_0-1_レイヤ___3
  6
CONTINUOUS
 62
    7
 10
168.25257500395566
 20
9969.954484598471
 40
334.68285607188528
 50
70.379545131548312
 51
85.909701417178496
  0
ARC
  8
_0-1_レイヤ___3
  6
CONTINUOUS
 62
    7
 10
160.0991728106635
 20
9903.859001758221
 40
401.20611678583725
 50
85.421555026476128
 51
90.064857120620218
  0
ARC
  8
_0-1_レイヤ___3
  6
CONTINUOUS
 62
    7
 10
482.27936018747573
 20
10237.396356717345
 40
85.731971558109663
 50
212.71241029907154
 51
215.77686431030966
  0
ARC
  8
_0-1_レイヤ___3
  6
CONTINUOUS
 62
    7
 10
544.89795123407805
 20
10282.074987124
 40
162.65530541513496
 50
215.64972074407166
 51
220.20138647804609
  0
ARC
  8
_0-1_レイヤ___3
  6
CONTINUOUS
 62
    7
 10
601.11363638963041
 20
10328.790507569851
 40
235.74627722112217
 50
220.05422902587941
 51
231.34358762931706
  0
ARC
  8
_0-1_レイヤ___3
  6
CONTINUOUS
 62
    7
 10
633.63791526181126
 20
10366.508645732083
 40
285.52275669592325
 50
230.9747920774642
 51
250.76515016621897
  0
ARC
  8
_0-1_レイヤ___3
  6
CONTINUOUS
 62
    7
 10
651.91707603715417
 20
10411.957220456574
 40
334.46393574591974
 50
250.37351965152021
 51
265.91051989397164
  0
ARC
  8
_0-1_レイヤ___3
  6
CONTINUOUS
 62
    7
 10
660.08929996746156
 20
10478.231159986703
 40
401.16655332430651
 50
265.42132593742883
 51
270.06508620966753
  0
ARC
  8
_0-1_レイヤ___3
  6
CONTINUOUS
 62
    7
 10
838.94774340283914
 20
10237.371115202037
 40
85.687131946301065
 50
324.22233369225842
 51
327.28839169836181
  0
ARC
  8
_0-1_レイヤ___3
  6
CONTINUOUS
 62
    7
 10
776.3566348165408
 20
10282.024680678278
 40
162.57352260625197
 50
319.79746805852164
 51
324.351424719362
  0
ARC
  8
_0-1_レイヤ___3
  6
CONTINUOUS
 62
    7
 10
720.13482116257035
 20
10328.77607086319
 40
235.69226138958373
 50
308.64561369218308
 51
319.93931621337396
  0
ARC
  8
_0-1_レイヤ___3
  6
CONTINUOUS
 62
    7
 10
688.36190768427605
 20
10365.479091458476
 40
284.20673230090233
 50
290.99190648966885
 51
309.0275053111319
  0
ARC
  8
_0-1_レイヤ___3
  6
CONTINUOUS
 62
    7
 10
670.7451314676573
 20
10406.382265239659
 40
328.71106836472325
 50
275.23989776005084
 51
291.30471065578644
  0
ARC
  8
_0-1_レイヤ___3
  6
CONTINUOUS
 62
    7
 10
661.23146348488046
 20
10472.607947244771
 40
395.54367739998719
 50
269.90056530728111
 51
275.7361394878485
  0
ARC
  8
_0-1_レイヤ___3
  6
CONTINUOUS
 62
    7
 10
1631.0773369267383
 20
10245.265671888308
 40
100.75331131322702
 50
212.54457606521339
 51
215.4044037522433
  0
ARC
  8
_0-1_レイヤ___3
  6
CONTINUOUS
 62
    7
 10
1719.2484492304802
 20
10307.718363524884
 40
208.80176608438285
 50
215.35576722286598
 51
221.3672364742429
  0
ARC
  8
_0-1_レイヤ___3
  6
CONTINUOUS
 62
    7
 10
1792.7374350803889
 20
10370.285440352563
 40
305.30820959523629
 50
221.06477503394947
 51
231.22765092056275
  0
ARC
  8
_0-1_レイヤ___3
  6
CONTINUOUS
 62
    7
 10
1829.8369312735485
 20
10413.75814627555
 40
362.43800051855175
 50
230.95883511048842
 51
251.35346403312764
  0
ARC
  8
_0-1_レイヤ___3
  6
CONTINUOUS
 62
    7
 10
1851.8272322596908
 20
10469.153515985499
 40
421.96811857703062
 50
250.92920805381596
 51
264.01576111916961
  0
ARC
  8
_0-1_レイヤ___3
  6
CONTINUOUS
 62
    7
 10
1862.5756287211732
 20
10543.90092216966
 40
497.43720610568437
 50
263.68207230856331
 51
270.12317171358143
  0
ARC
  8
_0-1_レイヤ___3
  6
CONTINUOUS
 62
    7
 10
2096.2126510732619
 20
10245.26567188831
 40
100.75331131322829
 50
324.59559624775562
 51
327.45542393478553
  0
ARC
  8
_0-1_レイヤ___3
  6
CONTINUOUS
 62
    7
 10
2008.0415387695198
 20
10307.718363524888
 40
208.8017660843839
 50
318.63276352575673
 51
324.64423277713365
  0
ARC
  8
_0-1_レイヤ___3
  6
CONTINUOUS
 62
    7
 10
1934.5525534196111
 20
10370.285434729602
 40
305.30820552446175
 50
308.77234981341053
 51
318.93522570002381
  0
ARC
  8
_0-1_レイヤ___3
  6
CONTINUOUS
 62
    7
 10
1897.4530572264518
 20
10413.758149055178
 40
362.43800299241167
 50
288.64653575148515
 51
309.04116467412439
  0
ARC
  8
_0-1_レイヤ___3
  6
CONTINUOUS
 62
    7
 10
1875.4627562403095
 20
10469.153511626333
 40
421.96811429374577
 50
275.9842390100597
 51
289.07079207541335
  0
ARC
  8
_0-1_レイヤ___3
  6
CONTINUOUS
 62
    7
 10
1864.7143602788269
 20
10543.900922169654
 40
497.43720610568181
 50
269.87682828641857
 51
276.31792769143669
  0
ARC
  8
_0-1_レイヤ___3
  6
CONTINUOUS
 62
    7
 10
996.0359454185176
 20
10136.627503281727
 40
100.93010227787077
 50
144.50212566872608
 51
147.3601201761013
  0
ARC
  8
_0-1_レイヤ___3
  6
CONTINUOUS
 62
    7
 10
1084.269615126392
 20
10074.232056271174
 40
208.99619450303848
 50
138.61419937969035
 51
144.62177519628324
  0
ARC
  8
_0-1_レイヤ___3
  6
CONTINUOUS
 62
    7
 10
1157.8105495690149
 20
10011.582808269703
 40
305.59542888809329
 50
128.76110525464975
 51
138.91711914959751
  0
ARC
  8
_0-1_レイヤ___3
  6
CONTINUOUS
 62
    7
 10
1194.9087118357247
 20
9968.0573796324115
 40
362.76505117262718
 50
108.64440299195788
 51
129.02607158712718
  0
ARC
  8
_0-1_レイヤ___3
  6
CONTINUOUS
 62
    7
 10
1216.8508784280348
 20
9912.7376120308472
 40
422.20788163462692
 50
95.984053405987382
 51
109.06580929539723
  0
ARC
  8
_0-1_レイヤ___3
  6
CONTINUOUS
 62
    7
 10
1227.5785063483647
 20
9838.1757922208417
 40
497.49021243479706
 50
89.877171789659343
 51
96.317584188195951
  0
ARC
  8
_0-1_レイヤ___3
  6
CONTINUOUS
 62
    7
 10
1461.1205275955444
 20
10136.604825622167
 40
100.97057184267894
 50
32.640452692635513
 51
35.497301462540811
  0
ARC
  8
_0-1_レイヤ___3
  6
CONTINUOUS
 62
    7
 10
1372.8578834439213
 20
10074.182553779814
 40
209.07582118488511
 50
35.379367881899604
 51
41.384653441116832
  0
ARC
  8
_0-1_レイヤ___3
  6
CONTINUOUS
 62
    7
 10
1299.3223857357139
 20
10011.574447133708
 40
305.64394410371193
 50
41.077031552933882
 51
51.230071912500513
  0
ARC
  8
_0-1_レイヤ___3
  6
CONTINUOUS
 62
    7
 10
1262.2925590569398
 20
9968.1158798433516
 40
362.71881065871497
 50
50.968264813883259
 51
71.34834178087668
  0
ARC
  8
_0-1_レイヤ___3
  6
CONTINUOUS
 62
    7
 10
1240.4215560883235
 20
9913.0129563069768
 40
421.93378546990107
 50
70.92742247026915
 51
84.012376478250204
  0
ARC
  8
_0-1_レイヤ___3
  6
CONTINUOUS
 62
    7
 10
1229.7120159612969
 20
9838.5477853209923
 40
497.11822129585903
 50
83.680048093082036
 51
90.122979514817999
  0
ARC
  8
_0-1_レイヤ___3
  6
CONTINUOUS
 62
    7
 10
2253.2422545972036
 20
10144.758611797966
 40
85.687131946333949
 50
144.22233369227664
 51
147.28839169838002
  0
ARC
  8
_0-1_レイヤ___3
  6
CONTINUOUS
 62
    7
 10
2315.8333631834594
 20
10100.105046321722
 40
162.57352260625362
 50
139.79746805852093
 51
144.35142471936129
  0
ARC
  8
_0-1_レイヤ___3
  6
CONTINUOUS
 62
    7
 10
2372.0551768374298
 20
10053.353656136809
 40
235.69226138958345
 50
128.64561369218313
 51
139.93931621337404
  0
ARC
  8
_0-1_レイヤ___3
  6
CONTINUOUS
 62
    7
 10
2403.8280903157242
 20
10016.650635541526
 40
284.20673230090256
 50
110.99190648966881
 51
129.02750531113188
  0
ARC
  8
_0-1_レイヤ___3
  6
CONTINUOUS
 62
    7
 10
2421.444866532343
 20
9975.747461760342
 40
328.71106836472364
 50
95.239897760050809
 51
111.30471065578642
  0
ARC
  8
_0-1_レイヤ___3
  6
CONTINUOUS
 62
    7
 10
2430.9585345151199
 20
9909.5217797552323
 40
395.54367739998577
 50
89.900565307281113
 51
95.736139487848533
  0
ARC
  8
_0-1_レイヤ___3
  6
CONTINUOUS
 62
    7
 10
2610.0477174027969
 20
10144.758611797966
 40
85.687131946333949
 50
32.711608301619982
 51
35.777666307723365
  0
ARC
  8
_0-1_レイヤ___3
  6
CONTINUOUS
 62
    7
 10
2547.4566088165411
 20
10100.105046321722
 40
162.57352260625362
 50
35.648575280638724
 51
40.202531941479087
  0
ARC
  8
_0-1_レイヤ___3
  6
CONTINUOUS
 62
    7
 10
2491.2347946625705
 20
10053.353651079997
 40
235.69226502682244
 50
40.060684649250895
 51
51.354387170441797
  0
ARC
  8
_0-1_レイヤ___3
  6
CONTINUOUS
 62
    7
 10
2459.4618806842759
 20
10016.650635541524
 40
284.20673230090301
 50
50.972494688868174
 51
69.00809351033125
  0
ARC
  8
_0-1_レイヤ___3
  6
CONTINUOUS
 62
    7
 10
2441.8451049676569
 20
9975.7474653034842
 40
328.71106488205066
 50
68.695289201023982
 51
84.760102096759596
  0
ARC
  8
_0-1_レイヤ___3
  6
CONTINUOUS
 62
    7
 10
2432.3314369848804
 20
9909.5217699453588
 40
395.5436872107112
 50
84.263860582111889
 51
90.099434762679323
  0
ARC
  8
_0-1_レイヤ___3
  6
CONTINUOUS
 62
    7
 10
2754.242247097161
 20
10237.371096519384
 40
85.687121429294223
 50
212.7115979711987
 51
215.77765597730209
  0
ARC
  8
_0-1_レイヤ___3
  6
CONTINUOUS
 62
    7
 10
2816.8333551834594
 20
10282.024680678278
 40
162.57352260625251
 50
215.64857528063823
 51
220.20253194147855
  0
ARC
  8
_0-1_レイヤ___3
  6
CONTINUOUS
 62
    7
 10
2873.05516933743
 20
10328.776075920005
 40
235.69226502682244
 50
220.06068464925087
 51
231.35438717044178
  0
ARC
  8
_0-1_レイヤ___3
  6
CONTINUOUS
 62
    7
 10
2904.8280833157241
 20
10365.479091458477
 40
284.20673230090335
 50
230.97249468886821
 51
249.00809351033129
  0
ARC
  8
_0-1_レイヤ___3
  6
CONTINUOUS
 62
    7
 10
2922.4448590323432
 20
10406.382261696517
 40
328.71106488204964
 50
248.69528920102391
 51
264.76010209675957
  0
ARC
  8
_0-1_レイヤ___3
  6
CONTINUOUS
 62
    7
 10
2931.9585270151197
 20
10472.607957054643
 40
395.54368721071256
 50
264.26386058211187
 51
270.09943476267932
  0
ARC
  8
_0-1_レイヤ___3
  6
CONTINUOUS
 62
    7
 10
3111.0477094028392
 20
10237.371115202039
 40
85.687131946301804
 50
324.22233369225773
 51
327.28839169836107
  0
ARC
  8
_0-1_レイヤ___3
  6
CONTINUOUS
 62
    7
 10
3048.4566008165402
 20
10282.024680678278
 40
162.57352260625143
 50
319.79746805852193
 51
324.35142471936229
  0
ARC
  8
_0-1_レイヤ___3
  6
CONTINUOUS
 62
    7
 10
2992.2347871625702
 20
10328.77607086319
 40
235.69226138958345
 50
308.64561369218313
 51
319.93931621337401
  0
ARC
  8
_0-1_レイヤ___3
  6
CONTINUOUS
 62
    7
 10
2960.4618736842758
 20
10365.479091458477
 40
284.20673230090335
 50
290.99190648966874
 51
309.02750531113179
  0
ARC
  8
_0-1_レイヤ___3
  6
CONTINUOUS
 62
    7
 10
2942.8450974676571
 20
10406.382265239659
 40
328.71106836472256
 50
275.23989776005084
 51
291.30471065578644
  0
ARC
  8
_0-1_レイヤ___3
  6
CONTINUOUS
 62
    7
 10
2933.3314294848797
 20
10472.607947244771
 40
395.54367739998719
 50
269.90056530728111
 51
275.7361394878485
  0
ARC
  8
_0-1_レイヤ___3
  6
CONTINUOUS
 62
    7
 10
3903.1359024184721
 20
10245.502223718282
 40
100.9301022778378
 50
212.6398798239172
 51
215.49787433129242
  0
ARC
  8
_0-1_レイヤ___3
  6
CONTINUOUS
 62
    7
 10
3991.3695716263919
 20
10307.897661200306
 40
208.99618857862353
 50
215.37822275321037
 51
221.38579856980323
  0
ARC
  8
_0-1_レイヤ___3
  6
CONTINUOUS
 62
    7
 10
4064.9105060690144
 20
10370.546924357084
 40
305.59543296261558
 50
221.08288158398486
 51
231.23889547893262
  0
ARC
  8
_0-1_レイヤ___3
  6
CONTINUOUS
 62
    7
 10
4102.0086688357251
 20
10414.07234736759
 40
362.76505117262622
 50
230.97392841287277
 51
251.35559700804205
  0
ARC
  8
_0-1_レイヤ___3
  6
CONTINUOUS
 62
    7
 10
4123.9508354280351
 20
10469.392114969156
 40
422.20788163462777
 50
250.93419070460283
 51
264.01594659401269
  0
ARC
  8
_0-1_レイヤ___3
  6
CONTINUOUS
 62
    7
 10
4134.6784633483649
 20
10543.953934779158
 40
497.49021243479604
 50
263.68241581180405
 51
270.12282821034069
  0
ARC
  8
_0-1_レイヤ___3
  6
CONTINUOUS
 62
    7
 10
4368.2204845955894
 20
10245.524901377848
 40
100.97057184265014
 50
324.50269853743714
 51
327.35954730734244
  0
ARC
  8
_0-1_レイヤ___3
  6
CONTINUOUS
 62
    7
 10
4279.9578399439215
 20
10307.947182752338
 40
209.07582711155086
 50
318.61534450837905
 51
324.62063006759627
  0
ARC
  8
_0-1_レイヤ___3
  6
CONTINUOUS
 62
    7
 10
4206.4223422357136
 20
10370.555274237853
 40
305.6439400285019
 50
308.76992882127729
 51
318.92296918084389
  0
ARC
  8
_0-1_レイヤ___3
  6
CONTINUOUS
 62
    7
 10
4169.3925160569397
 20
10414.01384715665
 40
362.71881065871611
 50
288.65165821912319
 51
309.03173518611663
  0
ARC
  8
_0-1_レイヤ___3
  6
CONTINUOUS
 62
    7
 10
4147.5215130883234
 20
10469.116770693026
 40
421.93378546990107
 50
275.98762352174981
 51
289.07257752973084
  0
ARC
  8
_0-1_レイヤ___3
  6
CONTINUOUS
 62
    7
 10
4136.8119729612963
 20
10543.581941679005
 40
497.11822129585721
 50
269.87702048518202
 51
276.31995190691799
  0
ARC
  8
_0-1_レイヤ___3
  6
CONTINUOUS
 62
    7
 10
3268.0773129267836
 20
10136.864055111695
 40
100.75331131326293
 50
144.59559624777279
 51
147.4554239348027
  0
ARC
  8
_0-1_レイヤ___3
  6
CONTINUOUS
 62
    7
 10
3356.2484252304803
 20
10074.411363475112
 40
208.80176608438552
 50
138.63276352575616
 51
144.64423277713306
  0
ARC
  8
_0-1_レイヤ___3
  6
CONTINUOUS
 62
    7
 10
3429.7374105803892
 20
10011.8442922704
 40
305.30820552446175
 50
128.77234981341056
 51
138.93522570002384
  0
ARC
  8
_0-1_レイヤ___3
  6
CONTINUOUS
 62
    7
 10
3466.8369067735489
 20
9968.371577944823
 40
362.43800299241201
 50
108.64653575148515
 51
129.04116467412436
  0
ARC
  8
_0-1_レイヤ___3
  6
CONTINUOUS
 62
    7
 10
3488.8272077596912
 20
9912.9762153736719
 40
421.96811429374492
 50
95.984239010059753
 51
109.07079207541342
  0
ARC
  8
_0-1_レイヤ___3
  6
CONTINUOUS
 62
    7
 10
3499.5756037211731
 20
9838.2288048303435
 40
497.43720610568312
 50
89.876828286418601
 51
96.317927691436694
  0
ARC
  8
_0-1_レイヤ___3
  6
CONTINUOUS
 62
    7
 10
3733.2126270732165
 20
10136.864055111695
 40
100.75331131326293
 50
32.544576065197333
 51
35.404403752227225
  0
ARC
  8
_0-1_レイヤ___3
  6
CONTINUOUS
 62
    7
 10
3645.0415147695194
 20
10074.411363475116
 40
208.8017660843839
 50
35.355767222866348
 51
41.367236474243263
  0
ARC
  8
_0-1_レイヤ___3
  6
CONTINUOUS
 62
    7
 10
3571.5525289196112
 20
10011.844286647438
 40
305.30820959523646
 50
41.064775033949537
 51
51.227650920562823
  0
ARC
  8
_0-1_レイヤ___3
  6
CONTINUOUS
 62
    7
 10
3534.4530327264515
 20
9968.3715807244535
 40
362.43800051855209
 50
50.958835110488486
 51
71.353464033127693
  0
ARC
  8
_0-1_レイヤ___3
  6
CONTINUOUS
 62
    7
 10
3512.4627317403092
 20
9912.9762110145057
 40
421.96811857702875
 50
70.929208053815913
 51
84.015761119169582
  0
ARC
  8
_0-1_レイヤ___3
  6
CONTINUOUS
 62
    7
 10
3501.7143352788275
 20
9838.2288048303417
 40
497.43720610568568
 50
83.682072308563335
 51
90.123171713581428
  0
ARC
  8
_0-1_レイヤ___3
  6
CONTINUOUS
 62
    7
 10
4525.3422205972038
 20
10144.758611797966
 40
85.687131946333949
 50
144.22233369227664
 51
147.28839169838002
  0
ARC
  8
_0-1_レイヤ___3
  6
CONTINUOUS
 62
    7
 10
4587.9333291834591
 20
10100.105046321731
 40
162.57352260624702
 50
139.79746805852392
 51
144.35142471936425
  0
ARC
  8
_0-1_レイヤ___3
  6
CONTINUOUS
 62
    7
 10
4644.1551428374296
 20
10053.353656136806
 40
235.69226138958658
 50
128.64561369218239
 51
139.9393162133733
  0
ARC
  8
_0-1_レイヤ___3
  6
CONTINUOUS
 62
    7
 10
4675.9280563157245
 20
10016.650635541526
 40
284.20673230090256
 50
110.99190648966881
 51
129.02750531113188
  0
ARC
  8
_0-1_レイヤ___3
  6
CONTINUOUS
 62
    7
 10
4693.5448325323432
 20
9975.7474617603439
 40
328.71106836472171
 50
95.23989776005088
 51
111.30471065578651
  0
ARC
  8
_0-1_レイヤ___3
  6
CONTINUOUS
 62
    7
 10
4703.0585005151197
 20
9909.5217797552341
 40
395.54367739998446
 50
89.900565307281127
 51
95.736139487848547
  0
ARC
  8
_0-1_レイヤ___3
  6
CONTINUOUS
 62
    7
 10
4882.0522574000679
 20
10144.69365161669
 40
85.802528749314291
 50
32.713670581035714
 51
35.775604028307619
  0
ARC
  8
_0-1_レイヤ___3
  6
CONTINUOUS
 62
    7
 10
4819.3771080191218
 20
10099.843182261238
 40
162.87201205520404
 50
35.686637311100895
 51
40.234408467315632
  0
ARC
  8
_0-1_レイヤ___3
  6
CONTINUOUS
 62
    7
 10
4763.1075883337526
 20
10053.040033641475
 40
236.0603457731514
 50
40.085019287030654
 51
51.364546888739845
  0
ARC
  8
_0-1_レイヤ___3
  6
CONTINUOUS
 62
    7
 10
4730.5795676090074
 20
10015.304495598168
 40
285.85213691888589
 50
50.994118672633938
 51
70.768553175550778
  0
ARC
  8
_0-1_レイヤ___3
  6
CONTINUOUS
 62
    7
 10
4712.3525075039561
 20
9969.9544809317631
 40
334.68285969358885
 50
70.379545261701679
 51
85.909701547331878
  0
ARC
  8
_0-1_レイヤ___3
  6
CONTINUOUS
 62
    7
 10
4704.1991048106629
 20
9903.8590017582137
 40
401.2061167858443
 50
85.42155502647617
 51
90.06485712062026
  0
ARC
  8
_0-1_レイヤ___3
  6
CONTINUOUS
 62
    7
 10
5026.3422135971605
 20
10237.371115202033
 40
85.68713194629882
 50
212.71160830163598
 51
215.77766630773934
  0
ARC
  8
_0-1_レイヤ___3
  6
CONTINUOUS
 62
    7
 10
5088.9333216834584
 20
10282.024668103368
 40
162.57351487113877
 50
215.6485717820467
 51
220.20252844288706
  0
ARC
  8
_0-1_レイヤ___3
  6
CONTINUOUS
 62
    7
 10
5145.1551353374289
 20
10328.776075920005
 40
235.69226502682301
 50
220.06068464925102
 51
231.35438717044192
  0
ARC
  8
_0-1_レイヤ___3
  6
CONTINUOUS
 62
    7
 10
5176.9280493157239
 20
10365.479091458476
 40
284.20673230090256
 50
230.97249468886812
 51
249.00809351033121
  0
ARC
  8
_0-1_レイヤ___3
  6
CONTINUOUS
 62
    7
 10
5194.5448255323436
 20
10406.382265239663
 40
328.71106836472558
 50
248.69528934421368
 51
264.76010223994928
  0
ARC
  8
_0-1_レイヤ___3
  6
CONTINUOUS
 62
    7
 10
5204.0584935151201
 20
10472.607947244769
 40
395.54367739998446
 50
264.26386051215144
 51
270.09943469271889
  0
ARC
  8
_0-1_レイヤ___3
  6
CONTINUOUS
 62
    7
 10
5383.010595812525
 20
10237.39635671735
 40
85.731971558112647
 50
324.22313568968741
 51
327.28758970092554
  0
ARC
  8
_0-1_レイヤ___3
  6
CONTINUOUS
 62
    7
 10
5320.3920047659221
 20
10282.074987124006
 40
162.65530541513715
 50
319.79861352195292
 51
324.35027925592732
  0
ARC
  8
_0-1_レイヤ___3
  6
CONTINUOUS
 62
    7
 10
5264.1763201103695
 20
10328.790502511083
 40
235.74627358302268
 50
308.65641323357414
 51
319.94577183701176
  0
ARC
  8
_0-1_レイヤ___3
  6
CONTINUOUS
 62
    7
 10
5231.6520412381888
 20
10366.508648598377
 40
285.52275923748948
 50
289.23484954955984
 51
309.02520763831461
  0
ARC
  8
_0-1_レイヤ___3
  6
CONTINUOUS
 62
    7
 10
5213.3728799628461
 20
10411.957220456572
 40
334.46393574591821
 50
274.08948010602842
 51
289.62648034847984
  0
ARC
  8
_0-1_レイヤ___3
  6
CONTINUOUS
 62
    7
 10
5205.2006565325382
 20
10478.231147655228
 40
401.16654099227435
 50
269.93491385974318
 51
274.57867413198187
  0
ARC
  8
_0-1_レイヤ___3
  6
CONTINUOUS
 62
    7
 10
6175.1772699267367
 20
10245.265671888299
 40
100.75331131322194
 50
212.54457606520913
 51
215.40440375223901
  0
ARC
  8
_0-1_レイヤ___3
  6
CONTINUOUS
 62
    7
 10
6263.3483817304796
 20
10307.718354002554
 40
208.80176016648289
 50
215.35576517119864
 51
221.36723442257554
  0
ARC
  8
_0-1_レイヤ___3
  6
CONTINUOUS
 62
    7
 10
6336.8373670803885
 20
10370.285440352563
 40
305.30820959523527
 50
221.06477503394933
 51
231.22765092056261
  0
ARC
  8
_0-1_レイヤ___3
  6
CONTINUOUS
 62
    7
 10
6373.9368632735477
 20
10413.758146275548
 40
362.43800051855146
 50
230.95883511048842
 51
251.35346403312761
  0
ARC
  8
_0-1_レイヤ___3
  6
CONTINUOUS
 62
    7
 10
6395.9271642596905
 20
10469.153515985501
 40
421.96811857703369
 50
250.92920805381607
 51
264.01576111916972
  0
ARC
  8
_0-1_レイヤ___3
  6
CONTINUOUS
 62
    7
 10
6406.6755607211735
 20
10543.900922169661
 40
497.43720610568812
 50
263.68207230856331
 51
270.12317171358143
  0
ARC
  8
_0-1_レイヤ___3
  6
CONTINUOUS
 62
    7
 10
6640.3125830732624
 20
10245.265671888299
 40
100.75331131322194
 50
324.59559624776097
 51
327.45542393479087
  0
ARC
  8
_0-1_レイヤ___3
  6
CONTINUOUS
 62
    7
 10
6552.1414712695196
 20
10307.718354002558
 40
208.80176016648622
 50
318.63276557742324
 51
324.64423482880017
  0
ARC
  8
_0-1_レイヤ___3
  6
CONTINUOUS
 62
    7
 10
6478.6524859196106
 20
10370.285440352563
 40
305.30820959523527
 50
308.77234907943739
 51
318.93522496605067
  0
ARC
  8
_0-1_レイヤ___3
  6
CONTINUOUS
 62
    7
 10
6441.5529897264514
 20
10413.758146275548
 40
362.43800051855146
 50
288.64653596687236
 51
309.04116488951161
  0
ARC
  8
_0-1_レイヤ___3
  6
CONTINUOUS
 62
    7
 10
6419.5626887403087
 20
10469.153515985501
 40
421.96811857703369
 50
275.98423888083028
 51
289.07079194618393
  0
ARC
  8
_0-1_レイヤ___3
  6
CONTINUOUS
 62
    7
 10
6408.8142922788284
 20
10543.900922169647
 40
497.43720610567294
 50
269.87682828641869
 51
276.31792769143675
  0
ARC
  8
_0-1_レイヤ___3
  6
CONTINUOUS
 62
    7
 10
5540.1358774185173
 20
10136.627503281741
 40
100.93010227786282
 50
144.50212566873279
 51
147.36012017610801
  0
ARC
  8
_0-1_レイヤ___3
  6
CONTINUOUS
 62
    7
 10
5628.3695471263927
 20
10074.232056271167
 40
208.99619450304266
 50
138.6141993796889
 51
144.62177519628176
  0
ARC
  8
_0-1_レイヤ___3
  6
CONTINUOUS
 62
    7
 10
5701.9104815690162
 20
10011.582808269701
 40
305.59542888809415
 50
128.76110525464961
 51
138.91711914959737
  0
ARC
  8
_0-1_レイヤ___3
  6
CONTINUOUS
 62
    7
 10
5739.008644335725
 20
9968.0573768509767
 40
362.76505364824754
 50
108.64440277668834
 51
129.02607137185763
  0
ARC
  8
_0-1_レイヤ___3
  6
CONTINUOUS
 62
    7
 10
5760.9508109280341
 20
9912.7376163916269
 40
422.2078773497347
 50
95.984053535164293
 51
109.06580942457414
  0
ARC
  8
_0-1_レイヤ___3
  6
CONTINUOUS
 62
    7
 10
5771.6784383483646
 20
9838.1757922208435
 40
497.49021243479604
 50
89.877171789659343
 51
96.317584188195951
  0
ARC
  8
_0-1_レイヤ___3
  6
CONTINUOUS
 62
    7
 10
6005.2204605955449
 20
10136.604825622162
 40
100.97057184268152
 50
32.640452692637687
 51
35.497301462542985
  0
ARC
  8
_0-1_レイヤ___3
  6
CONTINUOUS
 62
    7
 10
5916.9578159439207
 20
10074.182544247664
 40
209.07582711155086
 50
35.379369932403733
 51
41.384655491620954
  0
ARC
  8
_0-1_レイヤ___3
  6
CONTINUOUS
 62
    7
 10
5843.4223182357146
 20
10011.574452762146
 40
305.6439400285019
 50
41.077030819156093
 51
51.230071178722717
  0
ARC
  8
_0-1_レイヤ___3
  6
CONTINUOUS
 62
    7
 10
5806.3924915569396
 20
9968.115877061693
 40
362.71881313437632
 50
50.968265029241259
 51
71.34834199623468
  0
ARC
  8
_0-1_レイヤ___3
  6
CONTINUOUS
 62
    7
 10
5784.5214885883233
 20
9913.0129606666815
 40
421.93378118613651
 50
70.927422340987263
 51
84.012376348968317
  0
ARC
  8
_0-1_レイヤ___3
  6
CONTINUOUS
 62
    7
 10
5773.8119484612971
 20
9838.5477764375537
 40
497.11823018035136
 50
83.680048148512199
 51
90.122979570248162
  0
ARC
  8
_0-1_レイヤ___3
  6
CONTINUOUS
 62
    7
 10
6797.3421865972032
 20
10144.758611797955
 40
85.687131946339932
 50
144.22233369227075
 51
147.28839169837414
  0
ARC
  8
_0-1_レイヤ___3
  6
CONTINUOUS
 62
    7
 10
6859.9332951834594
 20
10100.105046321725
 40
162.57352260625143
 50
139.79746805852193
 51
144.35142471936226
  0
ARC
  8
_0-1_レイヤ___3
  6
CONTINUOUS
 62
    7
 10
6916.1551093374292
 20
10053.353651079999
 40
235.69226502682088
 50
128.64561282955856
 51
139.93931535074947
  0
ARC
  8
_0-1_レイヤ___3
  6
CONTINUOUS
 62
    7
 10
6947.9280228157231
 20
10016.650638692066
 40
284.20672953857724
 50
110.99190681131051
 51
129.0275056327736
  0
ARC
  8
_0-1_レイヤ___3
  6
CONTINUOUS
 62
    7
 10
6965.5447985323426
 20
9975.7474617603402
 40
328.71106836472558
 50
95.239897760050724
 51
111.30471065578634
  0
ARC
  8
_0-1_レイヤ___3
  6
CONTINUOUS
 62
    7
 10
6975.0584670151202
 20
9909.5217699453515
 40
395.54368721071808
 50
89.900565237320635
 51
95.736139417888069
  0
ARC
  8
_0-1_レイヤ___3
  6
CONTINUOUS
 62
    7
 10
7154.1476494027975
 20
10144.758611797955
 40
85.687131946339932
 50
32.711608301625859
 51
35.777666307729241
  0
ARC
  8
_0-1_レイヤ___3
  6
CONTINUOUS
 62
    7
 10
7091.5565408165412
 20
10100.105046321725
 40
162.57352260625143
 50
35.648575280637729
 51
40.202531941478085
  0
ARC
  8
_0-1_レイヤ___3
  6
CONTINUOUS
 62
    7
 10
7035.3347266625697
 20
10053.353651079993
 40
235.69226502682505
 50
40.060684649251506
 51
51.354387170442408
  0
ARC
  8
_0-1_レイヤ___3
  6
CONTINUOUS
 62
    7
 10
7003.5618131842766
 20
10016.650638692066
 40
284.20672953857724
 50
50.972494367226417
 51
69.008093188689486
  0
ARC
  8
_0-1_レイヤ___3
  6
CONTINUOUS
 62
    7
 10
6985.945037467658
 20
9975.7474617603439
 40
328.71106836472171
 50
68.695289344213506
 51
84.760102239949134
  0
ARC
  8
_0-1_レイヤ___3
  6
CONTINUOUS
 62
    7
 10
6976.4313694848806
 20
9909.5217797552341
 40
395.54367739998446
 50
84.263860512151453
 51
90.099434692718887
  0
LINE
  8
_0-1_レイヤ___3
  6
CONTINUOUS
 62
    7
 10
1856.1120338542912
 20
510.85533074373274
 11
1856.1120338542912
 21
771.85532674373326
  0
LINE
  8
_0-1_レイヤ___3
  6
CONTINUOUS
 62
    7
 10
1856.1120338542912
 20
771.85532674373326
 11
2366.9120258542916
 21
1064.4553227437327
  0
LINE
  8
_0-1_レイヤ___3
  6
CONTINUOUS
 62
    7
 10
1809.5120358542908
 20
1386.8553187437331
 11
2366.9120258542916
 21
1064.4553227437327
  0
LINE
  8
_0-1_レイヤ___3
  6
CONTINUOUS
 62
    7
 10
1538.1120398542919
 20
1556.6553147437326
 11
1873.1120338542917
 21
1363.4553187437327
  0
LINE
  8
_0-1_レイヤ___3
  6
CONTINUOUS
 62
    7
 10
1873.1120338542917
 20
1363.4553187437327
 11
1872.5120338542911
 21
1350.655318743733
  0
ARC
  8
_0-1_レイヤ___3
  6
CONTINUOUS
 62
    7
 10
1720.3823652401377
 20
1089.1344115511961
 40
25.88146410325966
 50
241.1953542018791
 51
259.1535102740512
  0
ARC
  8
_0-1_レイヤ___3
  6
CONTINUOUS
 62
    7
 10
1722.340893569738
 20
1097.4761628179201
 40
34.44455864447432
 50
258.5649774875896
 51
295.76268299038293
  0
ARC
  8
_0-1_レイヤ___3
  6
CONTINUOUS
 62
    7
 10
1729.8756109362607
 20
1079.2646574296568
 40
14.811464163192268
 50
300.13719293497218
 51
323.69638704520469
  0
ARC
  8
_0-1_レイヤ___3
  6
CONTINUOUS
 62
    7
 10
1735.0701169875283
 20
1075.0100595631036
 40
8.1139582544027995
 50
326.19169387607025
 51
41.01897388657445
  0
ARC
  8
_0-1_レイヤ___3
  6
CONTINUOUS
 62
    7
 10
1730.5999841600635
 20
1071.1357199957845
 40
14.029406609448642
 50
40.975566291832514
 51
61.417260566370686
  0
ARC
  8
_0-1_レイヤ___3
  6
CONTINUOUS
 62
    7
 10
1724.7985954146311
 20
1061.5992547277697
 40
25.184795031036739
 50
60.207201281699177
 51
78.23892806356902
  0
ARC
  8
_0-1_レイヤ___3
  6
CONTINUOUS
 62
    7
 10
1722.8552877201851
 20
1053.9231062840915
 40
33.097622049728372
 50
77.654020058255213
 51
116.83933364416288
  0
ARC
  8
_0-1_レイヤ___3
  6
CONTINUOUS
 62
    7
 10
1714.828820132464
 20
1070.9722285468522
 40
14.271283946407401
 50
118.99049177419455
 51
143.12847721705643
  0
ARC
  8
_0-1_レイヤ___3
  6
CONTINUOUS
 62
    7
 10
1710.0921906041128
 20
1075.0058801417949
 40
8.0709551953788665
 50
145.86098019634815
 51
221.33509992637636
  0
ARC
  8
_0-1_レイヤ___3
  6
CONTINUOUS
 62
    7
 10
1715.1284803004944
 20
1079.0985539397766
 40
14.557759632641186
 50
220.3383072597729
 51
240.28334161995696
  0
ARC
  8
_0-1_レイヤ___3
  6
CONTINUOUS
 62
    7
 10
1720.5500016633227
 20
1088.5440625199519
 40
24.90319738956369
 50
240.5659465962097
 51
258.7978670295671
  0
ARC
  8
_0-1_レイヤ___3
  6
CONTINUOUS
 62
    7
 10
1722.35763118664
 20
1096.0814464496466
 40
32.649609524512364
 50
258.25578648060269
 51
296.47298268283157
  0
ARC
  8
_0-1_レイヤ___3
  6
CONTINUOUS
 62
    7
 10
1729.9312515511751
 20
1079.1412216685965
 40
14.130628502603834
 50
299.60501450761319
 51
324.1996034079844
  0
ARC
  8
_0-1_レイヤ___3
  6
CONTINUOUS
 62
    7
 10
1734.7840471928748
 20
1075.1579903552815
 40
7.874436870050352
 50
327.05254337491624
 51
42.474740006533921
  0
ARC
  8
_0-1_レイヤ___3
  6
CONTINUOUS
 62
    7
 10
1729.9319375106973
 20
1071.07338921876
 40
14.213868252629512
 50
41.41146769853151
 51
60.588630888623364
  0
ARC
  8
_0-1_レイヤ___3
  6
CONTINUOUS
 62
    7
 10
1724.6740700452615
 20
1061.7665829675141
 40
24.903197389563058
 50
60.565946596213571
 51
78.797867029570995
  0
ARC
  8
_0-1_レイヤ___3
  6
CONTINUOUS
 62
    7
 10
1722.8664405219411
 20
1054.2291990378189
 40
32.64960952451225
 50
78.255786480601202
 51
116.47298268283006
  0
ARC
  8
_0-1_レイヤ___3
  6
CONTINUOUS
 62
    7
 10
1715.2928201574082
 20
1071.1694238188691
 40
14.130628502604727
 50
119.60501450761726
 51
144.19960340798846
  0
ARC
  8
_0-1_レイヤ___3
  6
CONTINUOUS
 62
    7
 10
1710.4400015377087
 20
1075.1526532173509
 40
7.8744186290430793
 50
147.05244075218704
 51
222.47484262926366
  0
ARC
  8
_0-1_レイヤ___3
  6
CONTINUOUS
 62
    7
 10
1715.2921341978849
 20
1079.237256268706
 40
14.213868252629512
 50
221.41146769853151
 51
240.58863088862336
  0
ARC
  8
_0-1_レイヤ___3
  6
CONTINUOUS
 62
    7
 10
1720.3562475376066
 20
1086.9582262665565
 40
22.886504166332475
 50
239.41735292509881
 51
258.70079285592942
  0
ARC
  8
_0-1_レイヤ___3
  6
CONTINUOUS
 62
    7
 10
1722.3382117168235
 20
1094.9155892391079
 40
31.080341588775852
 50
257.99206643294917
 51
297.13175604632914
  0
ARC
  8
_0-1_レイヤ___3
  6
CONTINUOUS
 62
    7
 10
1729.9871599948024
 20
1079.2736929618136
 40
13.675351098987441
 50
298.49791322905463
 51
323.58355683312254
  0
ARC
  8
_0-1_レイヤ___3
  6
CONTINUOUS
 62
    7
 10
1734.6339007659799
 20
1075.3593240101188
 40
7.6223033558753519
 50
326.52730770383812
 51
43.18116386660904
  0
ARC
  8
_0-1_レイヤ___3
  6
CONTINUOUS
 62
    7
 10
1730.0029477816083
 20
1071.347043539748
 40
13.746950673498304
 50
42.167204560246013
 51
61.738710376107555
  0
ARC
  8
_0-1_レイヤ___3
  6
CONTINUOUS
 62
    7
 10
1724.9719681579393
 20
1063.011855298739
 40
23.47570070542973
 50
60.555845237649997
 51
79.246807107928234
  0
ARC
  8
_0-1_レイヤ___3
  6
CONTINUOUS
 62
    7
 10
1722.8912125890395
 20
1054.3632586959391
 40
32.363517167270174
 50
78.484506283697854
 51
115.98413410698492
  0
ARC
  8
_0-1_レイヤ___3
  6
CONTINUOUS
 62
    7
 10
1715.23691171378
 20
1071.4369525256527
 40
13.675351098987441
 50
118.49791322905462
 51
143.58355683312251
  0
ARC
  8
_0-1_レイヤ___3
  6
CONTINUOUS
 62
    7
 10
1710.5901490880319
 20
1075.351319621333
 40
7.6222861495889527
 50
146.52720546041087
 51
223.18126611003632
  0
ARC
  8
_0-1_レイヤ___3
  6
CONTINUOUS
 62
    7
 10
1715.2211239269741
 20
1079.3636019477183
 40
13.746950673498304
 50
222.16720456024601
 51
241.73871037610755
  0
ARC
  8
_0-1_レイヤ___3
  6
CONTINUOUS
 62
    7
 10
1720.4082309119458
 20
1087.1089554159757
 40
22.495507260943029
 50
239.85743081770693
 51
258.8862023836993
  0
ARC
  8
_0-1_レイヤ___3
  6
CONTINUOUS
 62
    7
 10
1722.4256934383061
 20
1095.4410366748548
 40
31.062459728040153
 50
258.19715986688226
 51
296.55430346115634
  0
ARC
  8
_0-1_レイヤ___3
  6
CONTINUOUS
 62
    7
 10
1729.5733822720267
 20
1079.356752740815
 40
13.503070616655375
 50
299.93690490895722
 51
324.39487305843483
  0
ARC
  8
_0-1_レイヤ___3
  6
CONTINUOUS
 62
    7
 10
1734.2605655570674
 20
1075.5697746424764
 40
7.4955824841046335
 50
327.07229199300804
 51
43.562518059269287
  0
ARC
  8
_0-1_レイヤ___3
  6
CONTINUOUS
 62
    7
 10
1729.4137089120868
 20
1071.4230635287893
 40
13.869469219012343
 50
42.176868462517525
 51
60.173518651309948
  0
ARC
  8
_0-1_レイヤ___3
  6
CONTINUOUS
 62
    7
 10
1724.6748418868897
 20
1062.8655799008609
 40
23.650830720516296
 50
60.525137593893305
 51
79.43304464993183
  0
ARC
  8
_0-1_レイヤ___3
  6
CONTINUOUS
 62
    7
 10
1722.7120243679342
 20
1054.8172631351101
 40
31.925830920950617
 50
78.618972281850077
 51
107.91390579341615
  0
ARC
  8
_0-1_レイヤ___3
  6
CONTINUOUS
 62
    7
 10
1719.7593150979696
 20
1065.3008885247059
 40
21.046330727845564
 50
109.04395490653488
 51
120.39092691562804
  0
ARC
  8
_0-1_レイヤ___3
  6
CONTINUOUS
 62
    7
 10
1715.8320827745051
 20
1071.4300611364072
 40
13.77555615336462
 50
119.1976595489642
 51
143.54527614016786
  0
ARC
  8
_0-1_レイヤ___3
  6
CONTINUOUS
 62
    7
 10
1710.8829101966342
 20
1075.5373107763373
 40
7.3632738512037008
 50
146.36974060289825
 51
224.51092345911576
  0
ARC
  8
_0-1_レイヤ___3
  6
CONTINUOUS
 62
    7
 10
1715.9338118039545
 20
1079.9693596205045
 40
14.07736237048314
 50
222.96271852738798
 51
241.01426093256211
  0
ARC
  8
_0-1_レイヤ___3
  6
CONTINUOUS
 62
    7
 10
1721.4025479821521
 20
1088.979255704643
 40
24.165915129922098
 50
239.97931557902365
 51
267.55598309865968
  0
ARC
  8
_0-1_レイヤ___3
  6
CONTINUOUS
 62
    7
 10
1722.4776029448158
 20
1093.7823685242417
 40
29.023522739178119
 50
265.83971308861334
 51
297.57316036969792
  0
ARC
  8
_0-1_レイヤ___3
  6
CONTINUOUS
 62
    7
 10
1729.7541505369118
 20
1079.1285642908601
 40
12.6702892604317
 50
299.07865589886512
 51
325.62769296026795
  0
ARC
  8
_0-1_レイヤ___3
  6
CONTINUOUS
 62
    7
 10
1733.9132823506293
 20
1075.720100676456
 40
7.327868548582698
 50
329.26738101408887
 51
47.413856309188866
  0
ARC
  8
_0-1_レイヤ___3
  6
CONTINUOUS
 62
    7
 10
1728.5225480174131
 20
1071.0657996680263
 40
14.425838365060313
 50
44.15753384941079
 51
59.186866144977728
  0
ARC
  8
_0-1_レイヤ___3
  6
CONTINUOUS
 62
    7
 10
1724.5513624050027
 20
1062.9283009686119
 40
23.461106627302648
 50
61.037679472378962
 51
80.032992430821636
  0
ARC
  8
_0-1_レイヤ___3
  6
CONTINUOUS
 62
    7
 10
1722.6676324860277
 20
1054.8439569970972
 40
31.752751511404675
 50
79.21004614828243
 51
108.72905756733967
  0
ARC
  8
_0-1_レイヤ___3
  6
CONTINUOUS
 62
    7
 10
1719.7289037641212
 20
1065.0589511032738
 40
21.140899379750991
 50
110.07573930106717
 51
119.52052560579929
  0
ARC
  8
_0-1_レイヤ___3
  6
CONTINUOUS
 62
    7
 10
1715.9676508954431
 20
1072.0630097048834
 40
13.194014095458456
 50
120.29431900330081
 51
146.13443891914488
  0
ARC
  8
_0-1_レイヤ___3
  6
CONTINUOUS
 62
    7
 10
1711.3366964510908
 20
1075.697987051394
 40
7.3362058527725775
 50
149.55500627083521
 51
227.19851698469412
  0
ARC
  8
_0-1_レイヤ___3
  6
CONTINUOUS
 62
    7
 10
1716.1061236090559
 20
1080.0221810420114
 40
13.761007446786412
 50
224.86095006864906
 51
240.41460382341086
  0
ARC
  8
_0-1_レイヤ___3
  6
CONTINUOUS
 62
    7
 10
1720.7904578327039
 20
1088.6963149206942
 40
23.250066552815536
 50
241.54359807327035
 51
260.64725024150175
  0
ARC
  8
_0-1_レイヤ___3
  6
CONTINUOUS
 62
    7
 10
1722.3773456558695
 20
1095.7520302120533
 40
30.472758460744394
 50
259.85912347066937
 51
295.53297997336358
  0
ARC
  8
_0-1_レイヤ___3
  6
CONTINUOUS
 62
    7
 10
1729.3295799533025
 20
1079.3555167167565
 40
12.705788728229948
 50
299.11641961208431
 51
325.58992924705706
  0
ARC
  8
_0-1_レイヤ___3
  6
CONTINUOUS
 62
    7
 10
1733.6296065616152
 20
1075.8664030927141
 40
7.2004517984341039
 50
329.16163659945556
 51
47.738340637104919
  0
ARC
  8
_0-1_レイヤ___3
  6
CONTINUOUS
 62
    7
 10
1728.6988612459743
 20
1071.4634657346128
 40
13.79217106805906
 50
44.878630265300281
 51
60.396923626731891
  0
ARC
  8
_0-1_レイヤ___3
  6
CONTINUOUS
 62
    7
 10
1724.433613875879
 20
1063.0143305667705
 40
23.250066552817156
 50
61.543598073271703
 51
80.647250241503144
  0
ARC
  8
_0-1_レイヤ___3
  6
CONTINUOUS
 62
    7
 10
1722.8467260527134
 20
1055.9586152754141
 40
30.472758460743474
 50
79.859123470669616
 51
115.53297997336381
  0
ARC
  8
_0-1_レイヤ___3
  6
CONTINUOUS
 62
    7
 10
1715.8944917552817
 20
1072.3551287707082
 40
12.705788728231699
 50
119.11641961208466
 51
145.5899292470574
  0
ARC
  8
_0-1_レイヤ___3
  6
CONTINUOUS
 62
    7
 10
1711.5944651469677
 20
1075.8442423947511
 40
7.200451798434548
 50
149.16163659945502
 51
227.73834063710436
  0
ARC
  8
_0-1_レイヤ___3
  6
CONTINUOUS
 62
    7
 10
1716.5252104626047
 20
1080.2471797528553
 40
13.792171068058177
 50
224.87863026531949
 51
240.39692362675112
  0
ARC
  8
_0-1_レイヤ___3
  6
CONTINUOUS
 62
    7
 10
1720.5553057021916
 20
1086.924062728559
 40
21.043021307531845
 50
240.24568649906183
 51
260.08517901600572
  0
ARC
  8
_0-1_レイヤ___3
  6
CONTINUOUS
 62
    7
 10
1722.5106877460121
 20
1095.3738944251368
 40
29.707076636650484
 50
259.17623946768612
 51
289.7557999945713
  0
ARC
  8
_0-1_レイヤ___3
  6
CONTINUOUS
 62
    7
 10
1725.9216531299342
 20
1084.3664354649875
 40
18.201708643974229
 50
291.36282071875092
 51
300.32595439036328
  0
ARC
  8
_0-1_レイヤ___3
  6
CONTINUOUS
 62
    7
 10
1729.2765050509934
 20
1079.3461522005916
 40
12.179788759739283
 50
298.62767783421901
 51
325.31644796218097
  0
ARC
  8
_0-1_レイヤ___3
  6
CONTINUOUS
 62
    7
 10
1733.6370017117856
 20
1075.9529334754827
 40
6.6703898568453868
 50
327.97120334571866
 51
33.301983806205293
  0
ARC
  8
_0-1_レイヤ___3
  6
CONTINUOUS
 62
    7
 10
1730.0645917630454
 20
1073.4409489046923
 40
11.036241466491781
 50
34.018700562107256
 51
62.783649147061816
  0
ARC
  8
_0-1_レイヤ___3
  6
CONTINUOUS
 62
    7
 10
1724.5807942238764
 20
1065.7209553331004
 40
20.45387715738147
 50
59.010731116812913
 51
79.546096209189727
  0
ARC
  8
_0-1_レイヤ___3
  6
CONTINUOUS
 62
    7
 10
1722.6780339578427
 20
1057.9794199775531
 40
28.415987334811831
 50
78.605402575961392
 51
109.80091218148941
  0
ARC
  8
_0-1_レイヤ___3
  6
CONTINUOUS
 62
    7
 10
1719.7442848876763
 20
1067.5490130463684
 40
18.424667859982385
 50
111.2982168702554
 51
121.51964767618242
  0
ARC
  8
_0-1_レイヤ___3
  6
CONTINUOUS
 62
    7
 10
1715.94756665759
 20
1072.5644932868736
 40
12.179788759741019
 50
118.62767783421944
 51
145.31644796218143
  0
ARC
  8
_0-1_レイヤ___3
  6
CONTINUOUS
 62
    7
 10
1711.5870699967968
 20
1075.9577120119829
 40
6.6703898568448601
 50
147.97120334571869
 51
213.30198380620533
  0
ARC
  8
_0-1_レイヤ___3
  6
CONTINUOUS
 62
    7
 10
1715.1594799455374
 20
1078.4696965827752
 40
11.036241466492637
 50
214.01870056211121
 51
242.78364914706577
  0
ARC
  8
_0-1_レイヤ___3
  6
CONTINUOUS
 62
    7
 10
1720.8478184730279
 20
1087.4199352933467
 40
21.17219189141025
 50
240.15709636980898
 51
260.22176488901238
  0
ARC
  8
_0-1_レイヤ___3
  6
CONTINUOUS
 62
    7
 10
1722.3781604654539
 20
1093.9694984904806
 40
27.889320275021529
 50
259.40868100515928
 51
296.70614914235261
  0
ARC
  8
_0-1_レイヤ___3
  6
CONTINUOUS
 62
    7
 10
1728.9629659674233
 20
1079.2556038758878
 40
11.808351607816792
 50
300.25185156847306
 51
327.40986977570907
  0
ARC
  8
_0-1_レイヤ___3
  6
CONTINUOUS
 62
    7
 10
1733.1532993732849
 20
1076.2271585978649
 40
6.6531327971528684
 50
329.94758611903319
 51
35.761392396435767
  0
ARC
  8
_0-1_レイヤ___3
  6
CONTINUOUS
 62
    7
 10
1729.8335145339126
 20
1073.6883107672472
 40
10.83139404507898
 50
36.396439235388556
 51
62.038995732157836
  0
ARC
  8
_0-1_レイヤ___3
  6
CONTINUOUS
 62
    7
 10
1724.3762532355545
 20
1064.8907101941179
 40
21.172191891411781
 50
60.157096369810489
 51
80.221764889013869
  0
ARC
  8
_0-1_レイヤ___3
  6
CONTINUOUS
 62
    7
 10
1722.8459112431283
 20
1058.3411469969869
 40
27.889320275020644
 50
79.408681005159522
 51
116.70614914235286
  0
ARC
  8
_0-1_レイヤ___3
  6
CONTINUOUS
 62
    7
 10
1715.7796926823171
 20
1072.999631987685
 40
11.622154020350708
 50
118.06359180722529
 51
145.06318505783295
  0
ARC
  8
_0-1_レイヤ___3
  6
CONTINUOUS
 62
    7
 10
1711.7385120429576
 20
1076.2168165906687
 40
6.4749320871694795
 50
147.92364163007278
 51
214.65101625297132
  0
ARC
  8
_0-1_レイヤ___3
  6
CONTINUOUS
 62
    7
 10
1715.6080078507871
 20
1078.9158086018758
 40
11.19269854620849
 50
214.75426108716027
 51
241.76018279417877
  0
ARC
  8
_0-1_レイヤ___3
  6
CONTINUOUS
 62
    7
 10
1720.975264888064
 20
1087.6991842783209
 40
20.932566825234417
 50
240.63972502365743
 51
260.80968982687568
  0
ARC
  8
_0-1_レイヤ___3
  6
CONTINUOUS
 62
    7
 10
1722.3771605758554
 20
1094.0178412148007
 40
27.396578466384021
 50
260.02599450819747
 51
296.29123037737719
  0
ARC
  8
_0-1_レイヤ___3
  6
CONTINUOUS
 62
    7
 10
1728.9980603398335
 20
1079.4973178415003
 40
11.45624683382907
 50
298.7708203073438
 51
326.1462066130876
  0
ARC
  8
_0-1_レイヤ___3
  6
CONTINUOUS
 62
    7
 10
1733.1028451902039
 20
1076.3571591199341
 40
6.3062545722880081
 50
329.06489818007361
 51
36.806448712759263
  0
ARC
  8
_0-1_レイヤ___3
  6
CONTINUOUS
 62
    7
 10
1729.3473553903868
 20
1073.5465288691776
 40
10.997026997913684
 50
36.808558014700843
 51
61.988852695293176
  0
ARC
  8
_0-1_レイヤ___3
  6
CONTINUOUS
 62
    7
 10
1724.2488068205198
 20
1065.0114612091445
 40
20.932566825233877
 50
60.639725023661647
 51
80.809689826879875
  0
ARC
  8
_0-1_レイヤ___3
  6
CONTINUOUS
 62
    7
 10
1722.8469111327258
 20
1058.6928042726649
 40
27.396578466383893
 50
80.025994508195581
 51
116.29123037737533
  0
ARC
  8
_0-1_レイヤ___3
  6
CONTINUOUS
 62
    7
 10
1716.2260113687489
 20
1073.2133276459658
 40
11.45624683382907
 50
118.7708203073438
 51
146.14620661308763
  0
ARC
  8
_0-1_レイヤ___3
  6
CONTINUOUS
 62
    7
 10
1712.1212058352876
 20
1076.3534853068606
 40
6.3062373766309365
 50
149.06479331182865
 51
216.80655358100421
  0
ARC
  8
_0-1_レイヤ___3
  6
CONTINUOUS
 62
    7
 10
1715.8767163181956
 20
1079.1641166182885
 40
10.997026997913684
 50
216.80855801470085
 51
241.98885269529319
  0
ARC
  8
_0-1_レイヤ___3
  6
CONTINUOUS
 62
    7
 10
1721.1306364368829
 20
1087.1079772492542
 40
19.950600119304486
 50
239.85630416805333
 51
260.42486163897701
  0
ARC
  8
_0-1_レイヤ___3
  6
CONTINUOUS
 62
    7
 10
1722.3976579577429
 20
1092.6533226254414
 40
25.631532301240519
 50
259.69398522476706
 51
297.19562096205607
  0
ARC
  8
_0-1_レイヤ___3
  6
CONTINUOUS
 62
    7
 10
1728.9568225574192
 20
1079.4708734842661
 40
10.910318060441975
 50
298.19722413763367
 51
325.90760370982872
  0
ARC
  8
_0-1_レイヤ___3
  6
CONTINUOUS
 62
    7
 10
1732.7105539536233
 20
1076.5067108193066
 40
6.150227464895174
 50
329.17604982013063
 51
40.430921698017748
  0
ARC
  8
_0-1_レイヤ___3
  6
CONTINUOUS
 62
    7
 10
1728.545700365873
 20
1073.3112718734415
 40
11.395974661281979
 50
39.079824203778891
 51
60.761407868930966
  0
ARC
  8
_0-1_レイヤ___3
  6
CONTINUOUS
 62
    7
 10
1724.0934352717011
 20
1066.0026682382133
 40
19.95060011930245
 50
59.856304168056077
 51
80.424861638979777
  0
ARC
  8
_0-1_レイヤ___3
  6
CONTINUOUS
 62
    7
 10
1722.8264137508393
 20
1060.4573228620236
 40
25.631532301241265
 50
79.693985224764802
 51
117.19562096205382
  0
ARC
  8
_0-1_レイヤ___3
  6
CONTINUOUS
 62
    7
 10
1716.7454277669954
 20
1073.3279855555318
 40
11.414338705784441
 50
119.57328673775032
 51
146.45579609322289
  0
ARC
  8
_0-1_レイヤ___3
  6
CONTINUOUS
 62
    7
 10
1712.5535516307878
 20
1076.4984841855724
 40
6.1772393752764954
 50
149.48220840977282
 51
220.15162218321217
  0
ARC
  8
_0-1_レイヤ___3
  6
CONTINUOUS
 62
    7
 10
1716.2019603798585
 20
1079.4838762940569
 40
10.891114504375921
 50
219.77977230960332
 51
242.13780881688251
  0
ARC
  8
_0-1_レイヤ___3
  6
CONTINUOUS
 62
    7
 10
1720.9749669271582
 20
1087.3773724985258
 40
19.66053978721262
 50
240.56153036939435
 51
261.45014507811288
  0
ARC
  8
_0-1_レイヤ___3
  6
CONTINUOUS
 62
    7
 10
1722.3167177967575
 20
1093.1612196320818
 40
25.58385009907656
 50
260.4043261304206
 51
296.4496119125418
  0
ARC
  8
_0-1_レイヤ___3
  6
CONTINUOUS
 62
    7
 10
1728.5477404233784
 20
1079.6262802004983
 40
10.699756583878335
 50
298.85897530450177
 51
327.10559271053069
  0
ARC
  8
_0-1_レイヤ___3
  6
CONTINUOUS
 62
    7
 10
1732.3501189184879
 20
1076.7621661939099
 40
5.9612204664325805
 50
330.37405191825559
 51
41.540210311161324
  0
ARC
  8
_0-1_レイヤ___3
  6
CONTINUOUS
 62
    7
 10
1728.3941397470262
 20
1073.6032448175454
 40
11.020101056745272
 50
40.193662783365291
 51
61.147051904408379
  0
ARC
  8
_0-1_レイヤ___3
  6
CONTINUOUS
 62
    7
 10
1724.4132244929069
 20
1067.2505118050933
 40
18.510047701619413
 50
59.843368855221094
 51
81.052640798305163
  0
ARC
  8
_0-1_レイヤ___3
  6
CONTINUOUS
 62
    7
 10
1722.7739296746279
 20
1060.0616107924188
 40
25.871282999287718
 50
79.942413974760285
 51
116.29771161004072
  0
ARC
  8
_0-1_レイヤ___3
  6
CONTINUOUS
 62
    7
 10
1716.4763312852051
 20
1073.8843652869682
 40
10.699756583879129
 50
118.85897530450629
 51
147.10559271053521
  0
ARC
  8
_0-1_レイヤ___3
  6
CONTINUOUS
 62
    7
 10
1712.6739527900945
 20
1076.7484792935559
 40
5.9612204664325805
 50
150.37405191825556
 51
221.54021031116133
  0
ARC
  8
_0-1_レイヤ___3
  6
CONTINUOUS
 62
    7
 10
1716.6299319615553
 20
1079.9074006699211
 40
11.020101056744281
 50
220.19366278337159
 51
241.14705190441467
  0
ARC
  8
_0-1_レイヤ___3
  6
CONTINUOUS
 62
    7
 10
1722.6120358542914
 20
1083.3771301949448
 40
8.5666555512116762
 50
241.40600459191859
 51
298.59399540808135
  0
ARC
  8
_0-1_レイヤ___3
  6
CONTINUOUS
 62
    7
 10
1725.3904318962259
 20
1078.5778134538405
 40
3.0263166867655436
 50
295.89375814336103
 51
348.12995840560734
  0
ARC
  8
_0-1_レイヤ___3
  6
CONTINUOUS
 62
    7
 10
1726.078376830174
 20
1078.1303631774583
 40
2.2803869214210595
 50
355.59769761366272
 51
52.327280335508952
  0
ARC
  8
_0-1_レイヤ___3
  6
CONTINUOUS
 62
    7
 10
1724.7180065118123
 20
1076.7255875508849
 40
4.2293117202965957
 50
49.369619466845194
 51
61.869691085379046
  0
ARC
  8
_0-1_レイヤ___3
  6
CONTINUOUS
 62
    7
 10
1722.9152862025608
 20
1074.1083241368087
 40
7.3959245016573174
 50
59.11230198073148
 51
92.815211083426632
  0
ARC
  8
_0-1_レイヤ___3
  6
CONTINUOUS
 62
    7
 10
1722.6237257169191
 20
1072.8499121235209
 40
8.6457078500537872
 50
90.475099749507535
 51
118.3968502084391
  0
ARC
  8
_0-1_レイヤ___3
  6
CONTINUOUS
 62
    7
 10
1719.8336398123565
 20
1077.7328320336258
 40
3.0263166867655436
 50
115.893758143361
 51
168.12995840560734
  0
ARC
  8
_0-1_レイヤ___3
  6
CONTINUOUS
 62
    7
 10
1719.1456866325161
 20
1078.180278645166
 40
2.2803789811704958
 50
175.59758990101543
 51
232.32738804814403
  0
ARC
  8
_0-1_レイヤ___3
  6
CONTINUOUS
 62
    7
 10
1720.5060651967669
 20
1079.5850579365813
 40
4.2293117202951205
 50
229.36961946687438
 51
241.86969108540825
  0
ARC
  8
_0-1_レイヤ___3
  6
CONTINUOUS
 62
    7
 10
1722.6120358542914
 20
1081.8955345986567
 40
6.9136151549235647
 50
237.64416078431248
 51
302.35583921568752
  0
ARC
  8
_0-1_レイヤ___3
  6
CONTINUOUS
 62
    7
 10
1724.7097215762533
 20
1079.3200998773809
 40
3.6367816511295956
 50
296.14126213367513
 51
323.46988005080669
  0
ARC
  8
_0-1_レイヤ___3
  6
CONTINUOUS
 62
    7
 10
1726.243410928801
 20
1078.1467689770873
 40
1.7062370343317979
 50
324.47403694478743
 51
30.600329703391292
  0
ARC
  8
_0-1_レイヤ___3
  6
CONTINUOUS
 62
    7
 10
1724.8524792988856
 20
1077.1971137295654
 40
3.3886498362570876
 50
32.449669723804995
 51
64.486788794036016
  0
ARC
  8
_0-1_レイヤ___3
  6
CONTINUOUS
 62
    7
 10
1722.6120358542914
 20
1073.3762542967347
 40
7.8109911469987541
 50
61.725813073229595
 51
118.27418692677044
  0
ARC
  8
_0-1_レイヤ___3
  6
CONTINUOUS
 62
    7
 10
1720.502966234656
 20
1077.2978807222646
 40
3.3582023145597435
 50
118.27764574795995
 51
146.82825696739806
  0
ARC
  8
_0-1_レイヤ___3
  6
CONTINUOUS
 62
    7
 10
1719.2706412175505
 20
1078.1611672423517
 40
1.8549862085152125
 50
148.32131368675167
 51
212.83613744446913
  0
ARC
  8
_0-1_レイヤ___3
  6
CONTINUOUS
 62
    7
 10
1720.5810928711999
 20
1079.0806576712705
 40
3.4551993791197266
 50
213.86433313995119
 51
241.1147727040717
  0
ARC
  8
_0-1_レイヤ___3
  6
CONTINUOUS
 62
    7
 10
1722.7120358542913
 20
1082.9491911804498
 40
7.6867042367169605
 50
243.74785865057316
 51
296.25214134942689
  0
ARC
  8
_0-1_レイヤ___3
  6
CONTINUOUS
 62
    7
 10
1724.7159036059759
 20
1078.4153306394867
 40
2.7420471408791478
 50
300.60768822057742
 51
356.23598191518028
  0
ARC
  8
_0-1_レイヤ___3
  6
CONTINUOUS
 62
    7
 10
1725.2512942966814
 20
1078.0182932452735
 40
2.2114170132726416
 50
5.6321003320587666
 51
67.093636837783677
  0
ARC
  8
_0-1_レイヤ___3
  6
CONTINUOUS
 62
    7
 10
1722.7120358542913
 20
1073.987638055057
 40
6.9553430886761642
 50
60.736104720924764
 51
119.26389527907527
  0
ARC
  8
_0-1_レイヤ___3
  6
CONTINUOUS
 62
    7
 10
1720.5448550879748
 20
1077.3210542943254
 40
2.9993444644402238
 50
114.26952653562854
 51
144.20520769121256
  0
ARC
  8
_0-1_レイヤ___3
  6
CONTINUOUS
 62
    7
 10
1719.5292934538725
 20
1078.110298979527
 40
1.7146107339722618
 50
145.74869040902792
 51
213.0451272022049
  0
ARC
  8
_0-1_レイヤ___3
  6
CONTINUOUS
 62
    7
 10
1720.9474052511973
 20
1079.0611715510775
 40
3.4219234528189473
 50
213.44304795293135
 51
241.45104933171064
  0
ARC
  8
_0-1_レイヤ___3
  6
CONTINUOUS
 62
    7
 10
1722.6120358542914
 20
1083.9138668035198
 40
8.262160559786917
 50
247.96304591981095
 51
292.03695408018905
  0
ARC
  8
_0-1_レイヤ___3
  6
CONTINUOUS
 62
    7
 10
1724.6847416860237
 20
1078.3957177363234
 40
2.3741575416269654
 50
295.63892963686669
 51
355.64230976797853
  0
ARC
  8
_0-1_レイヤ___3
  6
CONTINUOUS
 62
    7
 10
1725.1310669083398
 20
1078.0131895805775
 40
1.9315743596757675
 50
6.0068201936090553
 51
72.495852971802037
  0
ARC
  8
_0-1_レイヤ___3
  6
CONTINUOUS
 62
    7
 10
1723.1062479862276
 20
1075.4561494774318
 40
5.1130084920999277
 50
59.360221978916229
 51
80.251109530743889
  0
ARC
  8
_0-1_レイヤ___3
  6
CONTINUOUS
 62
    7
 10
1722.716326895578
 20
1073.3857320497575
 40
7.2196319036948022
 50
79.983616300529306
 51
116.34852283587949
  0
ARC
  8
_0-1_レイヤ___3
  6
CONTINUOUS
 62
    7
 10
1720.5332694869726
 20
1078.0553227437329
 40
2.0695212326817205
 50
119.56849679597137
 51
240.43150320402867
  0
ARC
  8
_0-1_レイヤ___3
  6
CONTINUOUS
 62
    7
 10
1722.1810523526449
 20
1080.8121452768771
 40
4.9122640864587996
 50
242.48967224547783
 51
263.11324531439209
  0
ARC
  8
_0-1_レイヤ___3
  6
CONTINUOUS
 62
    7
 10
1722.6209619132915
 20
1083.2141878374264
 40
7.3512288691809955
 50
261.95409001653445
 51
293.15859809633213
  0
ARC
  8
_0-1_レイヤ___3
  6
CONTINUOUS
 62
    7
 10
1724.3804125154265
 20
1078.2925506465542
 40
2.1577714772348919
 50
301.63060391138936
 51
4.3262329062524136
  0
ARC
  8
_0-1_レイヤ___3
  6
CONTINUOUS
 62
    7
 10
1724.3329653868852
 20
1077.9247142603365
 40
2.2621795426692031
 50
13.565470148586169
 51
58.586552964173627
  0
ARC
  8
_0-1_レイヤ___3
  6
CONTINUOUS
 62
    7
 10
1722.7120358542913
 20
1073.6468172095724
 40
6.8106931341603181
 50
65.72490134361388
 51
114.27509865638615
  0
ARC
  8
_0-1_レイヤ___3
  6
CONTINUOUS
 62
    7
 10
1721.1911840451016
 20
1077.5601207452009
 40
2.6275791725689701
 50
119.131535633412
 51
151.95977955339347
  0
ARC
  8
_0-1_レイヤ___3
  6
CONTINUOUS
 62
    7
 10
1720.2364428107103
 20
1078.1347032534607
 40
1.5159236305475106
 50
154.16463098969325
 51
225.40018307394263
  0
ARC
  8
_0-1_レイヤ___3
  6
CONTINUOUS
 62
    7
 10
1721.7247260997556
 20
1079.4473073798033
 40
3.4982592797680736
 50
223.13849982226307
 51
238.79047438019722
  0
ARC
  8
_0-1_レイヤ___3
  6
CONTINUOUS
 62
    7
 10
1722.3364043765441
 20
1081.2136890729628
 40
4.9876619277318932
 50
246.05401367744656
 51
266.50139205630717
  0
ARC
  8
_0-1_レイヤ___3
  6
CONTINUOUS
 62
    7
 10
1722.6437805302185
 20
1083.2525284536055
 40
7.0438205203709137
 50
265.01767537638352
 51
290.51265666045771
  0
ARC
  8
_0-1_レイヤ___3
  6
CONTINUOUS
 62
    7
 10
1724.3469786351629
 20
1078.274276359364
 40
1.7906209420496302
 50
295.29367479418727
 51
4.5178422529195812
  0
ARC
  8
_0-1_レイヤ___3
  6
CONTINUOUS
 62
    7
 10
1724.6188600781147
 20
1077.9514388094051
 40
1.582684186480551
 50
17.043609648446068
 51
71.843885897418971
  0
ARC
  8
_0-1_レイヤ___3
  6
CONTINUOUS
 62
    7
 10
1722.7120358542913
 20
1074.8790482992772
 40
5.1674256444558271
 50
62.32550292436143
 51
117.67449707563858
  0
ARC
  8
_0-1_レイヤ___3
  6
CONTINUOUS
 62
    7
 10
1720.9790668320106
 20
1078.0553227437324
 40
1.5507837777193632
 50
115.4754975273391
 51
244.52450247266091
  0
ARC
  8
_0-1_レイヤ___3
  6
CONTINUOUS
 62
    7
 10
1722.6120358542914
 20
1081.486361701594
 40
5.0849308578611012
 50
245.60751582667552
 51
294.39248417332453
  0
ARC
  8
_0-1_レイヤ___3
  6
CONTINUOUS
 62
    7
 10
1723.7853304909827
 20
1078.5136899366264
 40
1.8997275006829777
 50
299.19671609802754
 51
338.43143357063002
  0
ARC
  8
_0-1_レイヤ___3
  6
CONTINUOUS
 62
    7
 10
1724.5529535505698
 20
1078.1692942620564
 40
1.0599345665614415
 50
340.49093406340484
 51
22.523937454075206
  0
ARC
  8
_0-1_レイヤ___3
  6
CONTINUOUS
 62
    7
 10
1723.6824980922825
 20
1077.6739352836805
 40
2.057495877574242
 50
25.982670400286139
 51
59.974599718943317
  0
ARC
  8
_0-1_レイヤ___3
  6
CONTINUOUS
 62
    7
 10
1722.6120358542914
 20
1074.8242837858718
 40
5.0849308578611012
 50
65.607515826675524
 51
114.39248417332452
  0
ARC
  8
_0-1_レイヤ___3
  6
CONTINUOUS
 62
    7
 10
1721.4387412176002
 20
1077.7969555508387
 40
1.8997275006835355
 50
119.19671609800831
 51
158.43143357061084
  0
ARC
  8
_0-1_レイヤ___3
  6
CONTINUOUS
 62
    7
 10
1720.6711181580131
 20
1078.1413512254087
 40
1.0599345665622333
 50
160.49093406340373
 51
202.52393745407406
  0
ARC
  8
_0-1_レイヤ___3
  6
CONTINUOUS
 62
    7
 10
1721.5415736162993
 20
1078.6367102037857
 40
2.0574958775741932
 50
205.98267040032439
 51
239.97459971898155
  0
LINE
  8
_0-1_レイヤ___3
  6
CONTINUOUS
 62
    7
 10
792.31204985429122
 20
1377.0553187437329
 11
1622.5120378542915
 21
894.85532474373349
  0
LINE
  8
_0-1_レイヤ___3
  6
CONTINUOUS
 62
    7
 10
791.31204985429122
 20
1197.2553207437327
 11
1628.7120378542913
 21
718.85532874373303
  0
LINE
  8
_0-1_レイヤ___3
  6
CONTINUOUS
 62
    7
 10
1781.1120358542912
 20
977.2553247437329
 11
1628.9120378542912
 21
889.45532474373272
  0
LINE
  8
_0-1_レイヤ___3
  6
CONTINUOUS
 62
    7
 10
1628.9120378542912
 20
889.45532474373272
 11
1628.7120378542913
 21
718.85532874373303
  0
LINE
  8
_0-1_レイヤ___3
  6
CONTINUOUS
 62
    7
 10
1628.7120378542913
 20
718.85532874373303
 11
1652.9120378542912
 21
756.65532674373344
  0
LINE
  8
_0-1_レイヤ___3
  6
CONTINUOUS
 62
    7
 10
1652.9120378542912
 20
756.65532674373344
 11
1649.9120378542909
 21
757.8553267437328
  0
LINE
  8
_0-1_レイヤ___3
  6
CONTINUOUS
 62
    7
 10
1649.9120378542909
 20
757.8553267437328
 11
1632.9120378542912
 21
730.8553287437328
  0
LINE
  8
_0-1_レイヤ___3
  6
CONTINUOUS
 62
    7
 10
1632.9120378542912
 20
730.8553287437328
 11
1632.9120378542912
 21
887.45532474373272
  0
LINE
  8
_0-1_レイヤ___3
  6
CONTINUOUS
 62
    7
 10
1632.9120378542912
 20
887.45532474373272
 11
1779.5120358542908
 21
972.05532474373308
  0
LINE
  8
_0-1_レイヤ___3
  6
CONTINUOUS
 62
    7
 10
1781.1120358542912
 20
977.2553247437329
 11
1895.1120338542914
 21
1043.0553227437335
  0
ARC
  8
_0-1_レイヤ___3
  6
CONTINUOUS
 62
    7
 10
1898.5206087633583
 20
1037.8480235947345
 40
6.2236924199290176
 50
85.840494030450728
 51
123.20780984438051
  0
ARC
  8
_0-1_レイヤ___3
  6
CONTINUOUS
 62
    7
 10
1898.4444698001914
 20
1040.710655541292
 40
3.3860186836848696
 50
12.357891694768814
 51
81.036420684424044
  0
ARC
  8
_0-1_レイヤ___3
  6
CONTINUOUS
 62
    7
 10
1896.2581981595702
 20
1040.099080924052
 40
5.6540050266383268
 50
359.55656493601998
 51
13.670356028674345
  0
ARC
  8
_0-1_レイヤ___3
  6
CONTINUOUS
 62
    7
 10
1891.7064236740896
 20
1040.3423420577267
 40
10.209645402111029
 50
329.59613493991964
 51
358.38905646787123
  0
ARC
  8
_0-1_レイヤ___3
  6
CONTINUOUS
 62
    7
 10
1886.1638602365906
 20
1042.8403459760934
 40
16.267226786280911
 50
303.37206920412325
 51
331.88815612259975
  0
LINE
  8
_0-1_レイヤ___3
  6
CONTINUOUS
 62
    7
 10
1895.1120338542914
 20
1029.2553227437329
 11
1874.5120338542911
 21
1022.2553227437331
  0
LINE
  8
_0-1_レイヤ___3
  6
CONTINUOUS
 62
    7
 10
1874.5120338542911
 20
1022.2553227437331
 11
1874.5120338542911
 21
1026.4553227437327
  0
LINE
  8
_0-1_レイヤ___3
  6
CONTINUOUS
 62
    7
 10
1874.5120338542911
 20
1026.4553227437327
 11
1894.9120338542916
 21
1033.4553227437332
  0
ARC
  8
_0-1_レイヤ___3
  6
CONTINUOUS
 62
    7
 10
1892.3069858838976
 20
1038.225354723995
 40
5.4350234609219994
 50
298.64018907263704
 51
353.9796758754141
  0
ARC
  8
_0-1_レイヤ___3
  6
CONTINUOUS
 62
    7
 10
1896.1688078820157
 20
1037.7031341888519
 40
1.5439664296185862
 50
358.22545881186352
 51
111.93573716320945
  0
ARC
  8
_0-1_レイヤ___3
  6
CONTINUOUS
 62
    7
 10
1896.5871129843781
 20
1035.752987713528
 40
3.5256733728019163
 50
106.39382323700764
 51
118.36644686698375
  0
LINE
  8
_0-1_レイヤ___3
  6
CONTINUOUS
 62
    7
 10
1894.9120338542916
 20
1038.8553227437328
 11
1779.5120358542908
 21
972.05532474373308
  0
LINE
  8
_0-1_レイヤ___3
  6
CONTINUOUS
 62
    7
 10
1774.7120358542918
 20
901.65532474373299
 11
1774.7120358542918
 21
892.05532474373308
  0
ARC
  8
_0-1_レイヤ___3
  6
CONTINUOUS
 62
    7
 10
1696.7434914615656
 20
827.52244431620829
 40
8.1431336506304355
 50
228.16419381422921
 51
287.94213877294811
  0
ARC
  8
_0-1_レイヤ___3
  6
CONTINUOUS
 62
    7
 10
1695.4363566953725
 20
831.73521922340706
 40
12.553821552387202
 50
287.69474153178004
 51
311.24010259585833
  0
ARC
  8
_0-1_レイヤ___3
  6
CONTINUOUS
 62
    7
 10
1666.3455441659307
 20
857.77998214563036
 40
51.859106019812884
 50
324.51367940474154
 51
331.02164688462562
  0
LINE
  8
_0-1_レイヤ___3
  6
CONTINUOUS
 62
    7
 10
1691.7120358542916
 20
853.25532674373244
 11
1711.312035854291
 21
845.05532674373262
  0
LINE
  8
_0-1_レイヤ___3
  6
CONTINUOUS
 62
    7
 10
1691.7120358542916
 20
843.05532674373262
 11
1711.312035854291
 21
834.8553267437328
  0
LINE
  8
_0-1_レイヤ___3
  6
CONTINUOUS
 62
    7
 10
1691.7120358542916
 20
825.85532674373303
 11
1702.312035854291
 21
821.45532674373294
  0
LINE
  8
_0-1_レイヤ___3
  6
CONTINUOUS
 62
    7
 10
1702.1120358542912
 20
859.25532674373267
 11
1711.5120358542908
 21
855.25532674373244
  0
LINE
  8
_0-1_レイヤ___3
  6
CONTINUOUS
 62
    7
 10
1712.312035854291
 20
865.05532674373262
 11
1721.5120358542908
 21
861.25532674373267
  0
LINE
  8
_0-1_レイヤ___3
  6
CONTINUOUS
 62
    7
 10
1722.5120358542908
 20
871.05532674373285
 11
1730.5120358542911
 21
867.65532674373299
  0
LINE
  8
_0-1_レイヤ___3
  6
CONTINUOUS
 62
    7
 10
1733.5120358542906
 20
876.45532474373249
 11
1741.5120358542908
 21
873.05532674373262
  0
LINE
  8
_0-1_レイヤ___3
  6
CONTINUOUS
 62
    7
 10
1632.7120378542913
 20
768.25532674373244
 11
1649.7120378542911
 21
758.25532674373312
  0
LINE
  8
_0-1_レイヤ___3
  6
CONTINUOUS
 62
    7
 10
1691.312035854291
 20
853.25532674373244
 11
1691.312035854291
 21
821.45532674373294
  0
LINE
  8
_0-1_レイヤ___3
  6
CONTINUOUS
 62
    7
 10
1691.312035854291
 20
853.25532674373244
 11
1774.9120358542916
 21
901.05532474373285
  0
LINE
  8
_0-1_レイヤ___3
  6
CONTINUOUS
 62
    7
 10
1711.1120358542912
 20
854.45532674373317
 11
1774.9120358542916
 21
891.45532474373249
  0
LINE
  8
_0-1_レイヤ___3
  6
CONTINUOUS
 62
    7
 10
1711.7120358542916
 20
854.05532674373285
 11
1711.7120358542916
 21
832.65532674373299
  0
LINE
  8
_0-1_レイヤ___3
  6
CONTINUOUS
 62
    7
 10
1717.312035854291
 20
934.2553247437329
 11
1774.9120358542916
 21
901.05532474373285
  0
LINE
  8
_0-1_レイヤ___3
  6
CONTINUOUS
 62
    7
 10
1634.7120378542911
 20
853.85532674373303
 11
1690.7120358542916
 21
821.45532674373294
  0
LINE
  8
_0-1_レイヤ___3
  6
CONTINUOUS
 62
    7
 10
1634.7120378542911
 20
885.85532474373304
 11
1682.9120378542912
 21
858.65532674373321
  0
LINE
  8
_0-1_レイヤ___3
  6
CONTINUOUS
 62
    7
 10
1743.9120358542914
 20
882.65532474373322
 11
1751.9120358542914
 21
879.2553247437329
  0
LINE
  8
_0-1_レイヤ___3
  6
CONTINUOUS
 62
    7
 10
1754.312035854291
 20
888.85532474373326
 11
1762.312035854291
 21
885.45532474373294
  0
LINE
  8
_0-1_レイヤ___3
  6
CONTINUOUS
 62
    7
 10
1764.7120358542918
 20
895.05532474373331
 11
1772.9120358542912
 21
891.65532474373299
  0
LINE
  8
_0-1_レイヤ___3
  6
CONTINUOUS
 62
    7
 10
1691.5120358542908
 20
834.45532674373317
 11
1708.112035854291
 21
827.05532674373308
  0
LINE
  8
_0-1_レイヤ___3
  6
CONTINUOUS
 62
    7
 10
1711.7120358542916
 20
854.05532674373285
 11
1856.1120338542912
 21
771.85532674373326
  0
LINE
  8
_0-1_レイヤ___3
  6
CONTINUOUS
 62
    7
 10
1539.5120398542913
 20
1246.2553207437329
 11
1899.9120338542916
 21
1043.8553227437328
  0
LINE
  8
_0-1_レイヤ___3
  6
CONTINUOUS
 62
    7
 10
1332.9120418542914
 20
1124.0553227437331
 11
1544.1120398542917
 21
1247.8553207437326
  0
LINE
  8
_0-1_レイヤ___3
  6
CONTINUOUS
 62
    7
 10
1544.1120398542917
 20
1247.8553207437326
 11
1618.5120378542915
 21
1279.2553187437327
  0
LINE
  8
_0-1_レイヤ___3
  6
CONTINUOUS
 62
    7
 10
1618.5120378542915
 20
1279.2553187437327
 11
1816.1120358542912
 21
1391.0553187437326
  0
LINE
  8
_0-1_レイヤ___3
  6
CONTINUOUS
 62
    7
 10
1816.1120358542912
 20
1391.0553187437326
 11
1867.7120338542909
 21
1360.8553187437328
  0
LINE
  8
_0-1_レイヤ___3
  6
CONTINUOUS
 62
    7
 10
1867.7120338542909
 20
1360.8553187437328
 11
1867.7120338542909
 21
1353.2553187437327
  0
LINE
  8
_0-1_レイヤ___3
  6
CONTINUOUS
 62
    7
 10
1816.1120358542912
 20
1396.8553187437331
 11
1617.312037854291
 21
1284.455318743733
  0
LINE
  8
_0-1_レイヤ___3
  6
CONTINUOUS
 62
    7
 10
1617.312037854291
 20
1284.455318743733
 11
1542.9120398542909
 21
1252.8553207437326
  0
LINE
  8
_0-1_レイヤ___3
  6
CONTINUOUS
 62
    7
 10
1542.9120398542909
 20
1252.8553207437326
 11
1333.5120418542908
 21
1130.6553227437328
  0
LINE
  8
_0-1_レイヤ___3
  6
CONTINUOUS
 62
    7
 10
1332.9120418542914
 20
1131.4553227437327
 11
1332.7120418542909
 21
1124.0553227437331
  0
ARC
  8
_0-1_レイヤ___3
  6
CONTINUOUS
 62
    7
 10
1334.0129542622271
 20
1130.5803922594546
 40
2.7821942757904319
 50
14.039411840708125
 51
94.141142000920269
  0
ARC
  8
_0-1_レイヤ___3
  6
CONTINUOUS
 62
    7
 10
1334.0388006047879
 20
1128.8427005276114
 40
4.5183159248066378
 50
92.876686738669832
 51
131.71762901492139
  0
ARC
  8
_0-1_レイヤ___3
  6
CONTINUOUS
 62
    7
 10
1335.3670414593762
 20
1127.2225701699185
 40
6.6120949660011243
 50
130.96642479522393
 51
167.48550300228146
  0
ARC
  8
_0-1_レイヤ___3
  6
CONTINUOUS
 62
    7
 10
1316.2817224216985
 20
1128.7314846548841
 40
12.630549061939284
 50
322.57331954530031
 51
359.65450571527424
  0
LINE
  8
_0-1_レイヤ___3
  6
CONTINUOUS
 62
    7
 10
1326.3120418542912
 20
1120.8553227437333
 11
1339.1120418542914
 21
1127.6553227437328
  0
LINE
  8
_0-1_レイヤ___3
  6
CONTINUOUS
 62
    7
 10
912.91204785429102
 20
1372.8553187437331
 11
926.31204785429134
 21
1372.4553187437327
  0
LINE
  8
_0-1_レイヤ___3
  6
CONTINUOUS
 62
    7
 10
926.31204785429134
 20
1372.4553187437327
 11
1184.7120438542913
 21
1222.0553207437329
  0
LINE
  8
_0-1_レイヤ___3
  6
CONTINUOUS
 62
    7
 10
1184.7120438542913
 20
1222.0553207437329
 11
1201.7120438542918
 21
1207.0553207437329
  0
LINE
  8
_0-1_レイヤ___3
  6
CONTINUOUS
 62
    7
 10
1201.7120438542918
 20
1207.0553207437329
 11
1335.9120418542916
 21
1130.6553227437328
  0
LINE
  8
_0-1_レイヤ___3
  6
CONTINUOUS
 62
    7
 10
792.31204985429122
 20
1440.4553167437327
 11
912.91204785429102
 21
1372.8553187437331
  0
ARC
  8
_0-1_レイヤ___3
  6
CONTINUOUS
 62
    7
 10
2062.1265975934652
 20
815.38795038434978
 40
9.3251694662712765
 50
28.624451822135924
 51
53.204314617922606
  0
ARC
  8
_0-1_レイヤ___3
  6
CONTINUOUS
 62
    7
 10
2066.1745975995432
 20
816.76461016998792
 40
6.281761892125564
 50
75.833193701044223
 51
175.51962274267788
  0
ARC
  8
_0-1_レイヤ___3
  6
CONTINUOUS
 62
    7
 10
2065.7221564048673
 20
816.76200703496102
 40
5.8310300658010741
 50
175.14683265986301
 51
213.3624687766048
  0
ARC
  8
_0-1_レイヤ___3
  6
CONTINUOUS
 62
    7
 10
2070.6892395122527
 20
819.61542223967649
 40
11.554021461197472
 50
211.63465505989271
 51
260.04595584877347
  0
ARC
  8
_0-1_レイヤ___3
  6
CONTINUOUS
 62
    7
 10
2069.1540706598362
 20
812.34370976425316
 40
4.1342823925234109
 50
263.58333804552427
 51
315.68185302954839
  0
ARC
  8
_0-1_レイヤ___3
  6
CONTINUOUS
 62
    7
 10
2068.3572997681927
 20
812.37337360217884
 40
4.7553139230190524
 50
322.14689408955252
 51
5.3326964938205954
  0
ARC
  8
_0-1_レイヤ___3
  6
CONTINUOUS
 62
    7
 10
2064.4144626986927
 20
812.1991968106081
 40
8.6994150691115877
 50
4.0613333178502824
 51
17.915968875122296
  0
ARC
  8
_0-1_レイヤ___3
  6
CONTINUOUS
 62
    7
 10
2051.1553712292762
 20
807.64142066189811
 40
22.719092149069304
 50
18.566582684346532
 51
32.520774732656086
  0
ARC
  8
_0-1_レイヤ___3
  6
CONTINUOUS
 62
    7
 10
2258.8319969282975
 20
844.78956838876593
 40
11.418693179414836
 50
17.668917157335002
 51
43.955844804041369
  0
ARC
  8
_0-1_レイヤ___3
  6
CONTINUOUS
 62
    7
 10
2263.1251112858877
 20
848.85235014203636
 40
5.5084718353144746
 50
44.529722951887273
 51
81.155807989693088
  0
ARC
  8
_0-1_レイヤ___3
  6
CONTINUOUS
 62
    7
 10
2263.5784638734849
 20
850.0179475949792
 40
4.2954470069110311
 50
84.742986023635609
 51
109.96177269615131
  0
ARC
  8
_0-1_レイヤ___3
  6
CONTINUOUS
 62
    7
 10
2264.7990477603985
 20
847.71133307584455
 40
6.8895813830756536
 50
112.95525051943805
 51
148.06791580807428
  0
ARC
  8
_0-1_レイヤ___3
  6
CONTINUOUS
 62
    7
 10
2264.4496944260954
 20
847.45510563421226
 40
6.7406277480572925
 50
144.64688722684431
 51
181.69838242675939
  0
ARC
  8
_0-1_レイヤ___3
  6
CONTINUOUS
 62
    7
 10
2282.4001019806105
 20
851.53020688900733
 40
25.055450591100268
 50
189.8236815127774
 51
207.87590721048477
  0
ARC
  8
_0-1_レイヤ___3
  6
CONTINUOUS
 62
    7
 10
2269.8274936587168
 20
845.06243562964164
 40
10.918868853149915
 50
208.72160753049488
 51
234.66196540175719
  0
ARC
  8
_0-1_レイヤ___3
  6
CONTINUOUS
 62
    7
 10
2266.7049226071067
 20
841.22859007413717
 40
5.9943788437318108
 50
237.81544566630515
 51
291.6043919229503
  0
ARC
  8
_0-1_レイヤ___3
  6
CONTINUOUS
 62
    7
 10
2267.4585309746412
 20
839.72862490218995
 40
4.3248596586294319
 50
289.63819807664817
 51
355.84578440399935
  0
ARC
  8
_0-1_レイヤ___3
  6
CONTINUOUS
 62
    7
 10
2263.0357562589288
 20
840.02366307405532
 40
8.7574262474039841
 50
356.01672957033497
 51
9.5416041578036861
  0
ARC
  8
_0-1_レイヤ___3
  6
CONTINUOUS
 62
    7
 10
2250.3232424762136
 20
837.70976299059589
 40
21.678332673390116
 50
10.003115307114323
 51
18.742442061831834
  0
ARC
  8
_0-1_レイヤ___3
  6
CONTINUOUS
 62
    7
 10
2190.3027668283089
 20
820.9970704393877
 40
83.957389629775861
 50
16.381223692545298
 51
18.9454465958028
  0
ARC
  8
_0-1_レイヤ___3
  6
CONTINUOUS
 62
    7
 10
2259.7698246119285
 20
723.18219608918321
 40
5.8816464389384437
 50
12.50111124879183
 51
69.058320979693065
  0
ARC
  8
_0-1_レイヤ___3
  6
CONTINUOUS
 62
    7
 10
2258.9976935039485
 20
721.73331653962555
 40
7.5135431987532852
 50
67.508040365534868
 51
102.96467625301042
  0
ARC
  8
_0-1_レイヤ___3
  6
CONTINUOUS
 62
    7
 10
2260.0973829007307
 20
721.32743587823165
 40
8.2145316893530307
 50
109.82062236138633
 51
125.97391970048402
  0
ARC
  8
_0-1_レイヤ___3
  6
CONTINUOUS
 62
    7
 10
2261.772883115148
 20
718.81096784381862
 40
11.235952555368877
 50
125.3504656213655
 51
143.74725728508113
  0
ARC
  8
_0-1_レイヤ___3
  6
CONTINUOUS
 62
    7
 10
2258.5193317685425
 20
722.31093503695638
 40
6.6039375024061666
 50
151.56644897906702
 51
237.92067669386196
  0
ARC
  8
_0-1_レイヤ___3
  6
CONTINUOUS
 62
    7
 10
2262.5320788596268
 20
727.51599287270801
 40
13.160756541695903
 50
235.15211820305984
 51
262.92912086609658
  0
ARC
  8
_0-1_レイヤ___3
  6
CONTINUOUS
 62
    7
 10
2261.289735012494
 20
717.91701619897503
 40
3.4822324355416439
 50
263.77305006399286
 51
314.0762387681072
  0
ARC
  8
_0-1_レイヤ___3
  6
CONTINUOUS
 62
    7
 10
2259.9555495096979
 20
719.25881273756295
 40
5.3743370534631776
 50
314.34409691670385
 51
332.7174343031964
  0
ARC
  8
_0-1_レイヤ___3
  6
CONTINUOUS
 62
    7
 10
2256.0371233626638
 20
721.21767080705035
 40
9.7549204734589328
 50
333.04151646296123
 51
0.103714407727983
  0
ARC
  8
_0-1_レイヤ___3
  6
CONTINUOUS
 62
    7
 10
2252.6229911710334
 20
721.71236903214231
 40
13.177674096811081
 50
357.9254025941396
 51
12.014078862108098
  0
ARC
  8
_0-1_レイヤ___3
  6
CONTINUOUS
 62
    7
 10
2315.7710575692959
 20
789.13068441789369
 40
4.9742742165710583
 50
153.17607501322189
 51
215.31320257888797
  0
ARC
  8
_0-1_レイヤ___3
  6
CONTINUOUS
 62
    7
 10
2319.0824252864427
 20
788.00052746493952
 40
8.4532792766147438
 50
113.79345410444314
 51
156.46997430282786
  0
ARC
  8
_0-1_レイヤ___3
  6
CONTINUOUS
 62
    7
 10
2317.3903293378053
 20
791.40297006792002
 40
4.6606731654028781
 50
93.423323415298313
 51
111.63429200299993
  0
ARC
  8
_0-1_レイヤ___3
  6
CONTINUOUS
 62
    7
 10
2317.1183514280765
 20
780.3055940408874
 40
15.749733972314266
 50
26.834776467894301
 51
90.023004458343323
  0
ARC
  8
_0-1_レイヤ___3
  6
CONTINUOUS
 62
    7
 10
2321.9833057325777
 20
783.4645022534105
 40
10.002081202600648
 50
353.05639222646414
 51
23.265989121978912
  0
ARC
  8
_0-1_レイヤ___3
  6
CONTINUOUS
 62
    7
 10
2323.1142258396467
 20
783.4593454407443
 40
8.8798075041997997
 50
292.49753327737437
 51
352.20722544240601
  0
ARC
  8
_0-1_レイヤ___3
  6
CONTINUOUS
 62
    7
 10
2324.4244067659793
 20
782.35949010904187
 40
7.4045458287036556
 50
236.07641329173484
 51
286.37589057159897
  0
ARC
  8
_0-1_レイヤ___3
  6
CONTINUOUS
 62
    7
 10
2327.3345636615204
 20
787.41518310242873
 40
13.230045088794329
 50
226.64565758732897
 51
237.8380761304802
  0
ARC
  8
_0-1_レイヤ___3
  6
CONTINUOUS
 62
    7
 10
2334.9681313714318
 20
795.25795036903651
 40
24.173773819467289
 50
217.81904144070259
 51
226.25123594098699
  0
ARC
  8
_0-1_レイヤ___3
  6
CONTINUOUS
 62
    7
 10
2403.4835619998439
 20
847.45473946632706
 40
110.30585930501906
 50
213.69801546247891
 51
217.41458144580926
  0
ARC
  8
_0-1_レイヤ___3
  6
CONTINUOUS
 62
    7
 10
1919.6253711294066
 20
784.93982148539862
 40
4.6957333637489382
 50
97.50518223718808
 51
138.43450421704264
  0
ARC
  8
_0-1_レイヤ___3
  6
CONTINUOUS
 62
    7
 10
1919.1762354056145
 20
788.15581195988079
 40
1.448849530622581
 50
38.378058681991426
 51
96.507448048633421
  0
ARC
  8
_0-1_レイヤ___3
  6
CONTINUOUS
 62
    7
 10
1816.3022952399087
 20
699.54917696833127
 40
137.22017553643053
 50
37.864992560689402
 51
40.713821164309977
  0
ARC
  8
_0-1_レイヤ___3
  6
CONTINUOUS
 62
    7
 10
1922.174035103812
 20
782.80158613510048
 40
2.6438473159878741
 50
307.18724098457091
 51
21.611083402212646
  0
ARC
  8
_0-1_レイヤ___3
  6
CONTINUOUS
 62
    7
 10
1919.141799938493
 20
786.01939106807799
 40
7.0558292953251858
 50
302.29937512079408
 51
311.0128417112349
  0
ARC
  8
_0-1_レイヤ___3
  6
CONTINUOUS
 62
    7
 10
1921.0579566225033
 20
782.74620688279902
 40
3.2677879833702663
 50
227.54190771139994
 51
304.56771983052056
  0
ARC
  8
_0-1_レイヤ___3
  6
CONTINUOUS
 62
    7
 10
1928.7861284183225
 20
791.38484312461537
 40
14.858601786793898
 50
217.7150101500757
 51
228.04279705658101
  0
ARC
  8
_0-1_レイヤ___3
  6
CONTINUOUS
 62
    7
 10
1908.6044214600201
 20
776.33089422054832
 40
10.324684304699126
 50
35.287999473347185
 51
53.732609340417703
  0
ARC
  8
_0-1_レイヤ___3
  6
CONTINUOUS
 62
    7
 10
1914.282669096242
 20
785.9364473939163
 40
1.3511566214842423
 50
288.52846261247373
 51
331.67335247995339
  0
ARC
  8
_0-1_レイヤ___3
  6
CONTINUOUS
 62
    7
 10
1913.0822650208086
 20
786.39313435090776
 40
2.6298624716614953
 50
335.32698317184048
 51
0.4835026741273978
  0
ARC
  8
_0-1_レイヤ___3
  6
CONTINUOUS
 62
    7
 10
1917.3649091372913
 20
786.88096691861028
 40
1.7172121224864012
 50
136.85274028837313
 51
195.73333770345172
  0
ARC
  8
_0-1_レイヤ___3
  6
CONTINUOUS
 62
    7
 10
2250.3898015872855
 20
779.03488646865503
 40
1.7201715856008304
 50
149.21400968376261
 51
192.74734545348682
  0
ARC
  8
_0-1_レイヤ___3
  6
CONTINUOUS
 62
    7
 10
2249.4865860422015
 20
779.46621036791294
 40
0.7292617022197001
 50
91.143866645077964
 51
141.98623570912457
  0
ARC
  8
_0-1_レイヤ___3
  6
CONTINUOUS
 62
    7
 10
2249.3965656396581
 20
777.2057748326265
 40
2.9905041673673178
 50
54.995801747644514
 51
88.55404802962471
  0
ARC
  8
_0-1_レイヤ___3
  6
CONTINUOUS
 62
    7
 10
2256.6599191800146
 20
786.51015568237631
 40
8.8186040811516282
 50
231.01534814798995
 51
244.12954186049529
  0
ARC
  8
_0-1_レイヤ___3
  6
CONTINUOUS
 62
    7
 10
2252.997501559616
 20
780.05493182214673
 40
1.4911846577246337
 50
262.85504091374673
 51
290.18456258953836
  0
ARC
  8
_0-1_レイヤ___3
  6
CONTINUOUS
 62
    7
 10
2247.303276867362
 20
778.47693131735946
 40
6.2113133672233678
 50
325.01191785379979
 51
1.6458211315105375
  0
ARC
  8
_0-1_レイヤ___3
  6
CONTINUOUS
 62
    7
 10
2250.4063554806794
 20
776.63563777461286
 40
2.6272352042199154
 50
259.15486420813852
 51
319.0955878334504
  0
ARC
  8
_0-1_レイヤ___3
  6
CONTINUOUS
 62
    7
 10
2250.2120103807606
 20
775.36233789405878
 40
1.3409950273076532
 50
214.88783027885029
 51
257.07346974154996
  0
ARC
  8
_0-1_レイヤ___3
  6
CONTINUOUS
 62
    7
 10
2251.2458577233651
 20
775.95297058655524
 40
2.5291157968953222
 50
186.30257695521229
 51
212.46645440351233
  0
ARC
  8
_0-1_レイヤ___3
  6
CONTINUOUS
 62
    7
 10
2264.8082545025391
 20
777.27328799640327
 40
16.155449341039027
 50
175.09256061986176
 51
185.67649869928894
  0
ARC
  8
_0-1_レイヤ___3
  6
CONTINUOUS
 62
    7
 10
2078.4103205655902
 20
711.95704003243486
 40
3.5031881387769497
 50
271.6637549576111
 51
358.33624504237929
  0
ARC
  8
_0-1_レイヤ___3
  6
CONTINUOUS
 62
    7
 10
2078.5569404776402
 20
711.90023736708304
 40
3.4452013304998741
 50
180.74687868937804
 51
269.25312131065073
  0
ARC
  8
_0-1_レイヤ___3
  6
CONTINUOUS
 62
    7
 10
2078.6334173210566
 20
711.73394327696678
 40
3.5234769812068234
 50
91.974257651628449
 51
178.02574234836197
  0
ARC
  8
_0-1_レイヤ___3
  6
CONTINUOUS
 62
    7
 10
2078.3294206358078
 20
711.67271752524948
 40
3.587262187228208
 50
2.9179289630235083
 51
87.082071036966923
  0
ARC
  8
_0-1_レイヤ___3
  6
CONTINUOUS
 62
    7
 10
2106.1503071440229
 20
631.21705145400165
 40
3.361940619886941
 50
269.34764625978187
 51
0.6523537402085213
  0
ARC
  8
_0-1_レイヤ___3
  6
CONTINUOUS
 62
    7
 10
2106.2334153210568
 20
631.37671421049822
 40
3.5234769812062345
 50
181.97425765162848
 51
268.02574234836203
  0
ARC
  8
_0-1_レイヤ___3
  6
CONTINUOUS
 62
    7
 10
2106.2946410727736
 20
631.07271752525003
 40
3.5872621872279078
 50
92.917928963028288
 51
177.08207103697171
  0
ARC
  8
_0-1_レイヤ___3
  6
CONTINUOUS
 62
    7
 10
2106.0868628883709
 20
631.23016177781187
 40
3.4252594238409313
 50
0.4209823918205353
 51
89.579017608198612
  0
ARC
  8
_0-1_レイヤ___3
  6
CONTINUOUS
 62
    7
 10
2234.7294166358088
 20
674.63793996221602
 40
3.5872621872279078
 50
272.91792896302832
 51
357.08207103697168
  0
ARC
  8
_0-1_レイヤ___3
  6
CONTINUOUS
 62
    7
 10
2235.0137391429926
 20
674.55704003243545
 40
3.5031881387778272
 50
181.66375495762551
 51
268.33624504239367
  0
ARC
  8
_0-1_レイヤ___3
  6
CONTINUOUS
 62
    7
 10
2234.9569364776403
 20
674.41042012038315
 40
3.4452013305001614
 50
90.746878689354077
 51
179.2531213106268
  0
ARC
  8
_0-1_レイヤ___3
  6
CONTINUOUS
 62
    7
 10
2234.7906360667002
 20
674.33393695614177
 40
3.5234835160405704
 50
1.9743568333665482
 51
88.025643166633458
  0
ARC
  8
_0-1_レイヤ___3
  6
CONTINUOUS
 62
    7
 10
2287.7183618317913
 20
750.45450253226227
 40
3.5991813619218109
 50
269.89916863612302
 51
356.82767728065522
  0
ARC
  8
_0-1_レイヤ___3
  6
CONTINUOUS
 62
    7
 10
2287.8867121825124
 20
750.22561787617724
 40
3.3748150959656664
 50
179.49561245206783
 51
267.0329783700987
  0
ARC
  8
_0-1_レイヤ___3
  6
CONTINUOUS
 62
    7
 10
2287.9462127771567
 20
750.22903505162367
 40
3.4342855643518613
 50
93.910049960930309
 51
179.56135921691271
  0
ARC
  8
_0-1_レイヤ___3
  6
CONTINUOUS
 62
    7
 10
2287.6630939160314
 20
749.99763198557639
 40
3.6580220713060601
 50
4.0396316246746231
 51
89.233522458537578
  0
ARC
  8
_0-1_レイヤ___3
  6
CONTINUOUS
 62
    7
 10
2351.4005698640558
 20
708.67230785994275
 40
1.9340275349647298
 50
150.81741306367624
 51
192.45081468818276
  0
ARC
  8
_0-1_レイヤ___3
  6
CONTINUOUS
 62
    7
 10
2350.2759500427501
 20
709.18748436681562
 40
0.7078552433196595
 50
90.31747450796874
 51
142.81262784618724
  0
ARC
  8
_0-1_レイヤ___3
  6
CONTINUOUS
 62
    7
 10
2350.1312856364475
 20
706.09438047722188
 40
3.8035530884392394
 50
62.08386867858097
 51
87.87941005913666
  0
ARC
  8
_0-1_レイヤ___3
  6
CONTINUOUS
 62
    7
 10
2359.163828647057
 20
718.56408995930815
 40
11.64294402719211
 50
231.47548678562333
 51
242.30182929363804
  0
ARC
  8
_0-1_レイヤ___3
  6
CONTINUOUS
 62
    7
 10
2354.0320278542913
 20
709.93857670640273
 40
1.7063773626695065
 50
260.55560686044566
 51
279.44439313955434
  0
ARC
  8
_0-1_レイヤ___3
  6
CONTINUOUS
 62
    7
 10
2348.5304329654
 20
708.04659200630363
 40
5.7853617419140555
 50
324.35770831961196
 51
2.0676892746890112
  0
ARC
  8
_0-1_レイヤ___3
  6
CONTINUOUS
 62
    7
 10
2351.2565228683366
 20
706.46419772495824
 40
2.6650838976511162
 50
258.21107168661871
 51
317.8383753558619
  0
ARC
  8
_0-1_レイヤ___3
  6
CONTINUOUS
 62
    7
 10
2351.0899088690921
 20
705.11531136248118
 40
1.3154277862712029
 50
210.11417135182433
 51
253.30550226370343
  0
ARC
  8
_0-1_レイヤ___3
  6
CONTINUOUS
 62
    7
 10
2352.6716918377379
 20
705.98233917908055
 40
3.11902758123684
 50
186.38772172450246
 51
209.31291487994224
  0
ARC
  8
_0-1_レイヤ___3
  6
CONTINUOUS
 62
    7
 10
2366.6160863826785
 20
707.33633771766767
 40
17.128729160346591
 50
176.92448863291841
 51
185.69928693210235
  0
ARC
  8
_0-1_レイヤ___3
  6
CONTINUOUS
 62
    7
 10
2306.1332977358206
 20
936.6340548622029
 40
3.3787970671998124
 50
269.63931468291833
 51
0.3606853170912371
  0
ARC
  8
_0-1_レイヤ___3
  6
CONTINUOUS
 62
    7
 10
2306.233413321057
 20
936.77671021049809
 40
3.5234769812059392
 50
181.97425765162365
 51
268.0257423483572
  0
ARC
  8
_0-1_レイヤ___3
  6
CONTINUOUS
 62
    7
 10
2306.2946390727748
 20
936.47271352525058
 40
3.5872621872279069
 50
92.91792896303788
 51
177.08207103698129
  0
ARC
  8
_0-1_レイヤ___3
  6
CONTINUOUS
 62
    7
 10
2306.0103165655887
 20
936.55361345503115
 40
3.5031881387775354
 50
1.6637549576111184
 51
88.336245042379304
  0
ARC
  8
_0-1_レイヤ___3
  6
CONTINUOUS
 62
    7
 10
2244.9294166358077
 20
952.03793596221567
 40
3.5872621872285064
 50
272.91792896303787
 51
357.08207103698129
  0
ARC
  8
_0-1_レイヤ___3
  6
CONTINUOUS
 62
    7
 10
2245.2137391429937
 20
951.95703603243464
 40
3.5031881387778272
 50
181.66375495760633
 51
268.33624504237451
  0
ARC
  8
_0-1_レイヤ___3
  6
CONTINUOUS
 62
    7
 10
2245.1569364776406
 20
951.81041612038393
 40
3.4452013304995859
 50
90.746878689363655
 51
179.25312131063635
  0
ARC
  8
_0-1_レイヤ___3
  6
CONTINUOUS
 62
    7
 10
2244.9906360667001
 20
951.7339329561421
 40
3.5234835160405704
 50
1.9743568333665482
 51
88.025643166633458
  0
ARC
  8
_0-1_レイヤ___3
  6
CONTINUOUS
 62
    7
 10
2235.9294166358077
 20
885.23793596221617
 40
3.587262187228208
 50
272.91792896303309
 51
357.08207103697652
  0
ARC
  8
_0-1_レイヤ___3
  6
CONTINUOUS
 62
    7
 10
2236.2137391429933
 20
885.15703603243446
 40
3.5031881387772419
 50
181.66375495760633
 51
268.33624504237451
  0
ARC
  8
_0-1_レイヤ___3
  6
CONTINUOUS
 62
    7
 10
2236.1569364776406
 20
885.01041612038398
 40
3.4452013304990099
 50
90.746878689363655
 51
179.25312131063635
  0
ARC
  8
_0-1_レイヤ___3
  6
CONTINUOUS
 62
    7
 10
2235.9906360666996
 20
884.93393295614146
 40
3.523483516040276
 50
1.9743568333713319
 51
88.025643166638233
  0
ARC
  8
_0-1_レイヤ___3
  6
CONTINUOUS
 62
    7
 10
2290.1294166358084
 20
886.43793596221622
 40
3.587262187228208
 50
272.91792896302348
 51
357.08207103696691
  0
ARC
  8
_0-1_レイヤ___3
  6
CONTINUOUS
 62
    7
 10
2290.4137391429931
 20
886.35703603243451
 40
3.5031881387772423
 50
181.66375495761594
 51
268.33624504238412
  0
ARC
  8
_0-1_レイヤ___3
  6
CONTINUOUS
 62
    7
 10
2290.3569364776413
 20
886.21041612038334
 40
3.4452013304998741
 50
90.74687868936843
 51
179.25312131064112
  0
ARC
  8
_0-1_レイヤ___3
  6
CONTINUOUS
 62
    7
 10
2290.1906360666999
 20
886.13393295614151
 40
3.5234835160411593
 50
1.9743568333665482
 51
88.025643166633458
  0
ARC
  8
_0-1_レイヤ___3
  6
CONTINUOUS
 62
    7
 10
2202.4301243493201
 20
915.32430243843714
 40
13.09104143924943
 50
20.249951335355746
 51
45.461492565524424
  0
ARC
  8
_0-1_レイヤ___3
  6
CONTINUOUS
 62
    7
 10
2208.4760567181938
 20
921.16844563129553
 40
4.6896325501123028
 50
48.032930257140279
 51
106.90945432456435
  0
ARC
  8
_0-1_レイヤ___3
  6
CONTINUOUS
 62
    7
 10
2208.8636065578744
 20
920.09747420154304
 40
5.8273255956619074
 50
107.49243409498087
 51
146.00887754719861
  0
ARC
  8
_0-1_レイヤ___3
  6
CONTINUOUS
 62
    7
 10
2209.3714553421769
 20
919.3636406404753
 40
6.6665588215273672
 50
143.21869464389462
 51
182.65076833509582
  0
ARC
  8
_0-1_レイヤ___3
  6
CONTINUOUS
 62
    7
 10
2227.4001039806121
 20
923.33020488900934
 40
25.055450591102563
 50
189.82368151277996
 51
207.87590721048736
  0
ARC
  8
_0-1_レイヤ___3
  6
CONTINUOUS
 62
    7
 10
2214.8274956587165
 20
916.86243362964228
 40
10.918868853150759
 50
208.72160753049985
 51
234.66196540176213
  0
ARC
  8
_0-1_レイヤ___3
  6
CONTINUOUS
 62
    7
 10
2211.7049246071065
 20
913.02858807413622
 40
5.9943788437311865
 50
237.81544566630464
 51
291.60439192294979
  0
ARC
  8
_0-1_レイヤ___3
  6
CONTINUOUS
 62
    7
 10
2212.6427127866059
 20
911.38073498873973
 40
4.1255316517902747
 50
287.91908504927602
 51
354.91848841121123
  0
ARC
  8
_0-1_レイヤ___3
  6
CONTINUOUS
 62
    7
 10
2208.3897690168665
 20
911.70896157363836
 40
8.3909795831550973
 50
355.25825737745822
 51
9.233227754322531
  0
ARC
  8
_0-1_レイヤ___3
  6
CONTINUOUS
 62
    7
 10
2196.7882270178807
 20
909.90694354277957
 40
20.131515576919522
 50
8.9974594358385112
 51
18.022148470709212
  0
ARC
  8
_0-1_レイヤ___3
  6
CONTINUOUS
 62
    7
 10
2353.8735946073098
 20
963.43427877563363
 40
145.82546533106938
 50
197.38813848002141
 51
198.92639246873472
  0
ARC
  8
_0-1_レイヤ___3
  6
CONTINUOUS
 62
    7
 10
2204.6629735341871
 20
794.7374487360978
 40
5.9956869730463662
 50
12.697541104225007
 51
67.968742152894492
  0
ARC
  8
_0-1_レイヤ___3
  6
CONTINUOUS
 62
    7
 10
2204.0058593244653
 20
793.72638634605642
 40
7.1830916113231256
 50
66.134881421667842
 51
105.28681192069412
  0
ARC
  8
_0-1_レイヤ___3
  6
CONTINUOUS
 62
    7
 10
2205.8131882063885
 20
791.64279986894735
 40
9.7429058199304244
 50
112.32639783890521
 51
146.25241588609794
  0
ARC
  8
_0-1_レイヤ___3
  6
CONTINUOUS
 62
    7
 10
2202.8168740479641
 20
793.88217079199171
 40
6.010686561096561
 50
148.13503891104577
 51
220.28991950586118
  0
ARC
  8
_0-1_レイヤ___3
  6
CONTINUOUS
 62
    7
 10
2206.0742710662093
 20
797.06935242802592
 40
10.561372382789676
 50
222.05176547049572
 51
248.31630092156078
  0
ARC
  8
_0-1_レイヤ___3
  6
CONTINUOUS
 62
    7
 10
2207.5492349380311
 20
799.52483274016936
 40
13.396085693559423
 50
246.33419549231382
 51
262.11733150540476
  0
ARC
  8
_0-1_レイヤ___3
  6
CONTINUOUS
 62
    7
 10
2206.2458464950523
 20
789.56260460786348
 40
3.3500816522174954
 50
260.83115699401742
 51
312.56733147396767
  0
ARC
  8
_0-1_レイヤ___3
  6
CONTINUOUS
 62
    7
 10
2205.0445142778558
 20
790.82886150734134
 40
5.0953847846753
 50
312.88435739096235
 51
331.72716167567478
  0
ARC
  8
_0-1_レイヤ___3
  6
CONTINUOUS
 62
    7
 10
2200.749325588527
 20
793.07814465264551
 40
9.9437299375813204
 50
332.03575925864936
 51
359.17705480437291
  0
ARC
  8
_0-1_レイヤ___3
  6
CONTINUOUS
 62
    7
 10
2196.6039547138771
 20
793.68774548563329
 40
14.108153498070759
 50
356.9428400958389
 51
9.6608912530207025
  0
ARC
  8
_0-1_レイヤ___3
  6
CONTINUOUS
 62
    7
 10
2195.4708440261256
 20
850.5120763503603
 40
1.9755691130104829
 50
146.05154343465631
 51
187.46741673499864
  0
ARC
  8
_0-1_レイヤ___3
  6
CONTINUOUS
 62
    7
 10
2194.3966840671292
 20
851.13263657663174
 40
0.7428486908461384
 50
88.816298126791509
 51
139.4747857939808
  0
ARC
  8
_0-1_レイヤ___3
  6
CONTINUOUS
 62
    7
 10
2194.2580256524184
 20
849.37821980371928
 40
2.5018513872848072
 50
48.615257587968692
 51
86.47086441213321
  0
ARC
  8
_0-1_レイヤ___3
  6
CONTINUOUS
 62
    7
 10
2198.1014098498754
 20
853.06771473225103
 40
2.8422060069584338
 50
219.61825619968874
 51
278.30672174946596
  0
ARC
  8
_0-1_レイヤ___3
  6
CONTINUOUS
 62
    7
 10
2190.0712710431553
 20
850.83333671742798
 40
8.4605262742610332
 50
338.6657360315275
 51
356.08259021064043
  0
ARC
  8
_0-1_レイヤ___3
  6
CONTINUOUS
 62
    7
 10
2194.8945394725711
 20
848.8047709517864
 40
3.2325811018640467
 50
293.27795282973358
 51
341.05587653662582
  0
ARC
  8
_0-1_レイヤ___3
  6
CONTINUOUS
 62
    7
 10
2195.5793241129727
 20
848.19486504064889
 40
2.4328421795103079
 50
254.08053818272046
 51
284.10070091887223
  0
ARC
  8
_0-1_レイヤ___3
  6
CONTINUOUS
 62
    7
 10
2195.2236490260652
 20
847.17957736858443
 40
1.3604213412162622
 50
215.20308219963536
 51
256.75821782076486
  0
ARC
  8
_0-1_レイヤ___3
  6
CONTINUOUS
 62
    7
 10
2196.329856896833
 20
847.82453657738324
 40
2.6384460462998645
 50
187.1677127836453
 51
212.79850026011661
  0
ARC
  8
_0-1_レイヤ___3
  6
CONTINUOUS
 62
    7
 10
2224.2918349722054
 20
851.09850102763767
 40
30.791351804846325
 50
181.56915382696744
 51
186.72009365523502
  0
ARC
  8
_0-1_レイヤ___3
  6
CONTINUOUS
 62
    7
 10
2179.7916289854584
 20
746.37692766367286
 40
3.5225003990070909
 50
268.70515770431018
 51
358.02168821247761
  0
ARC
  8
_0-1_レイヤ___3
  6
CONTINUOUS
 62
    7
 10
2179.82927202264
 20
746.1715546668845
 40
3.3182997701126213
 50
178.55338674377967
 51
267.97520407835697
  0
ARC
  8
_0-1_レイヤ___3
  6
CONTINUOUS
 62
    7
 10
2180.0282990826136
 20
746.15177923472424
 40
3.5177935375263019
 50
95.158174548649399
 51
178.3132346292044
  0
ARC
  8
_0-1_レイヤ___3
  6
CONTINUOUS
 62
    7
 10
2179.602687497616
 20
745.93367013078341
 40
3.7232625069518543
 50
4.9560213022754143
 51
88.317132780946309
  0
ARC
  8
_0-1_レイヤ___3
  6
CONTINUOUS
 62
    7
 10
2232.6671192309418
 20
822.1002353670824
 40
3.4452013304992986
 50
270.74687868936843
 51
359.25312131064112
  0
ARC
  8
_0-1_レイヤ___3
  6
CONTINUOUS
 62
    7
 10
2232.8334133210569
 20
822.17671221049932
 40
3.5234769812065281
 50
181.97425765164283
 51
268.02574234837635
  0
ARC
  8
_0-1_レイヤ___3
  6
CONTINUOUS
 62
    7
 10
2232.8946390727742
 20
821.87271552524953
 40
3.5872621872285064
 50
92.917928963018724
 51
177.08207103696213
  0
ARC
  8
_0-1_レイヤ___3
  6
CONTINUOUS
 62
    7
 10
2232.6103165655895
 20
821.9536154550317
 40
3.5031881387769497
 50
1.6637549576111055
 51
88.336245042379289
  0
ARC
  8
_0-1_レイヤ___3
  6
CONTINUOUS
 62
    7
 10
2185.8433649633575
 20
646.0986150448648
 40
11.125882074319843
 50
16.482773260019123
 51
43.062562345526956
  0
ARC
  8
_0-1_レイヤ___3
  6
CONTINUOUS
 62
    7
 10
2189.7138451439946
 20
649.66325943485253
 40
5.8642748860044547
 50
43.437653781036097
 51
77.810815381336383
  0
ARC
  8
_0-1_レイヤ___3
  6
CONTINUOUS
 62
    7
 10
2190.2311027570363
 20
650.9674093037338
 40
4.4862240745058433
 50
80.752588852228584
 51
107.09922655514463
  0
ARC
  8
_0-1_レイヤ___3
  6
CONTINUOUS
 62
    7
 10
2191.4172812513148
 20
649.30019077140378
 40
6.4606464716593228
 50
112.81587594674244
 51
149.12759672029432
  0
ARC
  8
_0-1_レイヤ___3
  6
CONTINUOUS
 62
    7
 10
2191.5651306248974
 20
648.78609872116022
 40
6.8610785558862988
 50
146.07487355758929
 51
182.76327874590692
  0
ARC
  8
_0-1_レイヤ___3
  6
CONTINUOUS
 62
    7
 10
2206.9500975563092
 20
651.65471392164613
 40
22.467036311809409
 50
188.18695187080982
 51
207.11329656904007
  0
ARC
  8
_0-1_レイヤ___3
  6
CONTINUOUS
 62
    7
 10
2197.3479353245948
 20
646.78771921132943
 40
11.702026742569762
 50
207.32899221458311
 51
231.92901839435049
  0
ARC
  8
_0-1_レイヤ___3
  6
CONTINUOUS
 62
    7
 10
2193.6960060453935
 20
642.62585983341205
 40
6.1814068446071815
 50
234.79077146852973
 51
291.00799973148133
  0
ARC
  8
_0-1_レイヤ___3
  6
CONTINUOUS
 62
    7
 10
2194.4709539477731
 20
640.89791044814751
 40
4.291755655348779
 50
289.61983731277184
 51
355.95712088141818
  0
ARC
  8
_0-1_レイヤ___3
  6
CONTINUOUS
 62
    7
 10
2190.3430419826423
 20
641.12421181010654
 40
8.4256034990642075
 50
356.40112394178544
 51
10.331797385074141
  0
ARC
  8
_0-1_レイヤ___3
  6
CONTINUOUS
 62
    7
 10
2179.4232672861403
 20
639.12775184638144
 40
19.526383564051031
 50
10.348366047849934
 51
19.654270873112257
  0
ARC
  8
_0-1_レイヤ___3
  6
CONTINUOUS
 62
    7
 10
4006.1046814051588
 20
1308.0442745344776
 40
1925.7799561847601
 50
200.00422397792093
 51
200.11698206290444
  0
ARC
  8
_0-1_レイヤ___3
  6
CONTINUOUS
 62
    7
 10
1890.7612984447474
 20
547.28550855906838
 40
11.457500057432924
 50
17.10447416581869
 51
43.935896165453734
  0
ARC
  8
_0-1_レイヤ___3
  6
CONTINUOUS
 62
    7
 10
1895.5178754191104
 20
551.65157965161234
 40
5.0052387615800686
 50
45.725215116378138
 51
106.31237626072344
  0
ARC
  8
_0-1_レイヤ___3
  6
CONTINUOUS
 62
    7
 10
1895.9516021187369
 20
551.11631364278514
 40
5.6470448027059925
 50
109.01148565758032
 51
147.44148852437226
  0
ARC
  8
_0-1_レイヤ___3
  6
CONTINUOUS
 62
    7
 10
1896.7304153016755
 20
550.16618463846521
 40
6.8254637722209601
 50
144.23581611964221
 51
182.61033970128386
  0
ARC
  8
_0-1_レイヤ___3
  6
CONTINUOUS
 62
    7
 10
1912.1501015563099
 20
553.05471592164758
 40
22.467036311809935
 50
188.18695187081406
 51
207.11329656904431
  0
ARC
  8
_0-1_レイヤ___3
  6
CONTINUOUS
 62
    7
 10
1902.5479393245951
 20
548.18772121132633
 40
11.702026742568059
 50
207.32899221457305
 51
231.92901839434046
  0
ARC
  8
_0-1_レイヤ___3
  6
CONTINUOUS
 62
    7
 10
1898.8960100453933
 20
544.02586183341236
 40
6.1814068446077037
 50
234.79077146853601
 51
291.00799973148759
  0
ARC
  8
_0-1_レイヤ___3
  6
CONTINUOUS
 62
    7
 10
1899.8553692342198
 20
542.17064746311644
 40
4.112044622863757
 50
287.79461301548821
 51
355.04296044497892
  0
ARC
  8
_0-1_レイヤ___3
  6
CONTINUOUS
 62
    7
 10
1895.7374414669391
 20
542.43510562670372
 40
8.2379396086590688
 50
355.68532039893677
 51
9.9274201046663002
  0
ARC
  8
_0-1_レイヤ___3
  6
CONTINUOUS
 62
    7
 10
1885.0848254078683
 20
540.65597556947614
 40
19.037961718696192
 50
9.6745397320093005
 51
18.940174508818988
  0
ARC
  8
_0-1_レイヤ___3
  6
CONTINUOUS
 62
    7
 10
1655.5081062844636
 20
459.55328361115704
 40
262.51848876327711
 50
19.41934755765471
 51
20.305823437318256
  0
ARC
  8
_0-1_レイヤ___3
  6
CONTINUOUS
 62
    7
 10
2263.9191333959607
 20
661.7586910896764
 40
11.228345183026857
 50
16.008951669569285
 51
42.992497577439153
  0
ARC
  8
_0-1_レイヤ___3
  6
CONTINUOUS
 62
    7
 10
2268.3580150301641
 20
665.72883959295518
 40
5.2757345512713441
 50
44.32785929608643
 51
103.66078970507748
  0
ARC
  8
_0-1_レイヤ___3
  6
CONTINUOUS
 62
    7
 10
2269.6172792513148
 20
664.90019077140369
 40
6.4606464716593228
 50
112.81587594674244
 51
149.12759672029432
  0
ARC
  8
_0-1_レイヤ___3
  6
CONTINUOUS
 62
    7
 10
2269.7651286248984
 20
664.38609872116012
 40
6.8610785558871683
 50
146.0748735575913
 51
182.76327874590893
  0
ARC
  8
_0-1_レイヤ___3
  6
CONTINUOUS
 62
    7
 10
2285.6462696883518
 20
667.29454474163413
 40
22.963847065563527
 50
188.1090265376323
 51
206.92679048276167
  0
ARC
  8
_0-1_レイヤ___3
  6
CONTINUOUS
 62
    7
 10
2275.1205511058506
 20
661.99009293845711
 40
11.177197192796323
 50
207.11755813195265
 51
232.73046549091285
  0
ARC
  8
_0-1_レイヤ___3
  6
CONTINUOUS
 62
    7
 10
2271.8442876649347
 20
658.28566703952652
 40
6.2558364916149536
 50
236.06581261823999
 51
291.25380388994768
  0
ARC
  8
_0-1_レイヤ___3
  6
CONTINUOUS
 62
    7
 10
2272.8918323083371
 20
656.28253788181132
 40
4.0170146821928636
 50
287.68338595574448
 51
354.75507342184585
  0
ARC
  8
_0-1_レイヤ___3
  6
CONTINUOUS
 62
    7
 10
2268.8400464145543
 20
656.52919104869875
 40
8.0753471773861278
 50
355.64035074512657
 51
10.027871287450811
  0
ARC
  8
_0-1_レイヤ___3
  6
CONTINUOUS
 62
    7
 10
2256.8654750655878
 20
654.56967997754214
 40
20.208787634550134
 50
9.5869300816801104
 51
18.65944376020482
  0
ARC
  8
_0-1_レイヤ___3
  6
CONTINUOUS
 62
    7
 10
2368.0346409504277
 20
694.48312901204099
 40
97.912801327660446
 50
197.613455665343
 51
199.97487494359024
  0
ARC
  8
_0-1_レイヤ___3
  6
CONTINUOUS
 62
    7
 10
2077.4016357879327
 20
881.20236926742018
 40
6.2807658532953949
 50
13.375630017845571
 51
84.606196179026554
  0
ARC
  8
_0-1_レイヤ___3
  6
CONTINUOUS
 62
    7
 10
2077.028804932932
 20
880.48979241128882
 40
7.0318167479217326
 50
82.126799419071787
 51
105.81819246242196
  0
ARC
  8
_0-1_レイヤ___3
  6
CONTINUOUS
 62
    7
 10
2078.8131902063883
 20
878.2427978689484
 40
9.7429058199296712
 50
112.32639783890882
 51
146.25241588610157
  0
ARC
  8
_0-1_レイヤ___3
  6
CONTINUOUS
 62
    7
 10
2075.9013478814013
 20
880.44633461169929
 40
6.1013620198043315
 50
148.26801549038217
 51
220.35803433191882
  0
ARC
  8
_0-1_レイヤ___3
  6
CONTINUOUS
 62
    7
 10
2079.2688247532842
 20
883.61978980930098
 40
10.725062743678915
 50
221.627258341036
 51
248.00510668958088
  0
ARC
  8
_0-1_レイヤ___3
  6
CONTINUOUS
 62
    7
 10
2080.6496896114968
 20
885.9669222254754
 40
13.42453085775136
 50
246.29208789340692
 51
262.5628249129785
  0
ARC
  8
_0-1_レイヤ___3
  6
CONTINUOUS
 62
    7
 10
2079.2897390124936
 20
876.11701419897508
 40
3.4822324355416439
 50
263.77305006399286
 51
314.0762387681072
  0
ARC
  8
_0-1_レイヤ___3
  6
CONTINUOUS
 62
    7
 10
2077.9555535096979
 20
877.45881073756459
 40
5.3743370534642345
 50
314.34409691668856
 51
332.71743430318116
  0
ARC
  8
_0-1_レイヤ___3
  6
CONTINUOUS
 62
    7
 10
2074.0371315180259
 20
879.41766780704802
 40
9.7549163162929364
 50
333.04151063363634
 51
0.1037085784031295
  0
ARC
  8
_0-1_レイヤ___3
  6
CONTINUOUS
 62
    7
 10
2070.6229951710334
 20
879.91236503214714
 40
13.177674096810676
 50
357.92540259411953
 51
12.014078862088022
  0
ARC
  8
_0-1_レイヤ___3
  6
CONTINUOUS
 62
    7
 10
2279.4296417064056
 20
580.56213950101005
 40
16.517876739317039
 50
147.6719878171003
 51
179.67674457761919
  0
ARC
  8
_0-1_レイヤ___3
  6
CONTINUOUS
 62
    7
 10
2271.0418524097531
 20
585.59504420125359
 40
6.7427830592107751
 50
113.14047326701002
 51
145.69431521992419
  0
ARC
  8
_0-1_レイヤ___3
  6
CONTINUOUS
 62
    7
 10
2269.909381282534
 20
587.57668498765702
 40
4.4832280157784403
 50
87.409288435092932
 51
109.78253443871631
  0
ARC
  8
_0-1_レイヤ___3
  6
CONTINUOUS
 62
    7
 10
2269.3334985352562
 20
581.29685308769604
 40
10.786609725768084
 50
58.10956448756955
 51
85.861047676027965
  0
ARC
  8
_0-1_レイヤ___3
  6
CONTINUOUS
 62
    7
 10
2266.2747566344274
 20
575.88862188055396
 40
16.996435106306336
 50
48.791493341863685
 51
58.986391614967076
  0
ARC
  8
_0-1_レイヤ___3
  6
CONTINUOUS
 62
    7
 10
2257.8797946796426
 20
566.30309756908014
 40
29.738399721417789
 50
41.209891756095693
 51
48.790108243916023
  0
ARC
  8
_0-1_レイヤ___3
  6
CONTINUOUS
 62
    7
 10
2191.7372422924741
 20
509.58319591677167
 40
116.86919690364434
 50
37.454702598685415
 51
40.765939051331678
  0
ARC
  8
_0-1_レイヤ___3
  6
CONTINUOUS
 62
    7
 10
2272.2281017258701
 20
571.79684364947343
 40
15.144888072470387
 50
352.17664631601582
 51
35.797054817566867
  0
ARC
  8
_0-1_レイヤ___3
  6
CONTINUOUS
 62
    7
 10
2280.4910895061698
 20
571.12517205032555
 40
6.8827253810309506
 50
273.5063219724376
 51
348.35005023894684
  0
ARC
  8
_0-1_レイヤ___3
  6
CONTINUOUS
 62
    7
 10
2279.9761838851891
 20
576.88111667384328
 40
12.660421568315854
 50
235.75652384113363
 51
274.23910528784256
  0
ARC
  8
_0-1_レイヤ___3
  6
CONTINUOUS
 62
    7
 10
2282.6813332709244
 20
581.37243251454242
 40
17.897769088794529
 50
193.9579034982433
 51
236.68842525459246
  0
ARC
  8
_0-1_レイヤ___3
  6
CONTINUOUS
 62
    7
 10
1895.6296477064056
 20
649.1621375010086
 40
16.51787673931733
 50
147.67198781709689
 51
179.67674457761575
  0
ARC
  8
_0-1_レイヤ___3
  6
CONTINUOUS
 62
    7
 10
1887.2418584097527
 20
654.19504220125441
 40
6.7427830592099927
 50
113.14047326701549
 51
145.69431521992968
  0
ARC
  8
_0-1_レイヤ___3
  6
CONTINUOUS
 62
    7
 10
1886.1093872825354
 20
656.17668298765716
 40
4.4832280157786588
 50
87.409288435111435
 51
109.78253443873481
  0
ARC
  8
_0-1_レイヤ___3
  6
CONTINUOUS
 62
    7
 10
1885.5431544751054
 20
650.34869060617643
 40
10.335277703006991
 50
57.396487962888941
 51
85.733614391262975
  0
ARC
  8
_0-1_レイヤ___3
  6
CONTINUOUS
 62
    7
 10
1882.2260707356418
 20
644.707377918867
 40
16.876730531082206
 50
48.030937744415318
 51
58.229266963896663
  0
ARC
  8
_0-1_レイヤ___3
  6
CONTINUOUS
 62
    7
 10
1873.6069198614132
 20
635.17376408398923
 40
29.72892633264631
 50
40.383946408522128
 51
47.967367949779472
  0
ARC
  8
_0-1_レイヤ___3
  6
CONTINUOUS
 62
    7
 10
1815.2302015105347
 20
585.90391502915418
 40
106.11829240078455
 50
36.52004196661769
 51
40.225839167642121
  0
ARC
  8
_0-1_レイヤ___3
  6
CONTINUOUS
 62
    7
 10
1889.238930884796
 20
640.24771924647575
 40
14.305832223852498
 50
352.80244517677335
 51
38.000303550677955
  0
ARC
  8
_0-1_レイヤ___3
  6
CONTINUOUS
 62
    7
 10
1896.6840119461813
 20
639.70466775431328
 40
6.8626997337550701
 50
273.57581958592351
 51
349.51094207000313
  0
ARC
  8
_0-1_レイヤ___3
  6
CONTINUOUS
 62
    7
 10
1895.8606616036423
 20
644.9942724192133
 40
12.203273579912281
 50
237.21109097477822
 51
275.8856831307827
  0
ARC
  8
_0-1_レイヤ___3
  6
CONTINUOUS
 62
    7
 10
1898.7467270941795
 20
649.66810582035669
 40
17.695678312507287
 50
193.10674338057169
 51
237.55061462366666
  0
ARC
  8
_0-1_レイヤ___3
  6
CONTINUOUS
 62
    7
 10
2177.3045897024936
 20
580.10346985802153
 40
1.809652958283988
 50
144.46148687660249
 51
187.88121117883941
  0
ARC
  8
_0-1_レイヤ___3
  6
CONTINUOUS
 62
    7
 10
2176.3801690378205
 20
580.65149438353819
 40
0.744518396262977
 50
87.547343411639417
 51
137.41152538266934
  0
ARC
  8
_0-1_レイヤ___3
  6
CONTINUOUS
 62
    7
 10
2176.1616984694597
 20
578.34663245253728
 40
3.0589584948100592
 50
55.096325197704594
 51
85.30592209321938
  0
ARC
  8
_0-1_レイヤ___3
  6
CONTINUOUS
 62
    7
 10
2182.8552505021657
 20
587.13168239771198
 40
7.989244047967297
 50
231.77622275783315
 51
246.67570503967224
  0
ARC
  8
_0-1_レイヤ___3
  6
CONTINUOUS
 62
    7
 10
2179.9917250355998
 20
581.33282993251078
 40
1.5664357494617405
 50
258.96999717203505
 51
289.39983507823649
  0
ARC
  8
_0-1_レイヤ___3
  6
CONTINUOUS
 62
    7
 10
2171.9297883000313
 20
580.34350584772915
 40
8.5961145308695013
 50
338.94570720440186
 51
356.74440940113595
  0
ARC
  8
_0-1_レイヤ___3
  6
CONTINUOUS
 62
    7
 10
2176.8224596591408
 20
578.34019411866416
 40
3.3122708446982072
 50
294.04447233185022
 51
340.88116102000754
  0
ARC
  8
_0-1_レイヤ___3
  6
CONTINUOUS
 62
    7
 10
2177.4183887735107
 20
577.88179344014247
 40
2.6748281534901057
 50
259.08775986254579
 51
286.36486212523971
  0
ARC
  8
_0-1_レイヤ___3
  6
CONTINUOUS
 62
    7
 10
2177.2185099324079
 20
576.57196789649925
 40
1.3518370576095378
 50
215.06497461618073
 51
256.89632540421951
  0
ARC
  8
_0-1_レイヤ___3
  6
CONTINUOUS
 62
    7
 10
2178.3419670105768
 20
577.23530746828237
 40
2.6544590198811377
 50
187.79401532804545
 51
212.85225833124508
  0
ARC
  8
_0-1_レイヤ___3
  6
CONTINUOUS
 62
    7
 10
2203.9172770816135
 20
580.26501176569946
 40
28.408201431717583
 50
180.82630388472572
 51
186.85288879117422
  0
ARC
  8
_0-1_レイヤ___3
  6
CONTINUOUS
 62
    7
 10
2214.5294186358078
 20
551.63794196221579
 40
3.5872621872276076
 50
272.91792896303309
 51
357.08207103697652
  0
ARC
  8
_0-1_レイヤ___3
  6
CONTINUOUS
 62
    7
 10
2214.894641072774
 20
551.63794196221625
 40
3.5872621872285064
 50
182.91792896303789
 51
267.08207103698129
  0
ARC
  8
_0-1_レイヤ___3
  6
CONTINUOUS
 62
    7
 10
2214.8137411429934
 20
551.35361945503041
 40
3.5031881387781212
 50
91.663754957611118
 51
178.33624504237929
  0
ARC
  8
_0-1_レイヤ___3
  6
CONTINUOUS
 62
    7
 10
2214.5906380666997
 20
551.33393895614199
 40
3.52348351604057
 50
1.9743568333569685
 51
88.025643166623865
  0
ARC
  8
_0-1_レイヤ___3
  6
CONTINUOUS
 62
    7
 10
2162.7906380666991
 20
686.37672053132428
 40
3.5234835160408648
 50
271.9743568333713
 51
358.02564316663825
  0
ARC
  8
_0-1_レイヤ___3
  6
CONTINUOUS
 62
    7
 10
2163.0946410727747
 20
686.43793996221552
 40
3.5872621872279069
 50
182.91792896301871
 51
267.08207103696213
  0
ARC
  8
_0-1_レイヤ___3
  6
CONTINUOUS
 62
    7
 10
2163.0137411429932
 20
686.15361745503174
 40
3.5031881387769497
 50
91.663754957620682
 51
178.33624504238887
  0
ARC
  8
_0-1_レイヤ___3
  6
CONTINUOUS
 62
    7
 10
2162.8671212309418
 20
686.21042012038379
 40
3.4452013304995859
 50
0.7468786893636507
 51
89.253121310636345
  0
ARC
  8
_0-1_レイヤ___3
  6
CONTINUOUS
 62
    7
 10
2216.9294186358084
 20
687.63793996221602
 40
3.5872621872285073
 50
272.91792896302832
 51
357.08207103697168
  0
ARC
  8
_0-1_レイヤ___3
  6
CONTINUOUS
 62
    7
 10
2217.2946410727745
 20
687.63793996221602
 40
3.587262187228208
 50
182.91792896302354
 51
267.08207103696697
  0
ARC
  8
_0-1_レイヤ___3
  6
CONTINUOUS
 62
    7
 10
2217.2946410727741
 20
687.27271752525007
 40
3.5872621872279078
 50
92.917928963028288
 51
177.08207103697171
  0
ARC
  8
_0-1_レイヤ___3
  6
CONTINUOUS
 62
    7
 10
2216.9294186358084
 20
687.27271752524962
 40
3.587262187228208
 50
2.9179289630330754
 51
87.082071036976487
  0
ARC
  8
_0-1_レイヤ___3
  6
CONTINUOUS
 62
    7
 10
2286.7811211407807
 20
910.86093305008126
 40
14.874624474604833
 50
147.67219234430172
 51
181.56256214347039
  0
ARC
  8
_0-1_レイヤ___3
  6
CONTINUOUS
 62
    7
 10
2280.1633679615975
 20
914.97010446458467
 40
7.0854899666856426
 50
115.6879126330207
 51
147.13309388532747
  0
ARC
  8
_0-1_レイヤ___3
  6
CONTINUOUS
 62
    7
 10
2278.7217475797725
 20
917.33254525882012
 40
4.3403618706120692
 50
84.841062364145998
 51
112.05399213165124
  0
ARC
  8
_0-1_レイヤ___3
  6
CONTINUOUS
 62
    7
 10
2278.3415392498659
 20
911.10434069331154
 40
10.579079218996233
 50
57.587590320868429
 51
85.82337313516355
  0
ARC
  8
_0-1_レイヤ___3
  6
CONTINUOUS
 62
    7
 10
2275.048174520286
 20
905.44125283271546
 40
17.127101375817038
 50
48.432551414681967
 51
58.441256848128262
  0
ARC
  8
_0-1_レイヤ___3
  6
CONTINUOUS
 62
    7
 10
2266.7660568965966
 20
896.15174185736896
 40
29.572496534532419
 50
40.800778936669246
 51
48.368861981048788
  0
ARC
  8
_0-1_レイヤ___3
  6
CONTINUOUS
 62
    7
 10
2215.5804241420647
 20
852.57592408417986
 40
96.794191334604079
 50
36.576627544111467
 51
40.528498696966004
  0
ARC
  8
_0-1_レイヤ___3
  6
CONTINUOUS
 62
    7
 10
2281.6977334973494
 20
901.4470858058578
 40
14.576587618382771
 50
351.98772609522865
 51
37.176548634271754
  0
ARC
  8
_0-1_レイヤ___3
  6
CONTINUOUS
 62
    7
 10
2289.2659868269666
 20
900.83722675631543
 40
7.011727656026439
 50
275.28657122164577
 51
348.29989380868699
  0
ARC
  8
_0-1_レイヤ___3
  6
CONTINUOUS
 62
    7
 10
2288.9962230015008
 20
907.08674634246699
 40
13.263077171299248
 50
224.35003452366277
 51
273.9593781812589
  0
ARC
  8
_0-1_レイヤ___3
  6
CONTINUOUS
 62
    7
 10
2292.3001895787129
 20
911.18692219583431
 40
18.502343060028899
 50
193.53921046999253
 51
226.27764417281617
  0
ARC
  8
_0-1_レイヤ___3
  6
CONTINUOUS
 62
    7
 10
2294.0671192309419
 20
821.10023536708218
 40
3.4452013304995859
 50
270.74687868936365
 51
359.25312131063635
  0
ARC
  8
_0-1_レイヤ___3
  6
CONTINUOUS
 62
    7
 10
2294.233413321057
 20
821.17671221049841
 40
3.5234769812059397
 50
181.97425765163325
 51
268.0257423483668
  0
ARC
  8
_0-1_レイヤ___3
  6
CONTINUOUS
 62
    7
 10
2294.2946390727748
 20
820.87271552524976
 40
3.587262187228208
 50
92.917928963033077
 51
177.08207103697649
  0
ARC
  8
_0-1_レイヤ___3
  6
CONTINUOUS
 62
    7
 10
2294.0103165655887
 20
820.95361545503101
 40
3.5031881387775354
 50
1.6637549576111184
 51
88.336245042379304
  0
ARC
  8
_0-1_レイヤ___3
  6
CONTINUOUS
 62
    7
 10
2157.8671212309418
 20
913.50023336708227
 40
3.4452013304992986
 50
270.74687868935882
 51
359.25312131063157
  0
ARC
  8
_0-1_レイヤ___3
  6
CONTINUOUS
 62
    7
 10
2157.9136766589081
 20
913.45697154834943
 40
3.4016472032412519
 50
180.02773801992655
 51
269.97226198007348
  0
ARC
  8
_0-1_レイヤ___3
  6
CONTINUOUS
 62
    7
 10
2158.0946410727752
 20
913.27271352525008
 40
3.587262187228208
 50
92.917928963042669
 51
177.08207103698609
  0
ARC
  8
_0-1_レイヤ___3
  6
CONTINUOUS
 62
    7
 10
2157.8103185655887
 20
913.35361345503111
 40
3.5031881387778272
 50
1.663754957606322
 51
88.3362450423745
  0
ARC
  8
_0-1_レイヤ___3
  6
CONTINUOUS
 62
    7
 10
2139.8932926984958
 20
865.20468573869289
 40
5.7562409738827744
 50
12.548559219264817
 51
69.469614583879533
  0
ARC
  8
_0-1_レイヤ___3
  6
CONTINUOUS
 62
    7
 10
2139.1355780628605
 20
863.77544751732307
 40
7.3633849018609858
 50
67.848192622223806
 51
105.95082447815841
  0
ARC
  8
_0-1_レイヤ___3
  6
CONTINUOUS
 62
    7
 10
2138.4157605320461
 20
865.61623523181674
 40
5.3988696548772452
 50
103.974034854904
 51
124.31704906593068
  0
ARC
  8
_0-1_レイヤ___3
  6
CONTINUOUS
 62
    7
 10
2140.4176794703853
 20
862.65141611294985
 40
8.9762480526243333
 50
124.20192779295958
 51
149.14286092922271
  0
ARC
  8
_0-1_レイヤ___3
  6
CONTINUOUS
 62
    7
 10
2137.8168740479632
 20
864.08217079199198
 40
6.0106865610960778
 50
148.13503891104611
 51
220.28991950586155
  0
ARC
  8
_0-1_レイヤ___3
  6
CONTINUOUS
 62
    7
 10
2141.0742710662107
 20
867.26935242802574
 40
10.56137238279039
 50
222.05176547049015
 51
248.31630092155521
  0
ARC
  8
_0-1_レイヤ___3
  6
CONTINUOUS
 62
    7
 10
2142.5492349380293
 20
869.72483274016918
 40
13.396085693558861
 50
246.33419549232235
 51
262.11733150541329
  0
ARC
  8
_0-1_レイヤ___3
  6
CONTINUOUS
 62
    7
 10
2141.2046033351317
 20
860.01561148712676
 40
3.5941975582970311
 50
262.12300355286561
 51
334.62457744627841
  0
ARC
  8
_0-1_レイヤ___3
  6
CONTINUOUS
 62
    7
 10
2137.3136414552168
 20
862.57632191001539
 40
8.2325421523311419
 50
330.12268658758182
 51
344.63758351631805
  0
ARC
  8
_0-1_レイヤ___3
  6
CONTINUOUS
 62
    7
 10
2131.8883393123551
 20
864.00426396170383
 40
13.84242221375594
 50
344.88746471708265
 51
10.199079136132266
  0
ARC
  8
_0-1_レイヤ___3
  6
CONTINUOUS
 62
    7
 10
2114.6671212309416
 20
816.50023536708181
 40
3.4452013304995854
 50
270.74687868937326
 51
359.25312131064595
  0
ARC
  8
_0-1_レイヤ___3
  6
CONTINUOUS
 62
    7
 10
2114.8334153210567
 20
816.57671221049873
 40
3.5234769812068234
 50
181.97425765163806
 51
268.02574234837158
  0
ARC
  8
_0-1_レイヤ___3
  6
CONTINUOUS
 62
    7
 10
2114.894641072774
 20
816.2727155252494
 40
3.5872621872285064
 50
92.917928963018724
 51
177.08207103696213
  0
ARC
  8
_0-1_レイヤ___3
  6
CONTINUOUS
 62
    7
 10
2114.6103185655893
 20
816.35361545503179
 40
3.5031881387769497
 50
1.6637549576111055
 51
88.336245042379289
  0
ARC
  8
_0-1_レイヤ___3
  6
CONTINUOUS
 62
    7
 10
2097.0103185655894
 20
829.557038032435
 40
3.5031881387778281
 50
271.66375495761588
 51
358.33624504238406
  0
ARC
  8
_0-1_レイヤ___3
  6
CONTINUOUS
 62
    7
 10
2097.1569384776412
 20
829.5002353670825
 40
3.4452013304998741
 50
180.74687868935888
 51
269.25312131063157
  0
ARC
  8
_0-1_レイヤ___3
  6
CONTINUOUS
 62
    7
 10
2097.2334153210568
 20
829.33394127696738
 40
3.5234769812059397
 50
91.974257651633238
 51
178.02574234836678
  0
ARC
  8
_0-1_レイヤ___3
  6
CONTINUOUS
 62
    7
 10
2097.0557217480446
 20
829.39901863748582
 40
3.4567667448261297
 50
0.933346033809301
 51
89.066653966200249
  0
ARC
  8
_0-1_レイヤ___3
  6
CONTINUOUS
 62
    7
 10
2145.3698266119291
 20
579.98219808918384
 40
5.8816464389380521
 50
12.501111248787401
 51
69.058320979688645
  0
ARC
  8
_0-1_レイヤ___3
  6
CONTINUOUS
 62
    7
 10
2144.5976955039487
 20
578.53331853962436
 40
7.5135431987542152
 50
67.508040365535464
 51
102.96467625301101
  0
ARC
  8
_0-1_レイヤ___3
  6
CONTINUOUS
 62
    7
 10
2146.3013124422969
 20
576.78569188127904
 40
9.6822304019623981
 50
110.49048604203058
 51
145.60359902161048
  0
ARC
  8
_0-1_レイヤ___3
  6
CONTINUOUS
 62
    7
 10
2143.6283850760801
 20
579.15926933628475
 40
6.152172712379036
 50
149.78495804639803
 51
221.09570601561856
  0
ARC
  8
_0-1_レイヤ___3
  6
CONTINUOUS
 62
    7
 10
2147.3683087509598
 20
582.77014421448393
 40
11.347167815220418
 50
222.42319179894091
 51
265.67223729143689
  0
ARC
  8
_0-1_レイヤ___3
  6
CONTINUOUS
 62
    7
 10
2147.0000323350241
 20
575.0116339516378
 40
3.5896293579918122
 50
262.18656557235829
 51
335.71542484259191
  0
ARC
  8
_0-1_レイヤ___3
  6
CONTINUOUS
 62
    7
 10
2142.04461661801
 20
577.97234052104864
 40
9.3475870856881755
 50
331.66219941708175
 51
359.65055796203364
  0
ARC
  8
_0-1_レイヤ___3
  6
CONTINUOUS
 62
    7
 10
2138.1739247318492
 20
578.48896264963309
 40
13.230546345159285
 50
357.51506912992176
 51
12.068998963968241
  0
ARC
  8
_0-1_レイヤ___3
  6
CONTINUOUS
 62
    7
 10
2136.184648449057
 20
635.87464953861945
 40
1.9189920089692927
 50
150.64663792509617
 51
192.62158982675592
  0
ARC
  8
_0-1_レイヤ___3
  6
CONTINUOUS
 62
    7
 10
2135.0312070153641
 20
636.42697442158783
 40
0.648354844285601
 50
89.927284864507058
 51
143.20281748974915
  0
ARC
  8
_0-1_レイヤ___3
  6
CONTINUOUS
 62
    7
 10
2134.9719404446682
 20
634.95115246205023
 40
2.1250260263849268
 50
61.312233956601276
 51
88.379629942762989
  0
ARC
  8
_0-1_レイヤ___3
  6
CONTINUOUS
 62
    7
 10
2133.5789692118583
 20
631.08920745886303
 40
6.2138013029946091
 50
59.721076766484629
 51
67.148820879395601
  0
ARC
  8
_0-1_レイヤ___3
  6
CONTINUOUS
 62
    7
 10
2142.2599211800152
 20
643.31015768237398
 40
8.8186040811495268
 50
231.01534814798126
 51
244.12954186048663
  0
ARC
  8
_0-1_レイヤ___3
  6
CONTINUOUS
 62
    7
 10
2138.5975035596157
 20
636.85493382214668
 40
1.4911846577246337
 50
262.85504091374673
 51
290.18456258953836
  0
ARC
  8
_0-1_レイヤ___3
  6
CONTINUOUS
 62
    7
 10
2132.8862541542026
 20
635.28203162718137
 40
6.2281871325784
 50
325.0632982868371
 51
1.5944406984891679
  0
ARC
  8
_0-1_レイヤ___3
  6
CONTINUOUS
 62
    7
 10
2136.3309611266773
 20
633.1853843482188
 40
2.2181552691679558
 50
253.79769531797479
 51
318.49098224257898
  0
ARC
  8
_0-1_レイヤ___3
  6
CONTINUOUS
 62
    7
 10
2135.8361453082862
 20
632.31409461045155
 40
1.264870014323729
 50
220.33926292766745
 51
264.3687863448755
  0
ARC
  8
_0-1_レイヤ___3
  6
CONTINUOUS
 62
    7
 10
2136.6876195381296
 20
632.8460764109459
 40
2.2629372860382038
 50
188.91660116233518
 51
216.64821029864814
  0
ARC
  8
_0-1_レイヤ___3
  6
CONTINUOUS
 62
    7
 10
2146.4934407199376
 20
634.54816574413576
 40
12.215142872088677
 50
175.74098240379539
 51
189.67485256794103
  0
ARC
  8
_0-1_レイヤ___3
  6
CONTINUOUS
 62
    7
 10
2107.33349497275
 20
578.3266720217332
 40
16.021979700488615
 50
147.1599115896021
 51
179.53990198887931
  0
ARC
  8
_0-1_レイヤ___3
  6
CONTINUOUS
 62
    7
 10
2099.4307379690504
 20
583.1766636449529
 40
6.7553387035992207
 50
112.99250920283325
 51
145.37227496338872
  0
ARC
  8
_0-1_レイヤ___3
  6
CONTINUOUS
 62
    7
 10
2098.3107613818497
 20
585.16756833064642
 40
4.4922734193620162
 50
87.432102975894722
 51
109.75971989791454
  0
ARC
  8
_0-1_レイヤ___3
  6
CONTINUOUS
 62
    7
 10
2097.7278535637834
 20
579.30280187220978
 40
10.382186016938636
 50
57.461831931345586
 51
85.668270422810394
  0
ARC
  8
_0-1_レイヤ___3
  6
CONTINUOUS
 62
    7
 10
2094.3937342193926
 20
573.52268494386612
 40
17.050917599233081
 50
48.410134468867369
 51
58.463673793960346
  0
ARC
  8
_0-1_レイヤ___3
  6
CONTINUOUS
 62
    7
 10
2085.5078013855937
 20
563.62152282854345
 40
30.354667863009798
 50
40.898421712028636
 51
48.27121920567771
  0
ARC
  8
_0-1_レイヤ___3
  6
CONTINUOUS
 62
    7
 10
2012.4795286523818
 20
501.12024388874801
 40
126.47678016662518
 50
37.580499812591498
 51
40.640141837433099
  0
ARC
  8
_0-1_レイヤ___3
  6
CONTINUOUS
 62
    7
 10
2100.9233607961469
 20
569.29362038684962
 40
14.808273723939408
 50
352.71294209961832
 51
37.241986486329886
  0
ARC
  8
_0-1_レイヤ___3
  6
CONTINUOUS
 62
    7
 10
2108.7877354497814
 20
568.79864994308741
 40
6.9630859628994894
 50
274.31824549179976
 51
348.54111636803157
  0
ARC
  8
_0-1_レイヤ___3
  6
CONTINUOUS
 62
    7
 10
2108.3962250015011
 20
575.08675234246562
 40
13.263077171297979
 50
224.3500345236607
 51
273.9593781812568
  0
ARC
  8
_0-1_レイヤ___3
  6
CONTINUOUS
 62
    7
 10
2111.7001915787132
 20
579.18692819583407
 40
18.502343060028899
 50
193.53921046999253
 51
226.27764417281617
  0
ARC
  8
_0-1_レイヤ___3
  6
CONTINUOUS
 62
    7
 10
2102.5906380666993
 20
544.37672253132428
 40
3.5234835160408648
 50
271.9743568333713
 51
358.02564316663825
  0
ARC
  8
_0-1_レイヤ___3
  6
CONTINUOUS
 62
    7
 10
2102.894641072774
 20
544.43794196221597
 40
3.5872621872285073
 50
182.91792896302832
 51
267.08207103697174
  0
ARC
  8
_0-1_レイヤ___3
  6
CONTINUOUS
 62
    7
 10
2102.813741142993
 20
544.15361945503059
 40
3.5031881387775354
 50
91.663754957611118
 51
178.33624504237929
  0
ARC
  8
_0-1_レイヤ___3
  6
CONTINUOUS
 62
    7
 10
2102.667121230942
 20
544.21042212038378
 40
3.4452013304995859
 50
0.7468786893636507
 51
89.253121310636345
  0
ARC
  8
_0-1_レイヤ___3
  6
CONTINUOUS
 62
    7
 10
2141.8281001539453
 20
762.06589192263755
 40
6.0457553573302905
 50
13.286468056035332
 51
85.789076959782236
  0
ARC
  8
_0-1_レイヤ___3
  6
CONTINUOUS
 62
    7
 10
2141.4691868465543
 20
761.33802133271411
 40
6.8048316153199178
 50
83.224386972913919
 51
106.71509448331069
  0
ARC
  8
_0-1_レイヤ___3
  6
CONTINUOUS
 62
    7
 10
2140.9645414315883
 20
762.11959519553625
 40
5.9167902003668491
 50
104.21078056907585
 51
123.11550084727287
  0
ARC
  8
_0-1_レイヤ___3
  6
CONTINUOUS
 62
    7
 10
2142.6566386083728
 20
759.33071798965352
 40
9.1777304457335536
 50
122.45129057613796
 51
147.5487094238851
  0
ARC
  8
_0-1_レイヤ___3
  6
CONTINUOUS
 62
    7
 10
2140.1404513009229
 20
761.19616620318175
 40
6.0576277565118826
 50
149.66800630754
 51
221.33519914235322
  0
ARC
  8
_0-1_レイヤ___3
  6
CONTINUOUS
 62
    7
 10
2143.5652680971903
 20
764.51630784108238
 40
10.824476537263729
 50
222.55796955611854
 51
248.35170059938395
  0
ARC
  8
_0-1_レイヤ___3
  6
CONTINUOUS
 62
    7
 10
2144.9602496737425
 20
766.76382490458855
 40
13.436221187466224
 50
246.35791801223593
 51
262.09360898548266
  0
ARC
  8
_0-1_レイヤ___3
  6
CONTINUOUS
 62
    7
 10
2143.6011966050951
 20
756.98983153928248
 40
3.5681939773303979
 50
262.12045886606182
 51
334.88441328778583
  0
ARC
  8
_0-1_レイヤ___3
  6
CONTINUOUS
 62
    7
 10
2139.8847800074755
 20
759.41608449400087
 40
7.9871053630452575
 50
330.43636031755636
 51
345.34474299495486
  0
ARC
  8
_0-1_レイヤ___3
  6
CONTINUOUS
 62
    7
 10
2134.9044636640542
 20
760.63584763796121
 40
13.114237078274542
 50
345.69406072146569
 51
12.415161069607127
  0
ARC
  8
_0-1_レイヤ___3
  6
CONTINUOUS
 62
    7
 10
2247.6787744140493
 20
589.34236010150266
 40
1.9875809122002739
 50
145.94680026577657
 51
188.30319661501997
  0
ARC
  8
_0-1_レイヤ___3
  6
CONTINUOUS
 62
    7
 10
2246.5356001680407
 20
589.99623758146049
 40
0.6814334940554588
 50
85.250050616827622
 51
137.64542203737946
  0
ARC
  8
_0-1_レイヤ___3
  6
CONTINUOUS
 62
    7
 10
2246.1898429225944
 20
587.51610316924916
 40
3.1847247269839958
 50
52.87442688723619
 51
82.744995320522591
  0
ARC
  8
_0-1_レイヤ___3
  6
CONTINUOUS
 62
    7
 10
2253.0552485021663
 20
596.33168239770976
 40
7.9892440479654141
 50
231.77622275782511
 51
246.67570503966419
  0
ARC
  8
_0-1_レイヤ___3
  6
CONTINUOUS
 62
    7
 10
2250.1917230356007
 20
590.53282993251037
 40
1.5664357494616614
 50
258.96999717199554
 51
289.39983507819693
  0
ARC
  8
_0-1_レイヤ___3
  6
CONTINUOUS
 62
    7
 10
2242.2712690431554
 20
589.63334071742815
 40
8.4605262742610332
 50
338.6657360315275
 51
356.08259021064043
  0
ARC
  8
_0-1_レイヤ___3
  6
CONTINUOUS
 62
    7
 10
2247.0945374725711
 20
587.60477495178611
 40
3.2325811018635693
 50
293.27795282974273
 51
341.05587653663491
  0
ARC
  8
_0-1_レイヤ___3
  6
CONTINUOUS
 62
    7
 10
2247.7793221129718
 20
586.99486904064975
 40
2.4328421795113879
 50
254.08053818274672
 51
284.1007009188985
  0
ARC
  8
_0-1_レイヤ___3
  6
CONTINUOUS
 62
    7
 10
2247.2259023426927
 20
585.80964799537219
 40
1.1599205647548585
 50
218.01246564867307
 51
264.3659468653621
  0
ARC
  8
_0-1_レイヤ___3
  6
CONTINUOUS
 62
    7
 10
2248.08936632325
 20
586.39922177246513
 40
2.2043284347053609
 50
188.97521315341655
 51
216.26451674264982
  0
ARC
  8
_0-1_レイヤ___3
  6
CONTINUOUS
 62
    7
 10
2269.7962803126793
 20
589.15428090762339
 40
24.084455725929917
 50
180.23539841577579
 51
187.39275125279769
  0
ARC
  8
_0-1_レイヤ___3
  6
CONTINUOUS
 62
    7
 10
2118.0296437064053
 20
672.16213750100997
 40
16.517876739317039
 50
147.6719878171003
 51
179.67674457761919
  0
ARC
  8
_0-1_レイヤ___3
  6
CONTINUOUS
 62
    7
 10
2109.6418544097519
 20
677.1950422012535
 40
6.7427830592101321
 50
113.14047326700336
 51
145.69431521991754
  0
ARC
  8
_0-1_レイヤ___3
  6
CONTINUOUS
 62
    7
 10
2108.5093832825369
 20
679.1766829876567
 40
4.4832280157788782
 50
87.409288435129952
 51
109.78253443875333
  0
ARC
  8
_0-1_レイヤ___3
  6
CONTINUOUS
 62
    7
 10
2107.9431504751055
 20
673.34869060617643
 40
10.335277703006991
 50
57.396487962888941
 51
85.733614391262975
  0
ARC
  8
_0-1_レイヤ___3
  6
CONTINUOUS
 62
    7
 10
2104.6260667356419
 20
667.70737791886995
 40
16.876730531079648
 50
48.030937744408803
 51
58.229266963890154
  0
ARC
  8
_0-1_レイヤ___3
  6
CONTINUOUS
 62
    7
 10
2096.0069158614087
 20
658.17376408398468
 40
29.728926332652378
 50
40.383946408522299
 51
47.967367949779643
  0
ARC
  8
_0-1_レイヤ___3
  6
CONTINUOUS
 62
    7
 10
2037.6301975105434
 20
608.90391502916282
 40
106.11829240077221
 50
36.520041966616908
 51
40.22583916764134
  0
ARC
  8
_0-1_レイヤ___3
  6
CONTINUOUS
 62
    7
 10
2111.6389268847952
 20
663.2477192464753
 40
14.305832223853407
 50
352.80244517677539
 51
38.000303550680023
  0
ARC
  8
_0-1_レイヤ___3
  6
CONTINUOUS
 62
    7
 10
2119.0840079461823
 20
662.70466775431282
 40
6.8626997337547655
 50
273.57581958592061
 51
349.51094207000023
  0
ARC
  8
_0-1_レイヤ___3
  6
CONTINUOUS
 62
    7
 10
2118.6048381243249
 20
669.15659930422771
 40
13.332171441982384
 50
224.600275706991
 51
273.90172393739289
  0
ARC
  8
_0-1_レイヤ___3
  6
CONTINUOUS
 62
    7
 10
2121.710479895336
 20
673.14541228926691
 40
18.356080031135178
 50
194.15879616283041
 51
226.65918389244155
  0
ARC
  8
_0-1_レイヤ___3
  6
CONTINUOUS
 62
    7
 10
2099.2671212309415
 20
726.50023736708272
 40
3.4452013304998741
 50
270.74687868935882
 51
359.25312131063157
  0
ARC
  8
_0-1_レイヤ___3
  6
CONTINUOUS
 62
    7
 10
2099.4334153210566
 20
726.57671421049849
 40
3.5234769812059397
 50
181.97425765163325
 51
268.0257423483668
  0
ARC
  8
_0-1_レイヤ___3
  6
CONTINUOUS
 62
    7
 10
2099.4946410727739
 20
726.27271752524985
 40
3.5872621872279078
 50
92.917928963028288
 51
177.08207103697171
  0
ARC
  8
_0-1_レイヤ___3
  6
CONTINUOUS
 62
    7
 10
2099.2103185655888
 20
726.35361745503042
 40
3.5031881387775354
 50
1.6637549576206854
 51
88.336245042388867
  0
ARC
  8
_0-1_レイヤ___3
  6
CONTINUOUS
 62
    7
 10
2162.6103185655893
 20
861.15703803243468
 40
3.5031881387772423
 50
271.66375495761588
 51
358.33624504238406
  0
ARC
  8
_0-1_レイヤ___3
  6
CONTINUOUS
 62
    7
 10
2162.7569384776407
 20
861.10023536708263
 40
3.4452013304998741
 50
180.74687868936846
 51
269.25312131064118
  0
ARC
  8
_0-1_レイヤ___3
  6
CONTINUOUS
 62
    7
 10
2162.8334153210567
 20
860.93394127696706
 40
3.5234769812065285
 50
91.974257651633238
 51
178.02574234836678
  0
ARC
  8
_0-1_レイヤ___3
  6
CONTINUOUS
 62
    7
 10
2162.6732373183195
 20
861.01653420776165
 40
3.4390113355874714
 50
0.6463182319310659
 51
89.353681768059388
  0
ARC
  8
_0-1_レイヤ___3
  6
CONTINUOUS
 62
    7
 10
2315.7106008775536
 20
558.61102602051324
 40
10.398974645211926
 50
25.301347685908926
 51
44.465766214026026
  0
ARC
  8
_0-1_レイヤ___3
  6
CONTINUOUS
 62
    7
 10
2322.1639378189684
 20
564.94195346067704
 40
1.358722400028203
 50
44.56129249363692
 51
75.155936402220007
  0
ARC
  8
_0-1_レイヤ___3
  6
CONTINUOUS
 62
    7
 10
2321.0409718547344
 20
560.55287774187741
 40
5.8891405138781474
 50
75.534837912831151
 51
131.32721982853201
  0
ARC
  8
_0-1_レイヤ___3
  6
CONTINUOUS
 62
    7
 10
2321.4963405660819
 20
559.67252448985187
 40
6.8551299844733204
 50
129.32597532982385
 51
171.75721509685346
  0
ARC
  8
_0-1_レイヤ___3
  6
CONTINUOUS
 62
    7
 10
2320.727705964578
 20
560.14441471824762
 40
6.0373353651820185
 50
175.145476641953
 51
212.7843060600247
  0
ARC
  8
_0-1_レイヤ___3
  6
CONTINUOUS
 62
    7
 10
2325.3172980977579
 20
562.75817881876969
 40
11.314828781435979
 50
211.32713613378132
 51
259.99757895574214
  0
ARC
  8
_0-1_レイヤ___3
  6
CONTINUOUS
 62
    7
 10
2323.8697290907799
 20
555.85934977445822
 40
4.275477997069145
 50
263.04520758827692
 51
315.36273942272481
  0
ARC
  8
_0-1_レイヤ___3
  6
CONTINUOUS
 62
    7
 10
2323.4403054729064
 20
555.75079969865124
 40
4.5206854305850417
 50
320.17138280351139
 51
3.6085701966907227
  0
ARC
  8
_0-1_レイヤ___3
  6
CONTINUOUS
 62
    7
 10
2319.859895925129
 20
555.73497542220571
 40
8.0977041485925572
 50
2.1256692483365445
 51
16.798975167714698
  0
ARC
  8
_0-1_レイヤ___3
  6
CONTINUOUS
 62
    7
 10
2311.0053016897928
 20
552.8561308619569
 40
17.407567357576529
 50
17.447009716978457
 51
35.867027565925468
  0
ARC
  8
_0-1_レイヤ___3
  6
CONTINUOUS
 62
    7
 10
2006.2433669633572
 20
675.89861504486498
 40
11.125882074319843
 50
16.482773260019123
 51
43.062562345526956
  0
ARC
  8
_0-1_レイヤ___3
  6
CONTINUOUS
 62
    7
 10
2010.113847143994
 20
679.4632594348534
 40
5.8642748860036145
 50
43.437653781031486
 51
77.810815381331764
  0
ARC
  8
_0-1_レイヤ___3
  6
CONTINUOUS
 62
    7
 10
2010.6311047570364
 20
680.76740930373398
 40
4.4862240745058433
 50
80.752588852228584
 51
107.09922655514463
  0
ARC
  8
_0-1_レイヤ___3
  6
CONTINUOUS
 62
    7
 10
2011.8172832513146
 20
679.10019077140396
 40
6.4606464716593228
 50
112.81587594674244
 51
149.12759672029432
  0
ARC
  8
_0-1_レイヤ___3
  6
CONTINUOUS
 62
    7
 10
2011.9651326248977
 20
678.58609872115858
 40
6.8610785558876541
 50
146.07487355757678
 51
182.76327874589441
  0
ARC
  8
_0-1_レイヤ___3
  6
CONTINUOUS
 62
    7
 10
2028.1127246045185
 20
681.52068513486847
 40
23.231324098111699
 50
188.08015635434487
 51
206.66434061385465
  0
ARC
  8
_0-1_レイヤ___3
  6
CONTINUOUS
 62
    7
 10
2017.3941486740268
 20
676.19597264214372
 40
11.263244576923734
 50
206.92716148596452
 51
232.20775877926548
  0
ARC
  8
_0-1_レイヤ___3
  6
CONTINUOUS
 62
    7
 10
2013.9034026103263
 20
672.25611569516877
 40
6.0205363226767457
 50
235.48497014514041
 51
291.52143319802121
  0
ARC
  8
_0-1_レイヤ___3
  6
CONTINUOUS
 62
    7
 10
2014.9048401310047
 20
670.63625355066824
 40
4.1599367994291754
 50
286.86961439337483
 51
352.80629608893992
  0
ARC
  8
_0-1_レイヤ___3
  6
CONTINUOUS
 62
    7
 10
2011.2817969107682
 20
670.8960148345202
 40
7.7894552089444504
 50
354.24796201840894
 51
9.1547471922273527
  0
ARC
  8
_0-1_レイヤ___3
  6
CONTINUOUS
 62
    7
 10
2000.1544286947869
 20
669.0443803081539
 40
19.069770604283374
 50
9.3280129513109085
 51
18.563444815967223
  0
ARC
  8
_0-1_レイヤ___3
  6
CONTINUOUS
 62
    7
 10
2155.7912266090143
 20
723.3922670879756
 40
145.78475516137297
 50
197.70559131547336
 51
199.3387225716877
  0
ARC
  8
_0-1_レイヤ___3
  6
CONTINUOUS
 62
    7
 10
2006.8281021539456
 20
554.06589592263822
 40
6.0457553573295586
 50
13.286468056029419
 51
85.789076959776324
  0
ARC
  8
_0-1_レイヤ___3
  6
CONTINUOUS
 62
    7
 10
2006.4691888465541
 20
553.33802533270978
 40
6.8048316153240895
 50
83.224386972910864
 51
106.71509448330764
  0
ARC
  8
_0-1_レイヤ___3
  6
CONTINUOUS
 62
    7
 10
2005.8157625320478
 20
554.61623923181628
 40
5.3988696548779034
 50
103.97403485491958
 51
124.31704906594625
  0
ARC
  8
_0-1_レイヤ___3
  6
CONTINUOUS
 62
    7
 10
2007.8176814703834
 20
551.6514201129487
 40
8.97624805262428
 50
124.20192779294767
 51
149.1428609292108
  0
ARC
  8
_0-1_レイヤ___3
  6
CONTINUOUS
 62
    7
 10
2005.216876047964
 20
553.08217479199266
 40
6.0106865610966311
 50
148.13503891105495
 51
220.28991950587039
  0
ARC
  8
_0-1_レイヤ___3
  6
CONTINUOUS
 62
    7
 10
2008.4742730662094
 20
556.269356428023
 40
10.561372382787621
 50
222.05176547048799
 51
248.31630092155305
  0
ARC
  8
_0-1_レイヤ___3
  6
CONTINUOUS
 62
    7
 10
2009.9492369380289
 20
558.72483674016939
 40
13.396085693558861
 50
246.33419549232235
 51
262.11733150541329
  0
ARC
  8
_0-1_レイヤ___3
  6
CONTINUOUS
 62
    7
 10
2008.4471662754822
 20
549.24727167782612
 40
3.806721834848946
 50
264.94928184754281
 51
336.26979165496698
  0
ARC
  8
_0-1_レイヤ___3
  6
CONTINUOUS
 62
    7
 10
2003.4439716748279
 20
552.08829105684663
 40
9.5482955290594536
 50
332.74294727298729
 51
0.4022835977263178
  0
ARC
  8
_0-1_レイヤ___3
  6
CONTINUOUS
 62
    7
 10
1999.0493572198397
 20
552.634194714145
 40
13.950895550620455
 50
358.03293810579993
 51
11.666749697751818
  0
ARC
  8
_0-1_レイヤ___3
  6
CONTINUOUS
 62
    7
 10
1997.5898055872858
 20
610.03488846865457
 40
1.7201715856015869
 50
149.21400968376662
 51
192.74734545349085
  0
ARC
  8
_0-1_レイヤ___3
  6
CONTINUOUS
 62
    7
 10
1996.6865900422004
 20
610.46621236791248
 40
0.729261702219996
 50
91.143866645008174
 51
141.98623570905477
  0
ARC
  8
_0-1_レイヤ___3
  6
CONTINUOUS
 62
    7
 10
1996.5965696396593
 20
608.20577683262491
 40
2.9905041673679458
 50
54.995801747668331
 51
88.554048029648527
  0
ARC
  8
_0-1_レイヤ___3
  6
CONTINUOUS
 62
    7
 10
2003.8599231800174
 20
617.51015768237357
 40
8.818604081150859
 50
231.01534814796764
 51
244.12954186047298
  0
ARC
  8
_0-1_レイヤ___3
  6
CONTINUOUS
 62
    7
 10
2000.1975055596158
 20
611.05493382214627
 40
1.4911846577246337
 50
262.85504091374673
 51
290.18456258953836
  0
ARC
  8
_0-1_レイヤ___3
  6
CONTINUOUS
 62
    7
 10
1994.3282987757761
 20
609.41618107175918
 40
6.3882109879637081
 50
326.12315493074436
 51
2.1454136036827971
  0
ARC
  8
_0-1_レイヤ___3
  6
CONTINUOUS
 62
    7
 10
1997.7929339630141
 20
607.42471462843673
 40
2.4176945281129676
 50
258.52681046941586
 51
319.52440160571888
  0
ARC
  8
_0-1_レイヤ___3
  6
CONTINUOUS
 62
    7
 10
1997.661709241961
 20
606.50140411165785
 40
1.4877508060390441
 50
215.60092122779449
 51
256.40616047570211
  0
ARC
  8
_0-1_レイヤ___3
  6
CONTINUOUS
 62
    7
 10
1998.7244220730445
 20
607.1407047176931
 40
2.7257857780395609
 50
188.97801928578232
 51
213.52299172847833
  0
ARC
  8
_0-1_レイヤ___3
  6
CONTINUOUS
 62
    7
 10
2009.0909874848421
 20
608.72079768475396
 40
13.212048282239779
 50
175.94389649196722
 51
188.73071840276404
  0
ARC
  8
_0-1_レイヤ___3
  6
CONTINUOUS
 62
    7
 10
2030.7183658317904
 20
826.65450253226277
 40
3.5991813619226964
 50
269.89916863611876
 51
356.82767728065096
  0
ARC
  8
_0-1_レイヤ___3
  6
CONTINUOUS
 62
    7
 10
2030.8946430727747
 20
826.63793796221603
 40
3.587262187228208
 50
182.91792896302354
 51
267.08207103696697
  0
ARC
  8
_0-1_レイヤ___3
  6
CONTINUOUS
 62
    7
 10
2030.813743142993
 20
826.3536154550311
 40
3.5031881387772423
 50
91.663754957615907
 51
178.33624504238409
  0
ARC
  8
_0-1_レイヤ___3
  6
CONTINUOUS
 62
    7
 10
2030.6630979160313
 20
826.1976319855753
 40
3.658022071306382
 50
4.0396316246884396
 51
89.233522458551406
  0
ARC
  8
_0-1_レイヤ___3
  6
CONTINUOUS
 62
    7
 10
2035.0739192460805
 20
581.29344335194423
 40
3.4383238471155586
 50
270.63511653188971
 51
359.36488346809108
  0
ARC
  8
_0-1_レイヤ___3
  6
CONTINUOUS
 62
    7
 10
2035.2137431429928
 20
581.35704203243426
 40
3.5031881387769497
 50
181.6637549576111
 51
268.33624504237929
  0
ARC
  8
_0-1_レイヤ___3
  6
CONTINUOUS
 62
    7
 10
2035.1569404776405
 20
581.21042212038356
 40
3.4452013304992986
 50
90.74687868936843
 51
179.25312131064112
  0
ARC
  8
_0-1_レイヤ___3
  6
CONTINUOUS
 62
    7
 10
2035.0975015861729
 20
581.24080047561415
 40
3.4145611841915766
 50
0.2438162639632126
 51
89.756183736055945
  0
ARC
  8
_0-1_レイヤ___3
  6
CONTINUOUS
 62
    7
 10
1983.1906400666999
 20
716.17672053132446
 40
3.5234835160408648
 50
271.9743568333713
 51
358.02564316663825
  0
ARC
  8
_0-1_レイヤ___3
  6
CONTINUOUS
 62
    7
 10
1983.4946430727746
 20
716.23793996221684
 40
3.5872621872288075
 50
182.91792896303309
 51
267.08207103697652
  0
ARC
  8
_0-1_レイヤ___3
  6
CONTINUOUS
 62
    7
 10
1983.4946430727741
 20
715.87271752524975
 40
3.5872621872285064
 50
92.917928963018724
 51
177.08207103696213
  0
ARC
  8
_0-1_レイヤ___3
  6
CONTINUOUS
 62
    7
 10
1983.2103205655899
 20
715.95361745503146
 40
3.5031881387772423
 50
1.6637549576159019
 51
88.336245042384078
  0
ARC
  8
_0-1_レイヤ___3
  6
CONTINUOUS
 62
    7
 10
2037.3294206358082
 20
717.43793996221575
 40
3.5872621872279078
 50
272.91792896302832
 51
357.08207103697168
  0
ARC
  8
_0-1_レイヤ___3
  6
CONTINUOUS
 62
    7
 10
2037.6137431429929
 20
717.35704003243518
 40
3.5031881387775354
 50
181.66375495762071
 51
268.3362450423889
  0
ARC
  8
_0-1_レイヤ___3
  6
CONTINUOUS
 62
    7
 10
2037.6334173210569
 20
717.1339432769671
 40
3.5234769812065285
 50
91.974257651633238
 51
178.02574234836678
  0
ARC
  8
_0-1_レイヤ___3
  6
CONTINUOUS
 62
    7
 10
2037.3294206358078
 20
717.0727175252498
 40
3.587262187228208
 50
2.9179289630235083
 51
87.082071036966923
  0
ARC
  8
_0-1_レイヤ___3
  6
CONTINUOUS
 62
    7
 10
1951.0320009282968
 20
747.38956838876811
 40
11.418693179414197
 50
17.668917157329613
 51
43.955844804035976
  0
ARC
  8
_0-1_レイヤ___3
  6
CONTINUOUS
 62
    7
 10
1955.3251162858885
 20
751.45235316344974
 40
5.5084690035733841
 50
44.529707842343157
 51
81.155792880148965
  0
ARC
  8
_0-1_レイヤ___3
  6
CONTINUOUS
 62
    7
 10
1955.7784698734838
 20
752.61794759497911
 40
4.2954470069108641
 50
84.742986023618357
 51
109.96177269613406
  0
ARC
  8
_0-1_レイヤ___3
  6
CONTINUOUS
 62
    7
 10
1956.2554932948501
 20
751.0425774671487
 40
5.9396960392687053
 50
109.09882179184791
 51
146.33313089932292
  0
ARC
  8
_0-1_レイヤ___3
  6
CONTINUOUS
 62
    7
 10
1956.9225349385756
 20
750.12329515489546
 40
7.0156206084794803
 50
143.10295055378472
 51
182.18900017371166
  0
ARC
  8
_0-1_レイヤ___3
  6
CONTINUOUS
 62
    7
 10
1973.9600401085913
 20
754.20581003917368
 40
24.438357344771266
 50
190.25437278399161
 51
208.7390576201721
  0
ARC
  8
_0-1_レイヤ___3
  6
CONTINUOUS
 62
    7
 10
1961.8012240757378
 20
747.65520425381601
 40
10.628104886630492
 50
209.29177532620727
 51
235.70015487720786
  0
ARC
  8
_0-1_レイヤ___3
  6
CONTINUOUS
 62
    7
 10
1958.8878407908469
 20
744.03861734404336
 40
6.0100031182232003
 50
239.2174487759718
 51
291.7206446550714
  0
ARC
  8
_0-1_レイヤ___3
  6
CONTINUOUS
 62
    7
 10
1959.8427162974588
 20
742.38073798874007
 40
4.1255302354484149
 50
287.91906935723847
 51
354.91847271917368
  0
ARC
  8
_0-1_レイヤ___3
  6
CONTINUOUS
 62
    7
 10
1955.5897710168638
 20
742.70896357363858
 40
8.390979583157435
 50
355.2582573774576
 51
9.2332277543219057
  0
ARC
  8
_0-1_レイヤ___3
  6
CONTINUOUS
 62
    7
 10
1943.9882290178803
 20
740.90694554277979
 40
20.131515576919522
 50
8.9974594358385112
 51
18.022148470709212
  0
ARC
  8
_0-1_レイヤ___3
  6
CONTINUOUS
 62
    7
 10
2101.0735966072884
 20
794.43428077563317
 40
145.82546533104923
 50
197.388138480024
 51
198.9263924687373
  0
ARC
  8
_0-1_レイヤ___3
  6
CONTINUOUS
 62
    7
 10
1951.969830611929
 20
625.7821960891838
 40
5.8816464389380521
 50
12.501111248787401
 51
69.058320979688645
  0
ARC
  8
_0-1_レイヤ___3
  6
CONTINUOUS
 62
    7
 10
1951.1976995039486
 20
624.33331653962432
 40
7.5135431987542152
 50
67.508040365535464
 51
102.96467625301101
  0
ARC
  8
_0-1_レイヤ___3
  6
CONTINUOUS
 62
    7
 10
1952.6991697736423
 20
622.84398840233985
 40
9.3700348974949499
 50
109.88548350445242
 51
146.20860155920238
  0
ARC
  8
_0-1_レイヤ___3
  6
CONTINUOUS
 62
    7
 10
1950.1013498814023
 20
624.84633861169891
 40
6.1013620198048137
 50
148.26801549038183
 51
220.3580343319185
  0
ARC
  8
_0-1_レイヤ___3
  6
CONTINUOUS
 62
    7
 10
1953.4688310205149
 20
628.01979280930118
 40
10.725065269076497
 50
221.62723920449073
 51
248.00508755303562
  0
ARC
  8
_0-1_レイヤ___3
  6
CONTINUOUS
 62
    7
 10
1954.8496916115
 20
630.36692422547526
 40
13.424530857751904
 50
246.29208789339867
 51
262.56282491297026
  0
ARC
  8
_0-1_レイヤ___3
  6
CONTINUOUS
 62
    7
 10
1953.4897410124945
 20
620.51701619897449
 40
3.4822324355410124
 50
263.77305006399644
 51
314.07623876811078
  0
ARC
  8
_0-1_レイヤ___3
  6
CONTINUOUS
 62
    7
 10
1952.1555555096979
 20
621.85881273756286
 40
5.3743370534631776
 50
314.34409691670385
 51
332.7174343031964
  0
ARC
  8
_0-1_レイヤ___3
  6
CONTINUOUS
 62
    7
 10
1948.2371293626625
 20
623.81767080705026
 40
9.7549204734601158
 50
333.04151646296287
 51
0.10371440772964
  0
ARC
  8
_0-1_レイヤ___3
  6
CONTINUOUS
 62
    7
 10
1944.8229971710357
 20
624.31236903214221
 40
13.177674096808772
 50
357.92540259414045
 51
12.014078862108972
  0
ARC
  8
_0-1_レイヤ___3
  6
CONTINUOUS
 62
    7
 10
1942.7846524490569
 20
681.67464953862032
 40
1.9189920089690617
 50
150.64663792514307
 51
192.62158982680282
  0
ARC
  8
_0-1_レイヤ___3
  6
CONTINUOUS
 62
    7
 10
1941.6312110153649
 20
682.2269744215871
 40
0.6483548442864515
 50
89.927284864532112
 51
143.20281748977422
  0
ARC
  8
_0-1_レイヤ___3
  6
CONTINUOUS
 62
    7
 10
1941.5719444446672
 20
680.75115246204996
 40
2.1250260263852438
 50
61.312233956569671
 51
88.379629942731384
  0
ARC
  8
_0-1_レイヤ___3
  6
CONTINUOUS
 62
    7
 10
1940.1789732118584
 20
676.88920745886298
 40
6.2138013029946091
 50
59.721076766484629
 51
67.148820879395601
  0
ARC
  8
_0-1_レイヤ___3
  6
CONTINUOUS
 62
    7
 10
1948.8599251800174
 20
689.11015768237326
 40
8.818604081150859
 50
231.01534814796764
 51
244.12954186047298
  0
ARC
  8
_0-1_レイヤ___3
  6
CONTINUOUS
 62
    7
 10
1945.1975075596147
 20
682.65493382214663
 40
1.49118465772477
 50
262.85504091379266
 51
290.18456258958429
  0
ARC
  8
_0-1_レイヤ___3
  6
CONTINUOUS
 62
    7
 10
1939.6128148867467
 20
681.04683865812126
 40
6.1027813437688758
 50
325.33058193173929
 51
1.9577838662245888
  0
ARC
  8
_0-1_レイヤ___3
  6
CONTINUOUS
 62
    7
 10
1942.8039222135317
 20
679.20371948638922
 40
2.448192921697141
 50
253.58384919159346
 51
318.30694261028299
  0
ARC
  8
_0-1_レイヤ___3
  6
CONTINUOUS
 62
    7
 10
1942.2214637154036
 20
678.00156485484558
 40
1.1514478350855273
 50
217.83184757002925
 51
264.54656494400592
  0
ARC
  8
_0-1_レイヤ___3
  6
CONTINUOUS
 62
    7
 10
1943.019707473888
 20
678.52649121815693
 40
2.1052102577882166
 50
187.4005671011144
 51
215.79005379683073
  0
ARC
  8
_0-1_レイヤ___3
  6
CONTINUOUS
 62
    7
 10
1955.5752252965049
 20
679.85301668667853
 40
14.730093766720319
 50
174.53714099717507
 51
186.22679141226487
  0
ARC
  8
_0-1_レイヤ___3
  6
CONTINUOUS
 62
    7
 10
1926.790377241341
 20
577.36467310040757
 40
3.7232625069527865
 50
274.95602130228895
 51
358.31713278095987
  0
ARC
  8
_0-1_レイヤ___3
  6
CONTINUOUS
 62
    7
 10
1927.2336347742321
 20
577.17573161256587
 40
3.5225003990079724
 50
178.70515770429668
 51
268.02168821246408
  0
ARC
  8
_0-1_レイヤ___3
  6
CONTINUOUS
 62
    7
 10
1927.2334193210565
 20
577.13394527696755
 40
3.5234769812062345
 50
91.974257651628449
 51
178.02574234836197
  0
ARC
  8
_0-1_レイヤ___3
  6
CONTINUOUS
 62
    7
 10
1926.9294226358084
 20
577.07271952525025
 40
3.5872621872279078
 50
2.9179289630282916
 51
87.082071036971712
  0
ARC
  8
_0-1_レイヤ___3
  6
CONTINUOUS
 62
    7
 10
1980.0103205655887
 20
653.15704003243559
 40
3.5031881387781212
 50
271.6637549576111
 51
358.33624504237929
  0
ARC
  8
_0-1_レイヤ___3
  6
CONTINUOUS
 62
    7
 10
1980.1569404776405
 20
653.10023736708195
 40
3.4452013304995854
 50
180.74687868935405
 51
269.25312131062674
  0
ARC
  8
_0-1_レイヤ___3
  6
CONTINUOUS
 62
    7
 10
1980.2334173210561
 20
652.93394327696797
 40
3.5234769812056452
 50
91.974257651638013
 51
178.02574234837155
  0
ARC
  8
_0-1_レイヤ___3
  6
CONTINUOUS
 62
    7
 10
1979.9294206358081
 20
652.87271752524953
 40
3.5872621872285064
 50
2.9179289630378715
 51
87.08207103698129
  0
ARC
  8
_0-1_レイヤ___3
  6
CONTINUOUS
 62
    7
 10
2035.1334925284827
 20
741.32666557746438
 40
16.021977291989536
 50
147.15989562688833
 51
179.5398860261655
  0
ARC
  8
_0-1_レイヤ___3
  6
CONTINUOUS
 62
    7
 10
2027.2307399690499
 20
746.17665964495336
 40
6.7553387035985759
 50
112.99250920282655
 51
145.37227496338201
  0
ARC
  8
_0-1_レイヤ___3
  6
CONTINUOUS
 62
    7
 10
2026.110763381851
 20
748.16756433064688
 40
4.4922734193622356
 50
87.432102975913224
 51
109.75971989793304
  0
ARC
  8
_0-1_レイヤ___3
  6
CONTINUOUS
 62
    7
 10
2025.5415432498653
 20
742.10434269331108
 40
10.579079218996601
 50
57.587590320862439
 51
85.823373135157553
  0
ARC
  8
_0-1_レイヤ___3
  6
CONTINUOUS
 62
    7
 10
2022.2481785202922
 20
736.44125483272182
 40
17.127101375807925
 50
48.432551414686486
 51
58.441256848132774
  0
ARC
  8
_0-1_レイヤ___3
  6
CONTINUOUS
 62
    7
 10
2013.9660608965919
 20
727.15174385736509
 40
29.572496534538509
 50
40.800778936669346
 51
48.368861981048887
  0
ARC
  8
_0-1_レイヤ___3
  6
CONTINUOUS
 62
    7
 10
1962.7804571273514
 20
683.57592708418019
 40
96.794168653560334
 50
36.576638243509251
 51
40.528509396363781
  0
ARC
  8
_0-1_レイヤ___3
  6
CONTINUOUS
 62
    7
 10
2028.7233627961473
 20
732.29361838684986
 40
14.808273723939408
 50
352.71294209961832
 51
37.241986486329886
  0
ARC
  8
_0-1_レイヤ___3
  6
CONTINUOUS
 62
    7
 10
2036.5877374497809
 20
731.79864794308764
 40
6.9630859628998012
 50
274.31824549180266
 51
348.54111636803452
  0
ARC
  8
_0-1_レイヤ___3
  6
CONTINUOUS
 62
    7
 10
2036.196227001501
 20
738.08675034246539
 40
13.263077171297979
 50
224.3500345236607
 51
273.9593781812568
  0
ARC
  8
_0-1_レイヤ___3
  6
CONTINUOUS
 62
    7
 10
2039.5001935787132
 20
742.18692619583385
 40
18.502343060028899
 50
193.53921046999253
 51
226.27764417281617
  0
ARC
  8
_0-1_レイヤ___3
  6
CONTINUOUS
 62
    7
 10
2041.3294206358087
 20
652.03793996221543
 40
3.5872621872273074
 50
272.91792896302832
 51
357.08207103697168
  0
ARC
  8
_0-1_レイヤ___3
  6
CONTINUOUS
 62
    7
 10
2041.6137431429922
 20
651.95704003243554
 40
3.5031881387775354
 50
181.66375495763029
 51
268.33624504239845
  0
ARC
  8
_0-1_レイヤ___3
  6
CONTINUOUS
 62
    7
 10
2041.5284153490957
 20
652.0342998875285
 40
3.4210680867071193
 50
90.274390532519476
 51
182.99876355071024
  0
ARC
  8
_0-1_レイヤ___3
  6
CONTINUOUS
 62
    7
 10
2041.312856065761
 20
651.86166272123296
 40
3.5991813619224282
 50
359.89916863610466
 51
86.827677280636891
  0
ARC
  8
_0-1_レイヤ___3
  6
CONTINUOUS
 62
    7
 10
1965.8836114277351
 20
784.6837471702886
 40
3.4285382223146006
 50
270.47495143327717
 51
359.52504856672277
  0
ARC
  8
_0-1_レイヤ___3
  6
CONTINUOUS
 62
    7
 10
1965.9609657925512
 20
784.91302150188994
 40
3.6580220713063665
 50
184.03963162467909
 51
269.2335224585421
  0
ARC
  8
_0-1_レイヤ___3
  6
CONTINUOUS
 62
    7
 10
1965.9056978767917
 20
784.45615095520316
 40
3.5991813619221125
 50
89.899168636118503
 51
176.8276772806507
  0
ARC
  8
_0-1_レイヤ___3
  6
CONTINUOUS
 62
    7
 10
1965.8396949653422
 20
784.58298985478359
 40
3.4730902804072405
 50
1.1934323086431107
 51
88.806567691366439
  0
ARC
  8
_0-1_レイヤ___3
  6
CONTINUOUS
 62
    7
 10
2317.7769354031561
 20
608.17103350475372
 40
6.5551694727498049
 50
14.888660121967876
 51
106.52861553605932
  0
ARC
  8
_0-1_レイヤ___3
  6
CONTINUOUS
 62
    7
 10
2317.3645394315899
 20
608.7195971955382
 40
5.9167902003659592
 50
104.21078056909788
 51
123.1155008472949
  0
ARC
  8
_0-1_レイヤ___3
  6
CONTINUOUS
 62
    7
 10
2319.0566366083708
 20
605.93071998965252
 40
9.1777304457335536
 50
122.45129057612641
 51
147.54870942387356
  0
ARC
  8
_0-1_レイヤ___3
  6
CONTINUOUS
 62
    7
 10
2316.596496234702
 20
607.76218119834448
 40
6.1231664848433009
 50
149.65836457678938
 51
220.3791689343465
  0
ARC
  8
_0-1_レイヤ___3
  6
CONTINUOUS
 62
    7
 10
2319.7305260269632
 20
610.83454708087766
 40
10.505576632926864
 50
222.07059122686579
 51
248.56920193560859
  0
ARC
  8
_0-1_レイヤ___3
  6
CONTINUOUS
 62
    7
 10
2321.277775015963
 20
613.49953546898951
 40
13.559664587797094
 50
246.59744481069484
 51
262.51766198917335
  0
ARC
  8
_0-1_レイヤ___3
  6
CONTINUOUS
 62
    7
 10
2320.0000303350234
 20
603.61163395163862
 40
3.5896293579926426
 50
262.18656557235101
 51
335.71542484258458
  0
ARC
  8
_0-1_レイヤ___3
  6
CONTINUOUS
 62
    7
 10
2315.0446146180097
 20
606.5723405210465
 40
9.3475870856875947
 50
331.66219941709568
 51
359.65055796204763
  0
ARC
  8
_0-1_レイヤ___3
  6
CONTINUOUS
 62
    7
 10
2311.1739305630508
 20
607.08896164963767
 40
13.230538477963851
 50
357.51507198602332
 51
12.069001820069831
  0
ARC
  8
_0-1_レイヤ___3
  6
CONTINUOUS
 62
    7
 10
2329.2671192309422
 20
703.90023736708281
 40
3.4452013305001614
 50
270.74687868935405
 51
359.25312131062674
  0
ARC
  8
_0-1_レイヤ___3
  6
CONTINUOUS
 62
    7
 10
2329.4334133210568
 20
703.97671421049859
 40
3.5234769812059397
 50
181.97425765163325
 51
268.0257423483668
  0
ARC
  8
_0-1_レイヤ___3
  6
CONTINUOUS
 62
    7
 10
2329.4946390727737
 20
703.67271752524994
 40
3.5872621872279078
 50
92.917928963028288
 51
177.08207103697171
  0
ARC
  8
_0-1_レイヤ___3
  6
CONTINUOUS
 62
    7
 10
2329.2103165655899
 20
703.75361745503051
 40
3.5031881387778272
 50
1.6637549576254818
 51
88.336245042393671
  0
ARC
  8
_0-1_レイヤ___3
  6
CONTINUOUS
 62
    7
 10
2311.6103165655904
 20
716.95704003243486
 40
3.5031881387769497
 50
271.6637549576111
 51
358.33624504237929
  0
ARC
  8
_0-1_レイヤ___3
  6
CONTINUOUS
 62
    7
 10
2311.7569364776405
 20
716.90023736708235
 40
3.4452013304995854
 50
180.74687868937323
 51
269.25312131064595
  0
ARC
  8
_0-1_レイヤ___3
  6
CONTINUOUS
 62
    7
 10
2311.8334133210574
 20
716.73394327696678
 40
3.5234769812065285
 50
91.974257651633238
 51
178.02574234836678
  0
ARC
  8
_0-1_レイヤ___3
  6
CONTINUOUS
 62
    7
 10
2311.529416635808
 20
716.67271752524948
 40
3.587262187228208
 50
2.9179289630235083
 51
87.082071036966923
  0
ARC
  8
_0-1_レイヤ___3
  6
CONTINUOUS
 62
    7
 10
2322.3698246119284
 20
994.18219208918254
 40
5.8816464389392902
 50
12.501111248792434
 51
69.058320979693676
  0
ARC
  8
_0-1_レイヤ___3
  6
CONTINUOUS
 62
    7
 10
2321.5976935039489
 20
992.73331253962715
 40
7.5135431987523553
 50
67.508040365534271
 51
102.96467625300984
  0
ARC
  8
_0-1_レイヤ___3
  6
CONTINUOUS
 62
    7
 10
2323.0991637736442
 20
991.24398440233813
 40
9.3700348974975096
 50
109.88548350445436
 51
146.20860155920431
  0
ARC
  8
_0-1_レイヤ___3
  6
CONTINUOUS
 62
    7
 10
2320.8991534770839
 20
993.24156594844135
 40
6.4454804568144155
 50
150.0921469468899
 51
237.66878132484064
  0
ARC
  8
_0-1_レイヤ___3
  6
CONTINUOUS
 62
    7
 10
2325.1677410168149
 20
998.76012036975771
 40
13.407422299861985
 50
234.86669508744495
 51
262.90630475582742
  0
ARC
  8
_0-1_レイヤ___3
  6
CONTINUOUS
 62
    7
 10
2323.8897350124939
 20
988.91701219897436
 40
3.4822324355410124
 50
263.77305006399644
 51
314.07623876811078
  0
ARC
  8
_0-1_レイヤ___3
  6
CONTINUOUS
 62
    7
 10
2322.5555495096978
 20
990.25880873756614
 40
5.3743370534652923
 50
314.34409691667332
 51
332.71743430316587
  0
ARC
  8
_0-1_レイヤ___3
  6
CONTINUOUS
 62
    7
 10
2318.6371233626637
 20
992.21766680704809
 40
9.7549204734583714
 50
333.0415164629751
 51
0.1037144077418629
  0
ARC
  8
_0-1_レイヤ___3
  6
CONTINUOUS
 62
    7
 10
2315.2229911710333
 20
992.71236503214686
 40
13.177674096810676
 50
357.92540259411953
 51
12.014078862088022
  0
ARC
  8
_0-1_レイヤ___3
  6
CONTINUOUS
 62
    7
 10
2284.3334919727499
 20
992.52666257746478
 40
16.02198072811521
 50
147.15989930175652
 51
179.5398897010337
  0
ARC
  8
_0-1_レイヤ___3
  6
CONTINUOUS
 62
    7
 10
2276.4307359690497
 20
997.37665764495455
 40
6.7553387035977854
 50
112.99250920283203
 51
145.3722749633875
  0
ARC
  8
_0-1_レイヤ___3
  6
CONTINUOUS
 62
    7
 10
2275.3107593818509
 20
999.36756233064807
 40
4.4922734193607843
 50
87.432102975916024
 51
109.75971989793584
  0
ARC
  8
_0-1_レイヤ___3
  6
CONTINUOUS
 62
    7
 10
2274.7278515637822
 20
993.50279587220734
 40
10.382186016941223
 50
57.461831931343546
 51
85.668270422808362
  0
ARC
  8
_0-1_レイヤ___3
  6
CONTINUOUS
 62
    7
 10
2271.3937322193933
 20
987.72267894386596
 40
17.050917599233081
 50
48.410134468867369
 51
58.463673793960346
  0
ARC
  8
_0-1_レイヤ___3
  6
CONTINUOUS
 62
    7
 10
2262.5077993855939
 20
977.82151682854783
 40
30.354667863006696
 50
40.898421712022689
 51
48.271219205671763
  0
ARC
  8
_0-1_レイヤ___3
  6
CONTINUOUS
 62
    7
 10
2189.4795266523824
 20
915.32023788873721
 40
126.4767801666319
 50
37.580499812595235
 51
40.640141837436836
  0
ARC
  8
_0-1_レイヤ___3
  6
CONTINUOUS
 62
    7
 10
2277.8332689079207
 20
983.45563601255412
 40
14.90299672428643
 50
352.59662356233122
 51
37.148614024363418
  0
ARC
  8
_0-1_レイヤ___3
  6
CONTINUOUS
 62
    7
 10
2285.9103922878503
 20
982.87840942778053
 40
6.8348954442563361
 50
273.368784088854
 51
348.66740017527724
  0
ARC
  8
_0-1_レイヤ___3
  6
CONTINUOUS
 62
    7
 10
2285.3962230015009
 20
989.28674634246568
 40
13.263077171297979
 50
224.3500345236607
 51
273.9593781812568
  0
ARC
  8
_0-1_レイヤ___3
  6
CONTINUOUS
 62
    7
 10
2288.700189578713
 20
993.38692219583413
 40
18.502343060028899
 50
193.53921046999253
 51
226.27764417281617
  0
ARC
  8
_0-1_レイヤ___3
  6
CONTINUOUS
 62
    7
 10
2335.4433629633581
 20
866.29861304486644
 40
11.125882074318161
 50
16.482773260016756
 51
43.06256234552459
  0
ARC
  8
_0-1_レイヤ___3
  6
CONTINUOUS
 62
    7
 10
2339.3138431439938
 20
869.86325743485145
 40
5.8642748860052922
 50
43.437653781040709
 51
77.810815381340987
  0
ARC
  8
_0-1_レイヤ___3
  6
CONTINUOUS
 62
    7
 10
2339.8311007570364
 20
871.16740730373544
 40
4.4862240745045998
 50
80.752588852229692
 51
107.09922655514575
  0
ARC
  8
_0-1_レイヤ___3
  6
CONTINUOUS
 62
    7
 10
2340.8494220898619
 20
869.36998149969304
 40
6.5188065281645216
 50
111.01189025952655
 51
146.84319692605808
  0
ARC
  8
_0-1_レイヤ___3
  6
CONTINUOUS
 62
    7
 10
2340.9303018935266
 20
868.94761861984966
 40
6.8245362783819932
 50
144.24508519606485
 51
182.45470380672816
  0
ARC
  8
_0-1_レイヤ___3
  6
CONTINUOUS
 62
    7
 10
2358.8001019806138
 20
872.93020688900947
 40
25.055450591104282
 50
189.82368151277865
 51
207.87590721048602
  0
ARC
  8
_0-1_レイヤ___3
  6
CONTINUOUS
 62
    7
 10
2346.2274936587164
 20
866.46243562964196
 40
10.918868853150759
 50
208.72160753049985
 51
234.66196540176213
  0
ARC
  8
_0-1_レイヤ___3
  6
CONTINUOUS
 62
    7
 10
2343.1049226071059
 20
862.62859007413658
 40
5.9943788437311269
 50
237.81544566631061
 51
291.60439192295576
  0
ARC
  8
_0-1_レイヤ___3
  6
CONTINUOUS
 62
    7
 10
2343.8663767965859
 20
861.12435402315532
 40
4.3182044858165867
 50
289.5591964638736
 51
355.63009027330156
  0
ARC
  8
_0-1_レイヤ___3
  6
CONTINUOUS
 62
    7
 10
2339.6035818781461
 20
861.39775586254723
 40
8.589597620920097
 50
355.97827424314818
 51
9.6344662604564189
  0
ARC
  8
_0-1_レイヤ___3
  6
CONTINUOUS
 62
    7
 10
2327.799395692186
 20
859.2972048200611
 40
20.579065127619319
 50
9.8999484820032073
 51
18.700606416355438
  0
ARC
  8
_0-1_レイヤ___3
  6
CONTINUOUS
 62
    7
 10
2418.9313227945504
 20
891.61649753854908
 40
76.116799765842828
 50
196.92663212644993
 51
199.7500252995053
  0
ARC
  8
_0-1_レイヤ___3
  6
CONTINUOUS
 62
    7
 10
2358.067118230942
 20
858.90023434066529
 40
3.4452003172055745
 50
270.74689554107226
 51
359.25313816234495
  0
ARC
  8
_0-1_レイヤ___3
  6
CONTINUOUS
 62
    7
 10
2358.1176782770963
 20
858.86097716653717
 40
3.4056551101993509
 50
180.09506116068812
 51
269.9049388393023
  0
ARC
  8
_0-1_レイヤ___3
  6
CONTINUOUS
 62
    7
 10
2358.2946390727743
 20
858.67271552525017
 40
3.5872621872279078
 50
92.917928963028288
 51
177.08207103697171
  0
ARC
  8
_0-1_レイヤ___3
  6
CONTINUOUS
 62
    7
 10
2358.0103155655893
 20
858.75361651486151
 40
3.5031871084280026
 50
1.6637381059120846
 51
88.336228190680274
  0
ARC
  8
_0-1_レイヤ___3
  6
CONTINUOUS
 62
    7
 10
2361.9906340666994
 20
793.5767185313241
 40
3.5234835160408648
 50
271.9743568333713
 51
358.02564316663825
  0
ARC
  8
_0-1_レイヤ___3
  6
CONTINUOUS
 62
    7
 10
2362.2946380727744
 20
793.63793685479754
 40
3.5872611321513115
 50
182.91791211131968
 51
267.08205418526308
  0
ARC
  8
_0-1_レイヤ___3
  6
CONTINUOUS
 62
    7
 10
2362.2137381429934
 20
793.35361651486119
 40
3.5031871084282957
 50
91.663771809324516
 51
178.3362618940927
  0
ARC
  8
_0-1_レイヤ___3
  6
CONTINUOUS
 62
    7
 10
2362.0671172309412
 20
793.41041812038361
 40
3.4452013304998741
 50
0.7468786893588671
 51
89.25312131063157
  0
ARC
  8
_0-1_レイヤ___3
  6
CONTINUOUS
 62
    7
 10
2351.2708160063426
 20
965.48949716433435
 40
14.965087659909486
 50
148.20050496001664
 51
181.66251872099812
  0
ARC
  8
_0-1_レイヤ___3
  6
CONTINUOUS
 62
    7
 10
2344.5177955785548
 20
969.56265531975168
 40
7.0800305561792776
 50
116.19903310321591
 51
147.41771358367009
  0
ARC
  8
_0-1_レイヤ___3
  6
CONTINUOUS
 62
    7
 10
2343.1371294465066
 20
971.81351481579918
 40
4.4576029715583108
 50
85.175546082266351
 51
113.04716800729825
  0
ARC
  8
_0-1_レイヤ___3
  6
CONTINUOUS
 62
    7
 10
2343.1323066389682
 20
966.38651526869899
 40
9.876112021229698
 50
58.367451424467568
 51
87.796522871374236
  0
ARC
  8
_0-1_レイヤ___3
  6
CONTINUOUS
 62
    7
 10
2339.9400867955428
 20
960.9993367993477
 40
16.137493003957299
 50
48.12481012278726
 51
58.748998140044982
  0
ARC
  8
_0-1_レイヤ___3
  6
CONTINUOUS
 62
    7
 10
2331.847614886763
 20
951.68205440883207
 40
28.477614011560185
 50
40.65506909323522
 51
48.514571824471133
  0
ARC
  8
_0-1_レイヤ___3
  6
CONTINUOUS
 62
    7
 10
2275.4735342720896
 20
904.11369227900332
 40
102.23852376257315
 50
36.449701850649696
 51
40.296179283616006
  0
ARC
  8
_0-1_レイヤ___3
  6
CONTINUOUS
 62
    7
 10
2346.09773349735
 20
956.04708580585816
 40
14.576587618382771
 50
351.98772609522865
 51
37.176548634271754
  0
ARC
  8
_0-1_レイヤ___3
  6
CONTINUOUS
 62
    7
 10
2353.6659868269658
 20
955.43722675631579
 40
7.011727656027789
 50
275.28657122164634
 51
348.29989380868761
  0
ARC
  8
_0-1_レイヤ___3
  6
CONTINUOUS
 62
    7
 10
2353.3962230015009
 20
961.68674634246509
 40
13.263077171297979
 50
224.3500345236607
 51
273.9593781812568
  0
ARC
  8
_0-1_レイヤ___3
  6
CONTINUOUS
 62
    7
 10
2356.7001895787134
 20
965.78692219583354
 40
18.502343060028899
 50
193.53921046999253
 51
226.27764417281617
  0
ARC
  8
_0-1_レイヤ___3
  6
CONTINUOUS
 62
    7
 10
2338.232001210823
 20
600.3895713887689
 40
11.418689402426697
 50
17.668928460452339
 51
43.955856107158702
  0
ARC
  8
_0-1_レイヤ___3
  6
CONTINUOUS
 62
    7
 10
2342.5251112858882
 20
604.45235214203626
 40
5.5084718353144746
 50
44.529722951887273
 51
81.155807989693088
  0
ARC
  8
_0-1_レイヤ___3
  6
CONTINUOUS
 62
    7
 10
2342.978463873485
 20
605.61794959497638
 40
4.2954470069136121
 50
84.74298602363119
 51
109.96177269614688
  0
ARC
  8
_0-1_レイヤ___3
  6
CONTINUOUS
 62
    7
 10
2343.3708711320974
 20
604.27688079685845
 40
5.6906063515838143
 50
109.06564125862955
 51
147.48940571770845
  0
ARC
  8
_0-1_レイヤ___3
  6
CONTINUOUS
 62
    7
 10
2344.9225017228828
 20
602.78785285464869
 40
7.8107653477406425
 50
144.39413604005429
 51
179.50501056221498
  0
ARC
  8
_0-1_レイヤ___3
  6
CONTINUOUS
 62
    7
 10
2361.1600341085909
 20
607.20581403917413
 40
24.438357344771266
 50
190.25437278399161
 51
208.7390576201721
  0
ARC
  8
_0-1_レイヤ___3
  6
CONTINUOUS
 62
    7
 10
2349.0012223378581
 20
600.65520725381612
 40
10.628108114537472
 50
209.29175938289015
 51
235.70013893389074
  0
ARC
  8
_0-1_レイヤ___3
  6
CONTINUOUS
 62
    7
 10
2346.0878357908473
 20
597.03862137170086
 40
6.0100053719976723
 50
239.21745047864084
 51
291.72064635774041
  0
ARC
  8
_0-1_レイヤ___3
  6
CONTINUOUS
 62
    7
 10
2347.0427107866067
 20
595.38074098873972
 40
4.1255316517898724
 50
287.91908504927153
 51
354.91848841120679
  0
ARC
  8
_0-1_レイヤ___3
  6
CONTINUOUS
 62
    7
 10
2342.7897670168641
 20
595.70896757363835
 40
8.390979583157435
 50
355.2582573774576
 51
9.2332277543219057
  0
ARC
  8
_0-1_レイヤ___3
  6
CONTINUOUS
 62
    7
 10
2331.1882250178774
 20
593.90694954277615
 40
20.131515576923874
 50
8.9974594358461051
 51
18.022148470716807
  0
ARC
  8
_0-1_レイヤ___3
  6
CONTINUOUS
 62
    7
 10
2488.2735926072664
 20
647.43428477563361
 40
145.82546533102911
 50
197.38813848002658
 51
198.92639246873989
  0
ARC
  8
_0-1_レイヤ___3
  6
CONTINUOUS
 62
    7
 10
2361.1294156358076
 20
593.23794085479767
 40
3.5872611321513115
 50
272.91794581473687
 51
357.08208788868029
  0
ARC
  8
_0-1_レイヤ___3
  6
CONTINUOUS
 62
    7
 10
2361.4137391429931
 20
593.15704203243422
 40
3.5031881387772419
 50
181.66375495760633
 51
268.33624504237451
  0
ARC
  8
_0-1_レイヤ___3
  6
CONTINUOUS
 62
    7
 10
2361.4334133210564
 20
592.93394527696796
 40
3.5234769812056452
 50
91.974257651638013
 51
178.02574234837155
  0
ARC
  8
_0-1_レイヤ___3
  6
CONTINUOUS
 62
    7
 10
2361.1294156358076
 20
592.87272063266846
 40
3.5872611321510113
 50
2.9179121113244744
 51
87.082054185267893
  0
ARC
  8
_0-1_レイヤ___3
  6
CONTINUOUS
 62
    7
 10
1968.410320565589
 20
532.35704203243495
 40
3.5031881387775354
 50
271.66375495762065
 51
358.33624504238884
  0
ARC
  8
_0-1_レイヤ___3
  6
CONTINUOUS
 62
    7
 10
1968.5569404776406
 20
532.30023936708312
 40
3.4452013305004501
 50
180.74687868936846
 51
269.25312131064118
  0
ARC
  8
_0-1_レイヤ___3
  6
CONTINUOUS
 62
    7
 10
1968.6334173210566
 20
532.13394527696687
 40
3.5234769812065281
 50
91.97425765162366
 51
178.0257423483572
  0
ARC
  8
_0-1_レイヤ___3
  6
CONTINUOUS
 62
    7
 10
1968.3294206358084
 20
532.07271952525025
 40
3.5872621872279078
 50
2.9179289630282916
 51
87.082071036971712
  0
ARC
  8
_0-1_レイヤ___3
  6
CONTINUOUS
 62
    7
 10
2029.9070747317587
 20
531.26028786626625
 40
3.4049607309557417
 50
270.08341426594353
 51
359.91658573403731
  0
ARC
  8
_0-1_レイヤ___3
  6
CONTINUOUS
 62
    7
 10
2029.9569404776407
 20
531.30023936708221
 40
3.4452013304992986
 50
180.74687868935885
 51
269.25312131063151
  0
ARC
  8
_0-1_レイヤ___3
  6
CONTINUOUS
 62
    7
 10
2030.0334173210563
 20
531.13394527696778
 40
3.5234769812056452
 50
91.974257651638013
 51
178.02574234837155
  0
ARC
  8
_0-1_レイヤ___3
  6
CONTINUOUS
 62
    7
 10
2029.8405254246541
 20
531.18382431409509
 40
3.4722427997610836
 50
1.180017213600512
 51
88.819982786418649
  0
ARC
  8
_0-1_レイヤ___3
  6
CONTINUOUS
 62
    7
 10
2186.591628985459
 20
522.77693166367294
 40
3.5225003990071073
 50
268.70515770430086
 51
358.02168821246829
  0
ARC
  8
_0-1_レイヤ___3
  6
CONTINUOUS
 62
    7
 10
2186.6334153210569
 20
522.77671621049899
 40
3.5234769812065281
 50
181.97425765164283
 51
268.02574234837635
  0
ARC
  8
_0-1_レイヤ___3
  6
CONTINUOUS
 62
    7
 10
2186.6946410727742
 20
522.4727195252492
 40
3.5872621872285064
 50
92.917928963018724
 51
177.08207103696213
  0
ARC
  8
_0-1_レイヤ___3
  6
CONTINUOUS
 62
    7
 10
2186.624421801941
 20
522.56845162947934
 40
3.4886899987405013
 50
1.4269887060069064
 51
91.846165377223883
  0
ARC
  8
_0-1_レイヤ___3
  6
CONTINUOUS
 62
    7
 10
2248.0113297837765
 20
521.55599003255156
 40
3.502107302439005
 50
271.6476850248477
 51
1.6254690583926255
  0
ARC
  8
_0-1_レイヤ___3
  6
CONTINUOUS
 62
    7
 10
2248.2336287742319
 20
521.57573161256528
 40
3.5225003990071073
 50
178.70515770430089
 51
268.02168821246829
  0
ARC
  8
_0-1_レイヤ___3
  6
CONTINUOUS
 62
    7
 10
2248.233413321057
 20
521.53394527696742
 40
3.5234769812062345
 50
91.974257651638013
 51
178.02574234837155
  0
ARC
  8
_0-1_レイヤ___3
  6
CONTINUOUS
 62
    7
 10
2248.0242211641089
 20
521.56752405355155
 40
3.4889117963796297
 50
1.4421356293727596
 51
88.557864370608087
  0
ARC
  8
_0-1_レイヤ___3
  6
CONTINUOUS
 62
    7
 10
2051.5294206358076
 20
841.23793796221571
 40
3.5872621872276076
 50
272.91792896303309
 51
357.08207103697652
  0
ARC
  8
_0-1_レイヤ___3
  6
CONTINUOUS
 62
    7
 10
2051.8946430727742
 20
841.23793796221571
 40
3.5872621872279078
 50
182.91792896302832
 51
267.08207103697174
  0
ARC
  8
_0-1_レイヤ___3
  6
CONTINUOUS
 62
    7
 10
2051.8137431429936
 20
840.95361545503101
 40
3.5031881387775354
 50
91.663754957620682
 51
178.33624504238887
  0
ARC
  8
_0-1_レイヤ___3
  6
CONTINUOUS
 62
    7
 10
2051.7364368655135
 20
841.07973175495636
 40
3.3756832097856333
 50
359.58576790637164
 51
90.414232093609172
  0
ARC
  8
_0-1_レイヤ___3
  6
CONTINUOUS
 62
    7
 10
1909.81032256559
 20
692.15704003243468
 40
3.5031881387772423
 50
271.66375495761588
 51
358.33624504238406
  0
ARC
  8
_0-1_レイヤ___3
  6
CONTINUOUS
 62
    7
 10
1910.033419321057
 20
692.17671421049909
 40
3.5234769812065281
 50
181.97425765164283
 51
268.02574234837635
  0
ARC
  8
_0-1_レイヤ___3
  6
CONTINUOUS
 62
    7
 10
1910.0946450727747
 20
691.8727175252493
 40
3.5872621872288075
 50
92.917928963023513
 51
177.08207103696694
  0
ARC
  8
_0-1_レイヤ___3
  6
CONTINUOUS
 62
    7
 10
1909.7294226358081
 20
691.87271752524998
 40
3.587262187228208
 50
2.9179289630235083
 51
87.082071036966923
  0
LINE
  8
_0-1_レイヤ___3
  6
CONTINUOUS
 62
    7
 10
1871.5120338542908
 20
901.25532474373267
 11
1871.5120338542908
 21
897.05532474373308
  0
LINE
  8
_0-1_レイヤ___3
  6
CONTINUOUS
 62
    7
 10
1871.5120338542908
 20
897.05532474373308
 11
1982.5120318542913
 21
964.45532474373272
  0
LINE
  8
_0-1_レイヤ___3
  6
CONTINUOUS
 62
    7
 10
1982.5120318542913
 20
964.45532474373272
 11
1982.5120318542913
 21
968.65532474373276
  0
LINE
  8
_0-1_レイヤ___3
  6
CONTINUOUS
 62
    7
 10
1982.5120318542913
 20
968.65532474373276
 11
1871.5120338542908
 21
901.25532474373267
  0
LINE
  8
_0-1_レイヤ___3
  6
CONTINUOUS
 62
    7
 10
1882.1120338542914
 20
1023.655322743733
 11
1874.5120338542911
 21
1022.2553227437331
  0
LINE
  8
_0-1_レイヤ___3
  6
CONTINUOUS
 62
    7
 10
1874.5120338542911
 20
1022.2553227437331
 11
1874.5120338542911
 21
1026.4553227437327
  0
LINE
  8
_0-1_レイヤ___3
  6
CONTINUOUS
 62
    7
 10
1874.5120338542911
 20
1026.4553227437327
 11
1764.312035854291
 21
962.85532474373304
  0
LINE
  8
_0-1_レイヤ___3
  6
CONTINUOUS
 62
    7
 10
1764.312035854291
 20
962.85532474373304
 11
1871.1120338542912
 21
901.85532474373326
  0
LINE
  8
_0-1_レイヤ___3
  6
CONTINUOUS
 62
    7
 10
1871.1120338542912
 20
901.85532474373326
 11
1982.112031854291
 21
967.45532474373272
  0
LINE
  8
_0-1_レイヤ___3
  6
CONTINUOUS
 62
    7
 10
1982.112031854291
 20
967.45532474373272
 11
1882.1120338542914
 21
1023.655322743733
  0
LINE
  8
_0-1_レイヤ___3
  6
CONTINUOUS
 62
    7
 10
1870.9120338542914
 20
897.85532474373304
 11
1871.1120338542912
 21
901.85532474373326
  0
LINE
  8
_0-1_レイヤ___3
  6
CONTINUOUS
 62
    7
 10
1871.1120338542912
 20
901.85532474373326
 11
1764.312035854291
 21
962.85532474373304
  0
LINE
  8
_0-1_レイヤ___3
  6
CONTINUOUS
 62
    7
 10
1764.312035854291
 20
962.85532474373304
 11
1760.1120358542914
 21
960.45532474373294
  0
LINE
  8
_0-1_レイヤ___3
  6
CONTINUOUS
 62
    7
 10
1760.1120358542914
 20
960.45532474373294
 11
1870.9120338542914
 21
897.85532474373304
  0
LINE
  8
_0-1_レイヤ___3
  6
CONTINUOUS
 62
    7
 10
1183.312043854291
 20
1214.0553207437333
 11
920.11204785429186
 21
1366.8553187437331
  0
LINE
  8
_0-1_レイヤ___3
  6
CONTINUOUS
 62
    7
 10
920.11204785429186
 20
1366.8553187437331
 11
857.91204985429147
 21
1329.8553187437328
  0
LINE
  8
_0-1_レイヤ___3
  6
CONTINUOUS
 62
    7
 10
857.91204985429147
 20
1329.8553187437328
 11
857.51204985429104
 21
1159.6553207437328
  0
LINE
  8
_0-1_レイヤ___3
  6
CONTINUOUS
 62
    7
 10
857.51204985429104
 20
1159.6553207437328
 11
1123.7120458542915
 21
1005.4553247437329
  0
LINE
  8
_0-1_レイヤ___3
  6
CONTINUOUS
 62
    7
 10
1123.7120458542915
 20
1005.4553247437329
 11
1131.112045854291
 21
1045.6553227437328
  0
LINE
  8
_0-1_レイヤ___3
  6
CONTINUOUS
 62
    7
 10
1131.112045854291
 20
1045.6553227437328
 11
1130.5120458542915
 21
1172.6553207437328
  0
LINE
  8
_0-1_レイヤ___3
  6
CONTINUOUS
 62
    7
 10
1130.5120458542915
 20
1172.6553207437328
 11
1189.7120438542913
 21
1207.455320743733
  0
LINE
  8
_0-1_レイヤ___3
  6
CONTINUOUS
 62
    7
 10
1189.7120438542913
 20
1207.455320743733
 11
1183.312043854291
 21
1214.0553207437333
  0
LINE
  8
_0-1_レイヤ___3
  6
CONTINUOUS
 62
    7
 10
975.91204785429113
 20
1095.6553227437328
 11
975.91204785429113
 21
1092.855322743733
  0
LINE
  8
_0-1_レイヤ___3
  6
CONTINUOUS
 62
    7
 10
975.91204785429113
 20
1092.855322743733
 11
977.31204785429156
 21
1094.855322743733
  0
LINE
  8
_0-1_レイヤ___3
  6
CONTINUOUS
 62
    7
 10
863.11204985429129
 20
1327.4553187437327
 11
1121.5120458542913
 21
1177.455320743733
  0
LINE
  8
_0-1_レイヤ___3
  6
CONTINUOUS
 62
    7
 10
1180.7120438542916
 20
1208.4553207437332
 11
1124.1120458542912
 21
1175.8553207437328
  0
LINE
  8
_0-1_レイヤ___3
  6
CONTINUOUS
 62
    7
 10
1183.7120438542916
 20
1203.8553207437328
 11
1130.5120458542915
 21
1172.6553207437328
  0
LINE
  8
_0-1_レイヤ___3
  6
CONTINUOUS
 62
    7
 10
913.11204785429163
 20
1361.2553187437325
 11
857.31204985429122
 21
1328.8553187437331
  0
LINE
  8
_0-1_レイヤ___3
  6
CONTINUOUS
 62
    7
 10
1130.5120458542915
 20
1172.6553207437328
 11
1130.5120458542915
 21
1011.2553227437329
  0
LINE
  8
_0-1_レイヤ___3
  6
CONTINUOUS
 62
    7
 10
1124.9120458542911
 20
1175.8553207437328
 11
1124.9120458542911
 21
1006.4553247437325
  0
LINE
  8
_0-1_レイヤ___3
  6
CONTINUOUS
 62
    7
 10
1131.112045854291
 20
1011.2553227437329
 11
1123.7120458542915
 21
1006.8553247437333
  0
LINE
  8
_0-1_レイヤ___3
  6
CONTINUOUS
 62
    7
 10
857.91204985429147
 20
1329.8553187437328
 11
857.71204985429085
 21
1158.655320743733
  0
LINE
  8
_0-1_レイヤ___3
  6
CONTINUOUS
 62
    7
 10
1202.9120438542914
 20
1226.6553207437332
 11
1368.9120418542916
 21
1325.8553187437328
  0
LINE
  8
_0-1_レイヤ___3
  6
CONTINUOUS
 62
    7
 10
933.1120478542914
 20
1379.455318743733
 11
1115.5120458542915
 21
1483.8553167437331
  0
LINE
  8
_0-1_レイヤ___3
  6
CONTINUOUS
 62
    7
 10
1400.3120418542915
 20
1332.0553187437329
 11
1519.1120398542917
 21
1261.4553207437334
  0
LINE
  8
_0-1_レイヤ___3
  6
CONTINUOUS
 62
    7
 10
1132.5120458542915
 20
1495.0553167437331
 11
1381.7120418542909
 21
1351.0553187437326
  0
LINE
  8
_0-1_レイヤ___3
  6
CONTINUOUS
 62
    7
 10
1381.7120418542909
 20
1351.0553187437326
 11
1391.1120418542914
 21
1337.8553187437331
  0
LINE
  8
_0-1_レイヤ___3
  6
CONTINUOUS
 62
    7
 10
1123.7120458542915
 20
1004.655324743733
 11
857.51204985429104
 21
1158.655320743733
  0
LINE
  8
_0-1_レイヤ___3
  6
AIGENLINE001
 62
    7
 10
948.91204785429068
 20
1108.8553227437328
 11
948.91204785429068
 21
1277.8553207437326
  0
LINE
  8
_0-1_レイヤ___3
  6
AIGENLINE001
 62
    7
 10
1015.7120478542913
 20
1070.0553227437333
 11
1015.7120478542913
 21
1239.0553207437333
  0
LINE
  8
_0-1_レイヤ___3
  6
AIGENLINE001
 62
    7
 10
948.91204785429068
 20
1277.8553207437326
 11
1225.7120438542916
 21
1439.655316743733
  0
LINE
  8
_0-1_レイヤ___3
  6
AIGENLINE002
 62
    7
 10
975.91204785429113
 20
1262.2553207437327
 11
1252.9120438542914
 21
1424.0553167437329
  0
LINE
  8
_0-1_レイヤ___3
  6
AIGENLINE001
 62
    7
 10
1015.7120478542913
 20
1239.0553207437333
 11
1292.5120418542911
 21
1400.8553187437328
  0
LINE
  8
_0-1_レイヤ___3
  6
AIGENLINE002
 62
    7
 10
975.91204785429113
 20
1095.6553227437328
 11
975.91204785429113
 21
1262.2553207437327
  0
LINE
  8
_0-1_レイヤ___3
  6
AIGENLINE002
 62
    7
 10
987.7120478542912
 20
1088.0553227437335
 11
987.7120478542912
 21
1254.6553207437328
  0
LINE
  8
_0-1_レイヤ___3
  6
AIGENLINE002
 62
    7
 10
987.7120478542912
 20
1254.6553207437328
 11
1264.7120438542913
 21
1416.4553167437327
  0
LINE
  8
_0-1_レイヤ___3
  6
CONTINUOUS
 62
    7
 10
904.71204785429109
 20
1362.0553187437329
 11
916.71204785429097
 21
1363.6553187437332
  0
LINE
  8
_0-1_レイヤ___3
  6
CONTINUOUS
 62
    7
 10
916.71204785429097
 20
1363.6553187437332
 11
1179.9120438542911
 21
1209.2553207437331
  0
LINE
  8
_0-1_レイヤ___3
  6
CONTINUOUS
 62
    7
 10
1179.9120438542911
 20
1209.2553207437331
 11
1195.3120438542908
 21
1195.655320743733
  0
LINE
  8
_0-1_レイヤ___3
  6
CONTINUOUS
 62
    7
 10
1195.3120438542908
 20
1195.655320743733
 11
1326.3120418542912
 21
1120.0553227437333
  0
LINE
  8
_0-1_レイヤ___3
  6
CONTINUOUS
 62
    7
 10
792.31204985429122
 20
1427.8553167437331
 11
904.71204785429109
 21
1362.0553187437329
  0
LINE
  8
_0-1_レイヤ___3
  6
CONTINUOUS
 62
    7
 10
871.91204985429158
 20
1049.4553227437327
 11
854.91204985429158
 21
1064.6553227437325
  0
LINE
  8
_0-1_レイヤ___3
  6
CONTINUOUS
 62
    7
 10
854.91204985429158
 20
1064.6553227437325
 11
871.91204985429158
 21
1060.0553227437333
  0
LINE
  8
_0-1_レイヤ___3
  6
CONTINUOUS
 62
    7
 10
854.91204985429158
 20
1148.0553207437331
 11
854.91204985429158
 21
1064.6553227437325
  0
LINE
  8
_0-1_レイヤ___3
  6
CONTINUOUS
 62
    7
 10
854.91204985429158
 20
1064.6553227437325
 11
1118.7120458542915
 21
914.85532474373349
  0
LINE
  8
_0-1_レイヤ___3
  6
CONTINUOUS
 62
    7
 10
1118.7120458542915
 20
914.85532474373349
 11
1118.7120458542915
 21
996.85532474373326
  0
LINE
  8
_0-1_レイヤ___3
  6
CONTINUOUS
 62
    7
 10
1101.5120458542913
 20
930.05532474373331
 11
1118.7120458542915
 21
914.85532474373349
  0
LINE
  8
_0-1_レイヤ___3
  6
CONTINUOUS
 62
    7
 10
1118.7120458542915
 20
914.85532474373349
 11
1101.5120458542913
 21
919.45532474373272
  0
LINE
  8
_0-1_レイヤ___3
  6
CONTINUOUS
 62
    7
 10
2366.9120258542916
 20
1064.4553227437327
 11
2366.9120258542916
 21
511.25533074373294
  0
LINE
  8
_0-0_文字
  6
CONTINUOUS
 62
    7
 10
1023.9120458542908
 20
1253.0553207437331
 11
1098.9120458542907
 21
1123.2553227437327
  0
LINE
  8
_0-0_文字
  6
CONTINUOUS
 62
    7
 10
1098.9120458542907
 20
1123.2553227437327
 11
1136.3120458542908
 21
1123.2553227437327
  0
LINE
  8
_0-0_文字
  6
CONTINUOUS
 62
    7
 10
1045.5120458542915
 20
1095.0553227437329
 11
1183.9120438542914
 21
859.65532674373299
  0
LINE
  8
_0-0_文字
  6
CONTINUOUS
 62
    7
 10
1183.9120438542914
 20
859.65532674373299
 11
1221.3120438542915
 21
859.65532674373299
  0
TEXT
  8
_0-0_文字
 62
    7
 10
1217.0120438542908
 20
798.09532674373281
 40
46.000000000000227
 41
0.999999999999995
 50
0
  1
リベットルーフ
  0
TEXT
  8
_0-0_文字
 62
    7
 10
889.15204785429137
 20
997.35532474373315
 40
46.00000000000005
 41
1.0000000000000004
 50
-28.559972000000279
  1
110程度
  0
TEXT
  8
_0-0_文字
 62
    7
 10
789.17204985429089
 20
446.25533274373282
 40
46.000000000000227
 41
0.999999999999995
 50
0
  1
● 改修工事の場合、既存下地とリベットルーフとの間に絶縁シートが必要です。
  0
TEXT
  8
_0-0_文字
 62
    7
 10
1320.0520418542915
 20
1249.9953207437327
 40
45.999999999999943
 41
1.0000000000000011
 50
0
  1
FLシール
  0
TEXT
  8
_0-0_文字
 62
    7
 10
1136.2320458542904
 20
1108.4953227437327
 40
46.000000000000227
 41
0.999999999999995
 50
0
  1
FLテープ
  0
TEXT
  8
_0-0_文字
 62
    7
 10
1514.6520398542912
 20
1429.7553167437331
 40
45.999999999999943
 41
1.0000000000000011
 50
0
  1
リベットルーフ
  0
TEXT
  8
_0-0_文字
 62
    7
 10
2018.2520318542906
 20
1056.5553227437331
 40
46.000000000000227
 41
0.999999999999995
 50
0
  1
AYブチルテープ
  0
TEXT
  8
_0-0_文字
 62
    7
 10
1224.3920438542914
 20
847.4953267437329
 40
46.000000000000227
 41
0.999999999999995
 50
0
  1
帯状にカットした
  0
TEXT
  8
_0-0_文字
 62
    7
 10
1780.0720358542917
 20
778.59532674373304
 40
46.000000000000227
 41
0.999999999999995
 50
0
  1
AYシールMS-1
  0
INSERT
  2
-002-AIGNBL0102003A
  8
_0-0_文字
 10
-4550.8878701457088
 20
-265.14465725626707
 41
2
 42
2
 50
0
  0
INSERT
  2
-001-AIGNBL01020037
  8
_0-0_文字
 10
-4550.8878701457088
 20
-265.14465725626707
 41
2
 42
2
 50
0
  0
INSERT
  2
-003-AIGNBL0102003C
  8
_0-0_文字
 10
-4550.8878701457088
 20
-265.14465725626707
 41
2
 42
2
 50
0
  0
INSERT
  2
-004-AIGNBL0102003F
  8
_0-0_文字
 10
-4550.8878701457088
 20
-265.14465725626707
 41
2
 42
2
 50
0
  0
TEXT
  8
_0-0_文字
 62
    7
 10
1700.4372131560765
 20
1224.0074065948422
 40
45.999999999999943
 41
1.0000000000000011
 50
0
  1
FL鋼板
  0
INSERT
  2
-000-AIGNBL01020035
  8
_0-0_文字
 10
-4407.6426948439239
 20
-282.31257140515822
 41
2
 42
2
 50
0
  0
ENDSEC
  0
EOF
