  0
SECTION
  2
HEADER
  9
$ACADVER
  1
AC1009
  9
$INSBASE
 10
0
 20
0
 30
0
  9
$EXTMIN
 10
0
 20
0
  9
$EXTMAX
 10
1485
 20
1050
  9
$LIMMIN
 10
0
 20
0
  9
$LIMMAX
 10
1485
 20
1050
  9
$LTSCALE
 40
5
  0
ENDSEC
  0
SECTION
  2
TABLES
  0
TABLE
  2
LTYPE
 70
     9
  0
LTYPE
  2
CONTINUOUS
 70
    64
  3
実線
 72
    65
 73
     0
 40
0.0
  0
LTYPE
  2
DASHED1
 70
    64
  3
--  --  --  --  --  --  --  --  
 72
    65
 73
     2
 40
2.5
 49
1.25
 49
-1.25
  0
LTYPE
  2
DASHED2
 70
    64
  3
----    ----    ----    ----    
 72
    65
 73
     2
 40
5.0
 49
2.5
 49
-2.5
  0
LTYPE
  2
DASHED3
 70
    64
  3
------  ------  ------  ------  
 72
    65
 73
     2
 40
5.0
 49
3.75
 49
-1.25
  0
LTYPE
  2
CENTER1
 70
    64
  3
----- - ----- - ----- - ----- - 
 72
    65
 73
     4
 40
10.0
 49
6.25
 49
-1.25
 49
1.25
 49
-1.25
  0
LTYPE
  2
CENTER2
 70
    64
  3
----------  --  ----------  --  
 72
    65
 73
     4
 40
20.0
 49
12.5
 49
-2.5
 49
2.5
 49
-2.5
  0
LTYPE
  2
PHANTOM1
 70
    64
  3
--- - - --- - - --- - - --- - - 
 72
    65
 73
     6
 40
10.0
 49
3.25
 49
-1.25
 49
1.25
 49
-1.25
 49
1.25
 49
-1.25
  0
LTYPE
  2
PHANTOM2
 70
    64
  3
--------  -  -  --------  -  -  
 72
    65
 73
     6
 40
20.0
 49
10.0
 49
-2.5
 49
1.25
 49
-2.5
 49
1.25
 49
-2.5
  0
LTYPE
  2
DOT
 70
    64
  3
-   -   -   -   -   -   -   -   
 72
    65
 73
     2
 40
2.5
 49
0.625
 49
-1.875
  0
LTYPE
  2
DUMMY
 70
    64
  3
ダミー
 72
    65
 73
     0
 40
0.0
  0
LTYPE
  2
RAND1
 70
    64
  3
ランダム線1
 72
    65
 73
     4
 40
10.0
 49
1.0
 49
-2.0
 49
3.0
 49
-4.0
  0
LTYPE
  2
RAND2
 70
    64
  3
ランダム線2
 72
    65
 73
     4
 40
14.0
 49
2.0
 49
-3.0
 49
4.0
 49
-5.0
  0
LTYPE
  2
RAND3
 70
    64
  3
ランダム線3
 72
    65
 73
     4
 40
18.0
 49
3.0
 49
-4.0
 49
5.0
 49
-6.0
  0
LTYPE
  2
RAND4
 70
    64
  3
ランダム線4
 72
    65
 73
     4
 40
22.0
 49
4.0
 49
-5.0
 49
6.0
 49
-7.0
  0
LTYPE
  2
RAND5
 70
    64
  3
ランダム線5
 72
    65
 73
     4
 40
26.0
 49
5.0
 49
-6.0
 49
7.0
 49
-8.0
  0
LTYPE
  2
LONG1
 70
    64
  3
----------  --  ----------  --  
 72
    65
 73
     4
 40
40.0
 49
32.5
 49
-2.5
 49
2.5
 49
-2.5
  0
LTYPE
  2
LONG2
 70
    64
  3
--------  -  -  --------  -  -  
 72
    65
 73
     6
 40
40.0
 49
30.0
 49
-2.5
 49
1.25
 49
-2.5
 49
1.25
 49
-2.5
  0
LTYPE
  2
LONG3
 70
    64
  3
+++++++++++++++..+++++++++++++++
 72
    65
 73
     2
 40
40.0
 49
37.5
 49
-2.5
  0
LTYPE
  2
LONG4
 70
    64
  3
+++++++++++++++..+++++++++++++++
 72
    65
 73
     2
 40
80.0
 49
75.0
 49
-5.0
  0
LTYPE
  2
LONG5
 70
    64
  3
----------  --  ----------  --  
 72
    65
 73
     4
 40
60.0
 49
37.5
 49
-7.5
 49
7.5
 49
-7.5
  0
LTYPE
  2
dashed
 70
   64
  3
-------   -------------   ------
 72
   65
 73
    2
 40
7.5
 49
6
 49
-1.5
  0
LTYPE
  2
dashed_spaced
 70
   64
  3
----        --------        ----
 72
   65
 73
    2
 40
12
 49
6
 49
-6
  0
LTYPE
  2
long_dashed_dotted
 70
   64
  3
------------- --- --------------
 72
   65
 73
    4
 40
15.25
 49
12
 49
-1.5
 49
0.25
 49
-1.5
  0
LTYPE
  2
long_dashed_double-dotted
 70
   64
  3
----------- --- --- ------------
 72
   65
 73
    6
 40
17
 49
12
 49
-1.5
 49
0.25
 49
-1.5
 49
0.25
 49
-1.5
  0
LTYPE
  2
long_dashed_triplicate-dotted
 70
   64
  3
--------- --- --- --- ----------
 72
   65
 73
    8
 40
18.75
 49
12
 49
-1.5
 49
0.25
 49
-1.5
 49
0.25
 49
-1.5
 49
0.25
 49
-1.5
  0
LTYPE
  2
dotted
 70
   64
  3
   -       -       -       -    
 72
   65
 73
    2
 40
1.75
 49
0.25
 49
-1.5
  0
LTYPE
  2
chain
 70
   64
  3
-------------- -- --------------
 72
   65
 73
    4
 40
18.5
 49
12
 49
-1.5
 49
3.5
 49
-1.5
  0
LTYPE
  2
chain_double_dash
 70
   64
  3
------------ -- -- -------------
 72
   65
 73
    6
 40
23.5
 49
12
 49
-1.5
 49
3.5
 49
-1.5
 49
3.5
 49
-1.5
  0
LTYPE
  2
dashed_dotted
 70
   64
  3
-----------     -     ----------
 72
   65
 73
    4
 40
9.25
 49
6
 49
-1.5
 49
0.25
 49
-1.5
  0
LTYPE
  2
double-dashed_dotted
 70
   64
  3
------   -----------   -   -----
 72
   65
 73
    6
 40
16.75
 49
6
 49
-1.5
 49
6
 49
-1.5
 49
0.25
 49
-1.5
  0
LTYPE
  2
dashed_double-dotted
 70
   64
  3
---------    -    -    ---------
 72
   65
 73
    6
 40
11
 49
6
 49
-1.5
 49
0.25
 49
-1.5
 49
0.25
 49
-1.5
  0
LTYPE
  2
double-dashed_double-dotted
 70
   64
  3
-----   ---------   -   -   ----
 72
   65
 73
    8
 40
18.5
 49
6
 49
-1.5
 49
6
 49
-1.5
 49
0.25
 49
-1.5
 49
0.25
 49
-1.5
  0
LTYPE
  2
dashed_triplicate-dotted
 70
   64
  3
-------    -    -    -    ------
 72
   65
 73
    8
 40
12.75
 49
6
 49
-1.5
 49
0.25
 49
-1.5
 49
0.25
 49
-1.5
 49
0.25
 49
-1.5
  0
LTYPE
  2
double-dashed_triplicate-dotted
 70
   64
  3
-----  ---------  -  -  -  -----
 72
   65
 73
   10
 40
20.25
 49
6
 49
-1.5
 49
6
 49
-1.5
 49
0.25
 49
-1.5
 49
0.25
 49
-1.5
 49
0.25
 49
-1.5
  0
LTYPE
  2
undefined
 70
   64
  3
--------------------------------
 72
   65
 73
    0
 40
0
  0
ENDTAB
  0
TABLE
  2
STYLE
  5
3
100
AcDbSymbolTable
 70
     1
  0
STYLE
  5
10
100
AcDbSymbolTableRecord
100
AcDbTextStyleTableRecord
  2
STANDARD
 70
     0
 40
0.0
 41
1.0
 50
0.0
 71
     0
 42
0.2
  3
txt
  4
bigfont.shx
  0
STYLE
  5
26
100
AcDbSymbolTableRecord
100
AcDbTextStyleTableRecord
  2
TATEGAKI
 70
    68
 40
0.0
 41
1.0
 50
0.0
 71
     0
 42
1.0
  3
txt
  4
bigfont.shx
  0
ENDTAB
  0
TABLE
  2
LAYER
 70
    4
  0
LAYER
  2
_0-0_
 70
   64
 62
    7
  6
CONTINUOUS
  0
LAYER
  2
_2-0_
 70
   64
 62
    7
  6
CONTINUOUS
  0
LAYER
  2
_e-0_
 70
   64
 62
    7
  6
CONTINUOUS
  0
LAYER
  2
ADD_LINE
 70
   64
 62
    7
  6
CONTINUOUS
  0
ENDTAB
  0
ENDSEC
  0
SECTION
  2
BLOCKS
  0
ENDSEC
  0
SECTION
  2
ENTITIES
  0
LINE
  8
_e-0_
  6
CONTINUOUS
 62
    7
 10
1447.3064931608114
 20
221.03177475142792
 11
1447.3064931608114
 21
41.031774751427932
  0
TEXT
  8
_e-0_
 62
    7
 10
1067.3064931608114
 20
166.03177475142792
 40
20.000000000000018
 41
0.9999999999999986
 50
0
  1
ﾘﾍﾞｯﾄﾙｰﾌ ﾅｲﾝ
  0
TEXT
  8
_e-0_
 62
    7
 10
1067.3064931608114
 20
136.03177475142792
 40
20.000000000000018
 41
0.9999999999999986
 50
0
  1
ﾘﾍﾞｯﾄﾙｰﾌ SGM
  0
TEXT
  8
_e-0_
 62
    7
 10
1067.3064931608114
 20
106.03177475142793
 40
20
 41
1.0000000000000002
 50
0
  1
ﾘﾍﾞｯﾄﾙｰﾌ COOL
  0
TEXT
  8
_e-0_
 62
    7
 10
1067.3064931608114
 20
76.031774751427932
 40
19.999999999999996
 41
1.0000000000000002
 50
0
  1
ﾘﾍﾞｯﾄﾙｰﾌ SW
  0
TEXT
  8
_e-0_
 62
    7
 10
1067.3064931608114
 20
46.031774751427932
 40
19.999999999999972
 41
1.0000000000000013
 50
0
  1
ﾘﾍﾞｯﾄﾙｰﾌ HP
  0
LINE
  8
_e-0_
  6
CONTINUOUS
 62
    7
 10
1047.3064931608114
 20
221.03177475142792
 11
1047.3064931608114
 21
41.031774751427932
  0
TEXT
  8
_e-0_
 62
    7
 10
1067.3064931608114
 20
196.03177475142792
 40
20.000000000000018
 41
0.9999999999999993
 50
0
  1
シート名称
  0
LINE
  8
_e-0_
  6
CONTINUOUS
 62
    7
 10
1217.9103688764553
 20
221.03177475142792
 11
1217.9103688764553
 21
41.031774751427932
  0
LINE
  8
_e-0_
  6
CONTINUOUS
 62
    9
 10
1277.9103688764553
 20
221.03177475142792
 11
1277.9103688764553
 21
41.031774751427932
  0
TEXT
  8
_e-0_
 62
    7
 10
1237.9103688764553
 20
136.03177475142792
 40
20.000000000000018
 41
0.9999999999999988
 50
0
  1
○
  0
TEXT
  8
_e-0_
 62
    7
 10
1237.9103688764553
 20
106.03177475142793
 40
20
 41
0.9999999999999997
 50
0
  1
○
  0
TEXT
  8
_e-0_
 62
    7
 10
1237.9103688764553
 20
76.031774751427932
 40
19.999999999999996
 41
1
 50
0
  1
○
  0
TEXT
  8
_e-0_
 62
    7
 10
1237.9103688764553
 20
46.031774751427932
 40
19.999999999999972
 41
1.0000000000000011
 50
0
  1
○
  0
LINE
  8
_e-0_
  6
CONTINUOUS
 62
    7
 10
1277.9103688764553
 20
41.031774751427932
 11
1277.9103688764553
 21
221.03177475142792
  0
TEXT
  8
_e-0_
 62
    7
 10
1227.9103688764553
 20
196.03177475142792
 40
20.000000000000018
 41
0.9999999999999993
 50
0
  1
対応
  0
TEXT
  8
_e-0_
 62
    7
 10
1299.0364316016417
 20
195.09455457098449
 40
20.000000000000018
 41
0.9999999999999991
 50
0
  1
シート厚み
  0
TEXT
  8
_e-0_
 62
    7
 10
1288.6817929669633
 20
166.03177475142792
 40
20.000000000000018
 41
0.9999999999999995
 50
0
  1
1.5㎜、2.0㎜
  0
TEXT
  8
_e-0_
 62
    7
 10
1288.6817929669633
 20
136.03177475142792
 40
20.000000000000018
 41
0.9999999999999995
 50
0
  1
1.5㎜、2.0㎜
  0
TEXT
  8
_e-0_
 62
    7
 10
1288.6817929669633
 20
106.03177475142793
 40
20
 41
1.0000000000000004
 50
0
  1
1.5㎜、2.0㎜
  0
TEXT
  8
_e-0_
 62
    7
 10
1288.6817929669633
 20
76.031774751427932
 40
19.999999999999996
 41
1.0000000000000007
 50
0
  1
1.5㎜、2.0㎜
  0
TEXT
  8
_e-0_
 62
    7
 10
1323.6817929669633
 20
46.031774751427932
 40
19.999999999999972
 41
1.0000000000000009
 50
0
  1
2.0㎜
  0
TEXT
  8
_e-0_
 62
    7
 10
1408.884319905128
 20
116.4160859797515
 40
10
 41
1.0000000000000053
 50
0
  1
※
  0
TEXT
  8
_e-0_
 62
    7
 10
1409.1300889474883
 20
86.776339471109551
 40
9.9999999999999858
 41
1.0000000000000067
 50
0
  1
※
  0
TEXT
  8
_e-0_
 62
    7
 10
1351.5111447489369
 20
26.235232036376459
 40
9.9999999999999645
 41
1.0000000000000044
 50
0
  1
※印は受注生産品
  0
LINE
  8
_e-0_
  6
CONTINUOUS
 62
    7
 10
1047.3064931608114
 20
221.03177475142792
 11
1447.3064931608114
 21
221.03177475142792
  0
LINE
  8
_e-0_
  6
CONTINUOUS
 62
    7
 10
1047.3064931608114
 20
41.031774751427932
 11
1447.3064931608114
 21
41.031774751427932
  0
LINE
  8
_e-0_
  6
CONTINUOUS
 62
    7
 10
1047.3064931608114
 20
191.03177475142792
 11
1447.3064931608114
 21
191.03177475142792
  0
LINE
  8
_e-0_
  6
CONTINUOUS
 62
    7
 10
1047.3064931608114
 20
161.03177475142792
 11
1447.3064931608114
 21
161.03177475142792
  0
LINE
  8
_e-0_
  6
CONTINUOUS
 62
    7
 10
1047.3064931608114
 20
131.03177475142792
 11
1447.3064931608114
 21
131.03177475142792
  0
LINE
  8
_e-0_
  6
CONTINUOUS
 62
    7
 10
1047.3064931608114
 20
101.03177475142793
 11
1447.3064931608114
 21
101.03177475142793
  0
LINE
  8
_e-0_
  6
CONTINUOUS
 62
    7
 10
1047.3064931608114
 20
71.031774751427932
 11
1447.3064931608114
 21
71.031774751427932
  0
LINE
  8
_e-0_
  6
CONTINUOUS
 62
    9
 10
1217.9103688764553
 20
176.03177475142792
 11
1277.9103688764553
 21
176.03177475142792
  0
LINE
  8
_e-0_
  6
CONTINUOUS
 62
    9
 10
1217.9103688764553
 20
146.03177475142792
 11
1277.9103688764553
 21
146.03177475142792
  0
LINE
  8
_e-0_
  6
CONTINUOUS
 62
    9
 10
1247.9103688764553
 20
191.03177475142792
 11
1247.9103688764553
 21
41.031774751427932
  0
LINE
  8
_e-0_
  6
CONTINUOUS
 62
    9
 10
1217.9103688764553
 20
56.031774751427932
 11
1277.9103688764553
 21
56.031774751427932
  0
LINE
  8
_e-0_
  6
CONTINUOUS
 62
    9
 10
1217.9103688764553
 20
86.031774751427932
 11
1277.9103688764553
 21
86.031774751427932
  0
LINE
  8
_e-0_
  6
CONTINUOUS
 62
    9
 10
1217.9103688764553
 20
116.03177475142793
 11
1277.9103688764553
 21
116.03177475142793
  0
TEXT
  8
_e-0_
 62
    7
 10
1237.9830919681926
 20
165.98334059744468
 40
20.000000000000018
 41
0.9999999999999988
 50
0
  1
×
  0
TEXT
  8
_2-0_
 62
    7
 10
180.65418445220558
 20
140.84125598240831
 40
20.000000000000018
 41
0.9999999999999988
 50
0
  1
●ＡＹドレンを「先付け」で納める場合
  0
LINE
  8
_2-0_
  6
CONTINUOUS
 62
    7
 10
593.73155457345388
 20
488.64975108352371
 11
591.94415092180759
 21
486.78777937932796
  0
LINE
  8
_2-0_
  6
CONTINUOUS
 62
    7
 10
591.47803865977414
 20
599.27703106474655
 11
589.61631468997223
 21
601.064186981999
  0
LINE
  8
_2-0_
  6
CONTINUOUS
 62
    7
 10
593.76214977109476
 20
487.14996706314037
 11
593.73155457345388
 21
488.64975108352371
  0
LINE
  8
_2-0_
  6
CONTINUOUS
 62
    7
 10
591.44756732933024
 20
600.77631961634222
 11
591.47803865977414
 21
599.27703106474655
  0
LINE
  8
_2-0_
  6
CONTINUOUS
 62
    7
 10
591.44756732933024
 20
600.77631961634222
 11
589.61569535398758
 21
601.064186981999
  0
LINE
  8
_2-0_
  6
CONTINUOUS
 62
    7
 10
593.76214977109476
 20
487.14996706314037
 11
591.94464639059538
 21
486.78777937932796
  0
LINE
  8
_2-0_
  6
CONTINUOUS
 62
    7
 10
593.73155457345388
 20
488.64975108352371
 11
627.26847427404687
 21
490.38215769973465
  0
LINE
  8
_2-0_
  6
CONTINUOUS
 62
    7
 10
593.76214977109476
 20
487.14996706314037
 11
627.29906947168752
 21
488.8823736793513
  0
LINE
  8
_2-0_
  6
CONTINUOUS
 62
    7
 10
591.44756732933024
 20
600.77631961634222
 11
625.02722121286274
 21
600.41165458859143
  0
LINE
  8
_2-0_
  6
CONTINUOUS
 62
    7
 10
591.47803865977414
 20
599.27703106474655
 11
625.05781641050362
 21
598.91187056820786
  0
LINE
  8
_2-0_
  6
CONTINUOUS
 62
    7
 10
627.29906947168752
 20
488.8823736793513
 11
627.26851889561897
 21
490.38215860867479
  0
LINE
  8
_2-0_
  6
CONTINUOUS
 62
    7
 10
625.05777176052572
 20
598.91187105375025
 11
625.02722121286274
 21
600.41165458859143
  0
LINE
  8
_2-0_
  6
CONTINUOUS
 62
    7
 10
589.61569535398758
 20
601.064186981999
 11
372.34557699184552
 21
596.63833983469112
  0
LINE
  8
_2-0_
  6
CONTINUOUS
 62
    7
 10
559.17840230480965
 20
357.27992948092293
 11
569.17840230480965
 21
357.27992948092293
  0
ARC
  8
_2-0_
  6
CONTINUOUS
 62
    7
 10
737.35011925280924
 20
497.15695016842062
 40
13.000063514387302
 50
90
 51
129.9998779296875
  0
LINE
  8
_2-0_
  6
CONTINUOUS
 62
    7
 10
722.30949895530216
 20
501.50687141524293
 11
728.99411610462585
 21
507.11557809206488
  0
LINE
  8
_2-0_
  6
CONTINUOUS
 62
    7
 10
728.73723255843458
 20
493.84611453302909
 11
722.30949895530216
 21
501.50687141524293
  0
LINE
  8
_2-0_
  6
CONTINUOUS
 62
    7
 10
641.25840709649174
 20
605.64486283808174
 11
651.25840709649174
 21
605.64486283808174
  0
LINE
  8
_2-0_
  6
DASHED3
 62
    7
 10
737.35011925280924
 20
512.15701367797487
 11
737.35011925280924
 21
511.15701367797493
  0
LINE
  8
_2-0_
  6
CONTINUOUS
 62
    7
 10
728.50426725151601
 20
488.6633764751856
 11
659.44285480845087
 21
487.85898289834631
  0
LINE
  8
_2-0_
  6
CONTINUOUS
 62
    7
 10
776.00461219441172
 20
491.5512163043249
 11
776.25804447932296
 21
490.15696713572265
  0
LINE
  8
_2-0_
  6
CONTINUOUS
 62
    7
 10
726.07597472297334
 20
485.15669613020265
 11
716.67172939793636
 21
485.15669613020265
  0
LINE
  8
_2-0_
  6
CONTINUOUS
 62
    7
 10
726.39753396619403
 20
485.2736267641011
 11
737.37761777052697
 21
494.48736434026546
  0
LINE
  8
_2-0_
  6
CONTINUOUS
 62
    7
 10
738.98789133056857
 20
495.65691841364344
 11
771.08510260128753
 21
495.65691841364344
  0
LINE
  8
_2-0_
  6
CONTINUOUS
 62
    7
 10
781.2583154848428
 20
498.15680618200957
 11
781.2583154848428
 21
490.15696713572265
  0
LINE
  8
_2-0_
  6
CONTINUOUS
 62
    7
 10
639.25819960052593
 20
640.15667433193266
 11
631.25811281984534
 21
640.15667433193266
  0
LINE
  8
_2-0_
  6
CONTINUOUS
 62
    7
 10
635.41484821429754
 20
630.69916611221743
 11
631.25811281984534
 21
635.15689879520039
  0
LINE
  8
_2-0_
  6
CONTINUOUS
 62
    7
 10
734.25789854874188
 20
468.15666655525251
 11
734.25789854874188
 21
462.15703500493123
  0
LINE
  8
_2-0_
  6
CONTINUOUS
 62
    7
 10
726.25781176806095
 20
468.15666655525251
 11
734.25789854874188
 21
468.15666655525251
  0
LINE
  8
_2-0_
  6
CONTINUOUS
 62
    7
 10
718.25797272177419
 20
470.1568740512181
 11
718.25797272177419
 21
483.15698410302491
  0
LINE
  8
_2-0_
  6
CONTINUOUS
 62
    7
 10
726.25781176806095
 20
462.15703500493123
 11
734.25789854874188
 21
462.15703500493123
  0
LINE
  8
_2-0_
  6
CONTINUOUS
 62
    7
 10
724.25809974088338
 20
470.1568740512181
 11
724.25809974088338
 21
483.15698410302491
  0
LINE
  8
_2-0_
  6
CONTINUOUS
 62
    7
 10
718.0830722397144
 20
483.15698410302491
 11
724.43300022294329
 21
483.15698410302491
  0
LINE
  8
_2-0_
  6
CONTINUOUS
 62
    7
 10
723.61795406716828
 20
483.15698410302491
 11
723.61795406716828
 21
485.15669613020265
  0
LINE
  8
_2-0_
  6
CONTINUOUS
 62
    7
 10
718.8981183954894
 20
483.15698410302491
 11
718.8981183954894
 21
485.15669613020265
  0
LINE
  8
_2-0_
  6
CONTINUOUS
 62
    7
 10
718.0830722397144
 20
483.15698410302491
 11
718.0830722397144
 21
485.15669613020265
  0
LINE
  8
_2-0_
  6
CONTINUOUS
 62
    7
 10
724.43300022294329
 20
483.15698410302491
 11
724.43300022294329
 21
485.15669613020265
  0
LINE
  8
_2-0_
  6
CONTINUOUS
 62
    7
 10
636.75806409776578
 20
612.79540146849308
 11
636.75806409776578
 21
627.28934991523056
  0
LINE
  8
_2-0_
  6
CONTINUOUS
 62
    7
 10
633.11438663298247
 20
486.77638359721072
 11
630.14751953220434
 21
486.71593640511077
  0
LINE
  8
_2-0_
  6
CONTINUOUS
 62
    7
 10
636.90001590544341
 20
489.75266460495533
 11
637.52207696840719
 21
492.10415947140393
  0
LINE
  8
_2-0_
  6
CONTINUOUS
 62
    7
 10
630.75050504684123
 20
602.75224914171019
 11
627.78561982121403
 21
602.69180194961018
  0
LINE
  8
_2-0_
  6
CONTINUOUS
 62
    7
 10
634.6550468283516
 20
599.93005892694191
 11
634.92978427113394
 21
599.03722417149743
  0
LINE
  8
_2-0_
  6
CONTINUOUS
 62
    7
 10
653.36320504891523
 20
486.49396638821884
 11
643.14663864643558
 21
481.80732712531608
  0
LINE
  8
_2-0_
  6
CONTINUOUS
 62
    7
 10
730.39770122373113
 20
489.3652080129699
 11
737.05952680882035
 21
494.95508687585914
  0
LINE
  8
_2-0_
  6
CONTINUOUS
 62
    7
 10
726.84370360952244
 20
493.14439619119071
 11
637.52207696840719
 21
492.10415947140393
  0
LINE
  8
_2-0_
  6
CONTINUOUS
 62
    7
 10
728.73713758173744
 20
493.84622772897501
 11
735.42175473106113
 21
499.45493440579696
  0
LINE
  8
_2-0_
  6
CONTINUOUS
 62
    7
 10
632.83964919020013
 20
608.79597741413727
 11
608.21584137883121
 21
608.29456300097968
  0
LINE
  8
_2-0_
  6
CONTINUOUS
 62
    7
 10
603.78288213523342
 20
482.17818551291344
 11
610.78137876156825
 21
482.32063278937858
  0
LINE
  8
_2-0_
  6
CONTINUOUS
 62
    7
 10
610.82225493655403
 20
480.32092076220079
 11
610.78137876156825
 21
482.32063278937858
  0
LINE
  8
_2-0_
  6
CONTINUOUS
 62
    7
 10
639.18065873525029
 20
480.89863736866494
 11
610.82225493655403
 21
480.32092076220079
  0
LINE
  8
_2-0_
  6
CONTINUOUS
 62
    7
 10
716.18071982932065
 20
485.56347600490869
 11
715.61885822406316
 21
488.51349716690493
  0
LINE
  8
_2-0_
  6
CONTINUOUS
 62
    7
 10
601.25822092748217
 20
606.15265143173042
 11
608.25671755381688
 21
606.29485097380189
  0
LINE
  8
_2-0_
  6
CONTINUOUS
 62
    7
 10
601.25822092748217
 20
606.15265143173042
 11
601.36994913910962
 21
600.66830742062257
  0
LINE
  8
_2-0_
  6
CONTINUOUS
 62
    7
 10
603.67115392360597
 20
487.66178632083978
 11
603.78288213523342
 21
482.17818551291344
  0
LINE
  8
_2-0_
  6
CONTINUOUS
 62
    7
 10
779.25810798887733
 20
500.15701367797504
 11
737.35011925280924
 21
500.15701367797504
  0
LINE
  8
_2-0_
  6
CONTINUOUS
 62
    7
 10
608.25671755381688
 20
606.29485097380189
 11
608.21584137883121
 21
608.29456300097968
  0
LINE
  8
_2-0_
  6
CONTINUOUS
 62
    7
 10
631.25811281984534
 20
640.15667433193266
 11
631.25811281984534
 21
635.15689879520039
  0
LINE
  8
_2-0_
  6
CONTINUOUS
 62
    7
 10
781.2583154848428
 20
490.15696713572265
 11
776.25804447932296
 21
490.15696713572265
  0
ARC
  8
_2-0_
  6
CONTINUOUS
 62
    7
 10
737.35011925280924
 20
497.15695016842062
 40
3.0000001243872991
 50
90
 51
129.9998779296875
  0
ARC
  8
_2-0_
  6
CONTINUOUS
 62
    7
 10
738.98789133056857
 20
492.6571026384828
 40
3.0000001243872991
 50
90
 51
130.00003051757812
  0
ARC
  8
_2-0_
  6
CONTINUOUS
 62
    7
 10
771.08510260128753
 20
490.65689514251716
 40
5.0000000460267522
 50
10.304885864257812
 51
90
  0
ARC
  8
_2-0_
  6
CONTINUOUS
 62
    7
 10
740.59147606197621
 20
490.65689514251716
 40
5.0000000460267522
 50
90
 51
129.99964904785156
  0
ARC
  8
_2-0_
  6
CONTINUOUS
 62
    7
 10
716.67172939793636
 20
485.65687187139105
 40
0.5000000106508782
 50
190.78463745117187
 51
270
  0
ARC
  8
_2-0_
  6
CONTINUOUS
 62
    7
 10
726.07597472297334
 20
485.65687187139105
 40
0.5000000106508782
 50
270
 51
309.99929809570312
  0
ARC
  8
_2-0_
  6
CONTINUOUS
 62
    7
 10
779.25810798887733
 20
498.15680618200957
 40
2.0000000426035132
 50
0
 51
90
  0
ARC
  8
_2-0_
  6
CONTINUOUS
 62
    7
 10
639.25819960052593
 20
638.15696230475487
 40
2.0000000426035132
 50
0
 51
90
  0
ARC
  8
_2-0_
  6
CONTINUOUS
 62
    7
 10
631.75804082663967
 20
627.28934991523056
 40
5.0000000460267522
 50
0
 51
43.000061035156243
  0
ARC
  8
_2-0_
  6
CONTINUOUS
 62
    7
 10
726.25781176806095
 20
470.1568740512181
 40
1.9999998006753938
 50
180
 51
270
  0
ARC
  8
_2-0_
  6
CONTINUOUS
 62
    7
 10
726.25781176806095
 20
470.1568740512181
 40
7.9999992027015754
 50
180
 51
270
  0
ARC
  8
_2-0_
  6
CONTINUOUS
 62
    7
 10
632.75814457462252
 20
612.79540146849308
 40
4.0000000852070263
 50
271.16648864746094
 51
0
  0
ARC
  8
_2-0_
  6
CONTINUOUS
 62
    7
 10
726.82388485801425
 20
496.15684642043789
 40
3.0000001243872991
 50
270
 51
310.00003051757812
  0
ARC
  8
_2-0_
  6
CONTINUOUS
 62
    7
 10
633.03312975179892
 20
490.77531218277869
 40
4.0000000852070263
 50
271.16683959960937
 51
345.18356323242187
  0
ARC
  8
_2-0_
  6
CONTINUOUS
 62
    7
 10
636.84130285410049
 20
599.62559335689718
 40
2.0000000426035132
 50
197.11248779296875
 51
271.16683959960937
  0
ARC
  8
_2-0_
  6
CONTINUOUS
 62
    7
 10
630.83200966241884
 20
598.75307282174845
 40
4.0000000852070263
 50
17.112380981445313
 51
91.166839599609375
  0
ARC
  8
_2-0_
  6
CONTINUOUS
 62
    7
 10
638.97702106350323
 20
490.89670203576645
 40
10.000000092053504
 50
271.16654968261719
 51
294.64263916015625
  0
ARC
  8
_2-0_
  6
CONTINUOUS
 62
    7
 10
659.61750755611683
 20
472.86015175693717
 40
15.000000138080258
 50
90.667236328125014
 51
114.6427001953125
  0
ARC
  8
_2-0_
  6
CONTINUOUS
 62
    7
 10
728.46933670198291
 20
491.66319225034624
 40
3.0000001243872991
 50
270.66714477539062
 51
309.9998779296875
  0
ARC
  8
_2-0_
  6
CONTINUOUS
 62
    7
 10
726.80877305998911
 20
496.14421196635135
 40
3.0000001243872991
 50
270.66714477539062
 51
310.00003051757812
  0
ARC
  8
_2-0_
  6
CONTINUOUS
 62
    7
 10
630.06601491662673
 20
490.71486499067873
 40
4.0000000852070263
 50
207.91091918945315
 51
271.16683959960937
  0
ARC
  8
_2-0_
  6
CONTINUOUS
 62
    7
 10
627.8671244367913
 20
598.69287336404227
 40
4.0000000852070263
 50
91.166488647460952
 51
154.41654968261719
  0
LINE
  8
_2-0_
  6
CONTINUOUS
 62
    7
 10
636.88193129469232
 20
597.626129064113
 11
641.25815936209756
 21
597.71531344590016
  0
LINE
  8
_2-0_
  6
CONTINUOUS
 62
    7
 10
641.25815936209756
 20
638.15696230475487
 11
641.25815936209756
 21
597.71531344590016
  0
LINE
  8
_2-0_
  6
CONTINUOUS
 62
    7
 10
603.67152552519678
 20
487.66178632083961
 11
626.53155682397278
 21
488.84271976474383
  0
LINE
  8
_2-0_
  6
CONTINUOUS
 62
    7
 10
624.25929517906695
 20
600.42017435945786
 11
601.36994913910962
 21
600.66830742062257
  0
LINE
  8
_2-0_
  6
CONTINUOUS
 62
    7
 10
671.3282472574549
 20
523.36764841478566
 11
671.32810516918971
 21
524.027648399491
  0
ARC
  8
_2-0_
  6
CONTINUOUS
 62
    7
 10
671.50442534794479
 20
524.1792715734066
 40
0.2325476129837481
 50
79.194248426685704
 51
220.69325580219001
  0
ARC
  8
_2-0_
  6
CONTINUOUS
 62
    7
 10
671.3580654535624
 20
524.04394967746362
 40
0.4103598571650413
 50
357.73659972647056
 51
62.425235789600791
  0
LINE
  8
_2-0_
  6
CONTINUOUS
 62
    7
 10
671.76810515899319
 20
524.02774312500128
 11
671.7682472472585
 21
523.36774314029594
  0
LINE
  8
_2-0_
  6
CONTINUOUS
 62
    7
 10
671.7682472472585
 20
523.36774314029594
 11
671.98829675776767
 21
523.13779050838218
  0
LINE
  8
_2-0_
  6
CONTINUOUS
 62
    7
 10
671.98829675776767
 20
523.13779050838218
 11
672.64829674247289
 21
523.13793259664749
  0
ARC
  8
_2-0_
  6
CONTINUOUS
 62
    7
 10
672.80326428463081
 20
522.95693024039315
 40
0.2382788116725092
 50
350.60083813609282
 51
130.56891893032747
  0
LINE
  8
_2-0_
  6
CONTINUOUS
 62
    7
 10
673.03834409619128
 20
522.91801656299344
 11
672.64839146798317
 21
522.69793260684401
  0
LINE
  8
_2-0_
  6
CONTINUOUS
 62
    7
 10
672.64839146798317
 20
522.69793260684401
 11
671.98839148327795
 21
522.69779051857859
  0
LINE
  8
_2-0_
  6
CONTINUOUS
 62
    7
 10
671.98839148327795
 20
522.69779051857859
 11
671.76843885113146
 21
522.4777431609208
  0
LINE
  8
_2-0_
  6
CONTINUOUS
 62
    7
 10
671.76843885113146
 20
522.4777431609208
 11
671.76858093939677
 21
521.8177431762166
  0
ARC
  8
_2-0_
  6
CONTINUOUS
 62
    7
 10
671.58939893524598
 20
521.66777602606987
 40
0.2336585901151666
 50
259.95971171746646
 51
39.927792511701114
  0
ARC
  8
_2-0_
  6
CONTINUOUS
 62
    7
 10
671.7647830381178
 20
521.81659606226242
 40
0.4362033580277351
 50
179.86176751361967
 51
240.30006800298156
  0
LINE
  8
_2-0_
  6
CONTINUOUS
 62
    7
 10
671.32858094959317
 20
521.81764845070643
 11
671.32843886132787
 21
522.47764843541063
  0
LINE
  8
_2-0_
  6
CONTINUOUS
 62
    7
 10
671.32843886132787
 20
522.47764843541063
 11
671.10838935081847
 21
522.70760106732644
  0
LINE
  8
_2-0_
  6
CONTINUOUS
 62
    7
 10
671.10838935081847
 20
522.70760106732644
 11
670.44838936611313
 21
522.70745897906113
  0
LINE
  8
_2-0_
  6
CONTINUOUS
 62
    7
 10
670.44838936611313
 20
522.70745897906113
 11
670.05834201239611
 21
522.92737501271426
  0
ARC
  8
_2-0_
  6
CONTINUOUS
 62
    7
 10
670.427089788084
 20
522.72952249753541
 40
0.4184740611286685
 50
87.095473308076521
 51
151.78410937120671
  0
LINE
  8
_2-0_
  6
CONTINUOUS
 62
    7
 10
670.44829464060297
 20
523.14745896886461
 11
671.1082946253083
 21
523.14760105712992
  0
LINE
  8
_2-0_
  6
CONTINUOUS
 62
    7
 10
671.1082946253083
 20
523.14760105712992
 11
671.3282472574549
 21
523.36764841478566
  0
ARC
  8
_2-0_
  6
CONTINUOUS
 62
    7
 10
671.7502869477205
 20
523.08703377939889
 40
2.1786771916595677
 50
175.51844326041439
 51
264.69295989919067
  0
ARC
  8
_2-0_
  6
CONTINUOUS
 62
    7
 10
671.71968257908918
 20
522.68751044705402
 40
2.2159132402684385
 50
85.90510300975393
 51
165.10060842785367
  0
ARC
  8
_2-0_
  6
CONTINUOUS
 62
    7
 10
671.30815663718397
 20
522.75635518651768
 40
2.2159132402680246
 50
355.90510300973892
 51
75.100608427838665
  0
LINE
  8
_2-0_
  6
CONTINUOUS
 62
    7
 10
673.51841297634803
 20
522.59811990732931
 11
671.5487747012213
 21
520.9176958343179
  0
ARC
  8
_2-0_
  6
CONTINUOUS
 62
    7
 10
672.12942675330612
 20
521.39853196239505
 40
7.270069277438469
 50
19.366005950345563
 51
98.561511368445281
  0
ARC
  8
_2-0_
  6
CONTINUOUS
 62
    7
 10
673.43439570616692
 20
522.67458488593763
 40
6.3767291535609205
 50
111.98553672154827
 51
180.87928148607412
  0
ARC
  8
_2-0_
  6
CONTINUOUS
 62
    7
 10
671.73305410146031
 20
523.15427017416891
 40
4.7101785115785608
 50
187.04307609254215
 51
272.26621056385727
  0
ARC
  8
_2-0_
  6
CONTINUOUS
 62
    7
 10
671.55290740791713
 20
522.94832818134228
 40
4.5154426438159447
 50
274.65429995830164
 51
359.8774344296167
  0
LINE
  8
_2-0_
  6
CONTINUOUS
 62
    7
 10
676.06833972026857
 20
522.93866887683885
 11
676.0482837465679
 21
523.19866456510863
  0
LINE
  8
_2-0_
  6
CONTINUOUS
 62
    7
 10
676.0482837465679
 20
523.19866456510863
 11
678.98815235443283
 21
523.80929748960909
  0
LINE
  8
_2-0_
  6
CONTINUOUS
 62
    7
 10
676.7892051502904
 20
518.91882397537825
 11
676.78727188874109
 21
527.89882376727587
  0
LINE
  8
_2-0_
  6
CONTINUOUS
 62
    7
 10
676.78727188874109
 20
527.89882376727587
 11
688.47727161783837
 21
527.90134045185414
  0
LINE
  8
_2-0_
  6
CONTINUOUS
 62
    7
 10
688.47727161783837
 20
527.90134045185414
 11
688.47780983096459
 21
525.40134050978963
  0
LINE
  8
_2-0_
  6
CONTINUOUS
 62
    7
 10
688.47780983096459
 20
525.40134050978963
 11
699.80727135527843
 21
527.90377963374215
  0
LINE
  8
_2-0_
  6
CONTINUOUS
 62
    7
 10
699.80727135527843
 20
527.90377963374215
 11
699.78780956886806
 21
525.40377538597272
  0
LINE
  8
_2-0_
  6
CONTINUOUS
 62
    7
 10
699.78780956886806
 20
525.40377538597272
 11
711.12427109301973
 21
527.9062160169218
  0
LINE
  8
_2-0_
  6
CONTINUOUS
 62
    7
 10
711.12427109301973
 20
527.9062160169218
 11
711.10380930663268
 21
525.40621155386714
  0
LINE
  8
_2-0_
  6
CONTINUOUS
 62
    7
 10
711.10380930663268
 20
525.40621155386714
 11
722.43427083092342
 21
527.90865089310478
  0
LINE
  8
_2-0_
  6
CONTINUOUS
 62
    7
 10
722.43427083092342
 20
527.90865089310478
 11
722.41480904451282
 21
525.40864664533547
  0
LINE
  8
_2-0_
  6
CONTINUOUS
 62
    7
 10
722.41480904451282
 20
525.40864664533547
 11
733.74827056873414
 21
527.91108663042883
  0
LINE
  8
_2-0_
  6
CONTINUOUS
 62
    7
 10
733.74827056873414
 20
527.91108663042883
 11
733.72880878232399
 21
525.41108238265929
  0
LINE
  8
_2-0_
  6
CONTINUOUS
 62
    7
 10
733.72880878232399
 20
525.41108238265929
 11
745.06027030659141
 21
527.91352193718228
  0
LINE
  8
_2-0_
  6
CONTINUOUS
 62
    7
 10
745.06027030659141
 20
527.91352193718228
 11
750.6293401452541
 21
522.94472076063118
  0
LINE
  8
_2-0_
  6
CONTINUOUS
 62
    7
 10
750.6293401452541
 20
522.94472076063118
 11
756.28234001425221
 21
522.94593776815213
  0
LINE
  8
_2-0_
  6
CONTINUOUS
 62
    7
 10
756.28234001425221
 20
522.94593776815213
 11
756.25984162941904
 21
520.61593287058736
  0
ARC
  8
_2-0_
  6
CONTINUOUS
 62
    7
 10
754.24750802972653
 20
520.99212657663929
 40
2.0471952083092857
 50
264.18798751139434
 51
349.4111219827094
  0
LINE
  8
_2-0_
  6
CONTINUOUS
 62
    7
 10
754.04019905438065
 20
518.95545497579985
 11
676.7892051502904
 21
518.91882397537825
  0
LINE
  8
_2-0_
  6
PHANTOM2
 62
    7
 10
676.74834185736268
 20
522.92881527103998
 11
750.6293401452541
 21
522.94472076063118
  0
LINE
  8
_2-0_
  6
PHANTOM2
 62
    7
 10
670.70540745346705
 20
527.01186749984811
 11
661.01587211750086
 21
637.14645518679254
  0
LINE
  8
_2-0_
  6
CONTINUOUS
 62
    7
 10
667.04834208214936
 20
522.92672700411026
 11
657.22583240260064
 21
634.80636994059432
  0
ARC
  8
_2-0_
  6
CONTINUOUS
 62
    7
 10
659.46584173078759
 20
634.64738675887816
 40
2.2456441041343567
 50
100.82814464829751
 51
175.94027753807967
  0
LINE
  8
_2-0_
  6
CONTINUOUS
 62
    7
 10
659.04396647810859
 20
636.85304736595504
 11
661.53440625725796
 21
637.0714728828375
  0
LINE
  8
_2-0_
  6
CONTINUOUS
 62
    7
 10
661.53440625725796
 20
637.0714728828375
 11
662.96850238644993
 21
620.83467922484465
  0
LINE
  8
_2-0_
  6
CONTINUOUS
 62
    7
 10
662.96850238644993
 20
620.83467922484465
 11
667.8785342999422
 21
616.35654494721416
  0
LINE
  8
_2-0_
  6
CONTINUOUS
 62
    7
 10
667.8785342999422
 20
616.35654494721416
 11
666.32907164752271
 21
605.40930486175273
  0
LINE
  8
_2-0_
  6
CONTINUOUS
 62
    7
 10
666.32907164752271
 20
605.40930486175273
 11
668.81776402253718
 21
605.6476538968675
  0
LINE
  8
_2-0_
  6
CONTINUOUS
 62
    7
 10
668.81776402253718
 20
605.6476538968675
 11
667.26917507218536
 21
594.69045205228952
  0
LINE
  8
_2-0_
  6
CONTINUOUS
 62
    7
 10
667.26917507218536
 20
594.69045205228952
 11
669.75786744719983
 21
594.92880108740519
  0
LINE
  8
_2-0_
  6
CONTINUOUS
 62
    7
 10
669.75786744719983
 20
594.92880108740519
 11
668.20840479478056
 21
583.98156100194285
  0
LINE
  8
_2-0_
  6
CONTINUOUS
 62
    7
 10
668.20840479478056
 20
583.98156100194285
 11
670.69709716979503
 21
584.21991003705762
  0
LINE
  8
_2-0_
  6
CONTINUOUS
 62
    7
 10
670.69709716979503
 20
584.21991003705762
 11
669.14763451737554
 21
573.2726699515963
  0
LINE
  8
_2-0_
  6
CONTINUOUS
 62
    7
 10
669.14763451737554
 20
573.2726699515963
 11
671.63720059445745
 21
573.50105722759531
  0
LINE
  8
_2-0_
  6
CONTINUOUS
 62
    7
 10
671.63720059445745
 20
573.50105722759531
 11
670.08773794203819
 21
562.55381714213308
  0
LINE
  8
_2-0_
  6
CONTINUOUS
 62
    7
 10
670.08773794203819
 20
562.55381714213308
 11
672.57643031705254
 21
562.79216617724865
  0
LINE
  8
_2-0_
  6
CONTINUOUS
 62
    7
 10
672.57643031705254
 20
562.79216617724865
 11
671.02696766463328
 21
551.84492609178642
  0
LINE
  8
_2-0_
  6
CONTINUOUS
 62
    7
 10
671.02696766463328
 20
551.84492609178642
 11
673.51566003964763
 21
552.08327512690209
  0
LINE
  8
_2-0_
  6
CONTINUOUS
 62
    7
 10
673.51566003964763
 20
552.08327512690209
 11
671.96619738722825
 21
541.13603504143975
  0
LINE
  8
_2-0_
  6
CONTINUOUS
 62
    7
 10
671.96619738722825
 20
541.13603504143975
 11
674.45663716637796
 21
541.35446055832233
  0
LINE
  8
_2-0_
  6
CONTINUOUS
 62
    7
 10
674.45663716637796
 20
541.35446055832233
 11
675.67719895471782
 21
527.43788307242994
  0
LINE
  8
_2-0_
  6
CONTINUOUS
 62
    7
 10
675.67719895471782
 20
527.43788307242994
 11
666.72157750889301
 21
526.65242491372021
  0
LINE
  8
_2-0_
  6
CONTINUOUS
 62
    7
 10
655.78073385549601
 20
535.91193030828254
 11
652.72102921500493
 21
570.7980107346209
  0
LINE
  8
_2-0_
  6
CONTINUOUS
 62
    7
 10
652.72102921500493
 20
570.7980107346209
 11
662.69275009072294
 21
571.67258650421877
  0
LINE
  8
_2-0_
  6
CONTINUOUS
 62
    7
 10
662.69275009072294
 20
571.67258650421877
 11
665.75245473121413
 21
536.78650607788029
  0
LINE
  8
_2-0_
  6
CONTINUOUS
 62
    7
 10
665.75245473121413
 20
536.78650607788029
 11
655.78073385549601
 21
535.91193030828254
  0
LINE
  8
_2-0_
  6
DASHED3
 62
    7
 10
546.23609728521365
 20
534.37511584819276
 11
546.57596738948291
 21
530.49999155183559
  0
LINE
  8
_2-0_
  6
DASHED3
 62
    7
 10
546.57596738948291
 20
530.49999155183559
 11
655.4081857383544
 21
540.04518663960448
  0
LINE
  8
_2-0_
  6
DASHED3
 62
    7
 10
655.4081857383544
 20
540.04518663960448
 11
654.72931923188321
 21
547.78547347320387
  0
LINE
  8
_2-0_
  6
DASHED3
 62
    7
 10
654.72931923188321
 20
547.78547347320387
 11
545.89710088301194
 21
538.24027838543498
  0
LINE
  8
_2-0_
  6
DASHED3
 62
    7
 10
545.89710088301194
 20
538.24027838543498
 11
546.23609728521365
 21
534.37511584819276
  0
LINE
  8
_2-0_
  6
DASHED3
 62
    7
 10
556.99596742544816
 20
531.41388391447231
 11
556.65609732117889
 21
535.28900821082948
  0
LINE
  8
_2-0_
  6
DASHED3
 62
    7
 10
554.62506875569704
 20
531.20594282240017
 11
554.28519865142778
 21
535.08106711875723
  0
LINE
  8
_2-0_
  6
DASHED3
 62
    7
 10
556.31710091897708
 20
539.15417074807169
 11
556.65609732117889
 21
535.28900821082948
  0
LINE
  8
_2-0_
  6
DASHED3
 62
    7
 10
553.94620224922596
 20
538.94622965599956
 11
554.28519865142778
 21
535.08106711875723
  0
ARC
  8
_2-0_
  6
CONTINUOUS
 62
    7
 10
560.26723986651518
 20
576.49866202129726
 40
2.1368157235816225
 50
110.7327316397599
 51
189.92823705785963
  0
LINE
  8
_2-0_
  6
CONTINUOUS
 62
    7
 10
520.08356813177807
 20
491.35913894021121
 11
524.1410599963682
 21
491.40108853837154
  0
ARC
  8
_2-0_
  6
CONTINUOUS
 62
    7
 10
523.8593244025551
 20
490.05072368439613
 40
1.379441982713747
 50
15.646070621381419
 51
78.215056450216338
  0
ARC
  8
_2-0_
  6
CONTINUOUS
 62
    7
 10
527.2732497033096
 20
490.8374325275816
 40
2.1264232914271757
 50
191.24551487618857
 51
270.44102029428831
  0
ARC
  8
_2-0_
  6
CONTINUOUS
 62
    7
 10
527.22345364954595
 20
490.84041427327259
 40
2.1303697222732199
 50
271.77973800892983
 51
350.97524342702951
  0
ARC
  8
_2-0_
  6
CONTINUOUS
 62
    7
 10
530.65287149698827
 20
490.21692407906642
 40
1.3566299581798056
 50
90.526224116650255
 51
167.68640899340519
  0
LINE
  8
_2-0_
  6
CONTINUOUS
 62
    7
 10
530.6404119166998
 20
491.57349682031179
 11
534.35819200989772
 21
491.65782462487022
  0
LINE
  8
_2-0_
  6
CONTINUOUS
 62
    7
 10
534.35819200989772
 20
491.65782462487022
 11
535.56852748616848
 21
491.63812602391215
  0
ARC
  8
_2-0_
  6
CONTINUOUS
 62
    7
 10
535.28679189235515
 20
490.28776116993674
 40
1.379441982713854
 50
15.646070621373481
 51
78.215056450208394
  0
ARC
  8
_2-0_
  6
CONTINUOUS
 62
    7
 10
538.70539222742809
 20
491.06817085740482
 40
2.1297919478749967
 50
191.05478136631194
 51
270.25028678441168
  0
ARC
  8
_2-0_
  6
CONTINUOUS
 62
    7
 10
538.64385727729359
 20
491.07404043040117
 40
2.1368157235810372
 50
271.89978657574909
 51
351.09529199384878
  0
ARC
  8
_2-0_
  6
CONTINUOUS
 62
    7
 10
542.08033898678866
 20
490.45396156460805
 40
1.3566299581798056
 50
90.526224116650255
 51
167.68640899340519
  0
LINE
  8
_2-0_
  6
CONTINUOUS
 62
    7
 10
542.06787940650042
 20
491.81053430585342
 11
545.67899934745401
 21
491.87990845121749
  0
LINE
  8
_2-0_
  6
CONTINUOUS
 62
    7
 10
545.67899934745401
 20
491.87990845121749
 11
546.99599497596932
 21
491.87516350945475
  0
ARC
  8
_2-0_
  6
CONTINUOUS
 62
    7
 10
546.70218504895911
 20
490.53109383247136
 40
1.3758079698111896
 50
15.100279753754844
 51
77.669265582589759
  0
ARC
  8
_2-0_
  6
CONTINUOUS
 62
    7
 10
550.12238452676331
 20
491.30886087658558
 40
2.1335158426559899
 50
191.33566360172327
 51
270.53116901982298
  0
ARC
  8
_2-0_
  6
CONTINUOUS
 62
    7
 10
550.07599980141356
 20
491.30477876022519
 40
2.1303697222736266
 50
271.77973800891402
 51
350.97524342701377
  0
ARC
  8
_2-0_
  6
CONTINUOUS
 62
    7
 10
553.50541764885634
 20
490.68128856601822
 40
1.3566299581799155
 50
90.526224116644102
 51
167.68640899339903
  0
LINE
  8
_2-0_
  6
CONTINUOUS
 62
    7
 10
553.4929580685681
 20
492.03786130726377
 11
555.05718310943064
 21
492.07527816895163
  0
LINE
  8
_2-0_
  6
CONTINUOUS
 62
    7
 10
555.05718310943064
 20
492.07527816895163
 11
558.41375198163882
 21
492.11458982272922
  0
ARC
  8
_2-0_
  6
CONTINUOUS
 62
    7
 10
558.12283163273014
 20
490.7613353906512
 40
1.384172029535413
 50
15.298321920358843
 51
77.867307749193756
  0
ARC
  8
_2-0_
  6
CONTINUOUS
 62
    7
 10
561.54985201656336
 20
491.54589836212659
 40
2.1335158426556005
 50
191.33566360173421
 51
270.53116901983395
  0
ARC
  8
_2-0_
  6
CONTINUOUS
 62
    7
 10
561.5034672912152
 20
491.54181624576654
 40
2.1303697222735503
 50
271.77973800888338
 51
350.97524342698313
  0
ARC
  8
_2-0_
  6
CONTINUOUS
 62
    7
 10
564.92952717968944
 20
490.92560685815852
 40
1.3518116653955914
 50
90.797366280024605
 51
167.95755115677954
  0
LINE
  8
_2-0_
  6
CONTINUOUS
 62
    7
 10
564.91071507423737
 20
492.27728762053846
 11
568.62610633970212
 21
492.35190494096662
  0
LINE
  8
_2-0_
  6
CONTINUOUS
 62
    7
 10
568.62610633970212
 20
492.35190494096662
 11
569.83883064370627
 21
492.34191682413973
  0
ARC
  8
_2-0_
  6
CONTINUOUS
 62
    7
 10
569.55709504989227
 20
490.99155197016319
 40
1.3794419827150459
 50
15.646070621359486
 51
78.215056450194396
  0
ARC
  8
_2-0_
  6
CONTINUOUS
 62
    7
 10
572.97569538496612
 20
491.77196165763064
 40
2.1297919478744296
 50
191.05478136629938
 51
270.25028678439912
  0
ARC
  8
_2-0_
  6
CONTINUOUS
 62
    7
 10
572.91416043483105
 20
491.77783123062761
 40
2.1368157235810372
 50
271.89978657574909
 51
351.09529199384878
  0
ARC
  8
_2-0_
  6
CONTINUOUS
 62
    7
 10
576.35064214432668
 20
491.15775236483387
 40
1.3566299581803907
 50
90.526224116630331
 51
167.68640899338527
  0
LINE
  8
_2-0_
  6
CONTINUOUS
 62
    7
 10
576.33818256403879
 20
492.51432510607981
 11
579.95169133272464
 21
492.59340973557528
  0
LINE
  8
_2-0_
  6
CONTINUOUS
 62
    7
 10
579.95169133272464
 20
492.59340973557528
 11
580.93390801851251
 21
492.609233204215
  0
ARC
  8
_2-0_
  6
CONTINUOUS
 62
    7
 10
580.98393230003819
 20
491.23724046968368
 40
1.3729044002947577
 50
14.927953811989438
 51
92.088138688744365
  0
ARC
  8
_2-0_
  6
CONTINUOUS
 62
    7
 10
584.39609901271456
 20
492.005587814759
 40
2.1264232914261494
 50
191.24551487620209
 51
270.44102029430184
  0
ARC
  8
_2-0_
  6
CONTINUOUS
 62
    7
 10
584.34162792463303
 20
492.01486871616839
 40
2.1368157235804501
 50
271.89978657573818
 51
351.09529199383792
  0
LINE
  8
_2-0_
  6
CONTINUOUS
 62
    7
 10
579.97086318433742
 20
493.29926555662303
 11
568.66708798731099
 21
493.06269359067727
  0
LINE
  8
_2-0_
  6
CONTINUOUS
 62
    7
 10
568.66708798731099
 20
493.06269359067727
 11
555.03751302451838
 21
492.79068930092967
  0
LINE
  8
_2-0_
  6
CONTINUOUS
 62
    7
 10
555.03751302451838
 20
492.79068930092967
 11
545.7005600268011
 21
492.59547475639641
  0
LINE
  8
_2-0_
  6
CONTINUOUS
 62
    7
 10
545.7005600268011
 20
492.59547475639641
 11
534.39917365750591
 21
492.36861327458314
  0
ARC
  8
_2-0_
  6
CONTINUOUS
 62
    7
 10
587.77082882752825
 20
491.39143189140697
 40
1.3502414230458368
 50
105.11809405036884
 51
167.48130811087137
  0
LINE
  8
_2-0_
  6
CONTINUOUS
 62
    7
 10
463.8289536995174
 20
490.20395277434261
 11
467.88644556410759
 21
490.24590237250294
  0
ARC
  8
_2-0_
  6
CONTINUOUS
 62
    7
 10
467.60470997029444
 20
488.89553751852753
 40
1.379441982713747
 50
15.646070621381419
 51
78.215056450216338
  0
ARC
  8
_2-0_
  6
CONTINUOUS
 62
    7
 10
471.01863527104882
 20
489.682246361713
 40
2.1264232914271757
 50
191.24551487618857
 51
270.44102029428831
  0
ARC
  8
_2-0_
  6
CONTINUOUS
 62
    7
 10
470.96883921728528
 20
489.68522810740399
 40
2.1303697222732199
 50
271.77973800892983
 51
350.97524342702951
  0
ARC
  8
_2-0_
  6
CONTINUOUS
 62
    7
 10
474.3982570647276
 20
489.06173791319782
 40
1.3566299581798056
 50
90.526224116650255
 51
167.68640899340519
  0
LINE
  8
_2-0_
  6
CONTINUOUS
 62
    7
 10
474.38579748443914
 20
490.41831065444319
 11
478.10357757763705
 21
490.50263845900162
  0
LINE
  8
_2-0_
  6
CONTINUOUS
 62
    7
 10
478.10357757763705
 20
490.50263845900162
 11
479.31391305390775
 21
490.48293985804355
  0
ARC
  8
_2-0_
  6
CONTINUOUS
 62
    7
 10
479.03217746009454
 20
489.13257500406814
 40
1.379441982713854
 50
15.646070621373481
 51
78.215056450208394
  0
ARC
  8
_2-0_
  6
CONTINUOUS
 62
    7
 10
482.45077779516748
 20
489.91298469153617
 40
2.1297919478749967
 50
191.05478136631194
 51
270.25028678441168
  0
ARC
  8
_2-0_
  6
CONTINUOUS
 62
    7
 10
482.38924284503298
 20
489.91885426453257
 40
2.1368157235810372
 50
271.89978657574909
 51
351.09529199384878
  0
ARC
  8
_2-0_
  6
CONTINUOUS
 62
    7
 10
485.82572455452805
 20
489.29877539873939
 40
1.3566299581798056
 50
90.526224116650255
 51
167.68640899340519
  0
LINE
  8
_2-0_
  6
CONTINUOUS
 62
    7
 10
485.8132649742397
 20
490.65534813998482
 11
489.4243849151934
 21
490.72472228534883
  0
LINE
  8
_2-0_
  6
CONTINUOUS
 62
    7
 10
489.4243849151934
 20
490.72472228534883
 11
490.7413805437086
 21
490.71997734358609
  0
ARC
  8
_2-0_
  6
CONTINUOUS
 62
    7
 10
490.44757061669839
 20
489.3759076666027
 40
1.3758079698111896
 50
15.100279753754844
 51
77.669265582589759
  0
ARC
  8
_2-0_
  6
CONTINUOUS
 62
    7
 10
493.86777009450265
 20
490.15367471071698
 40
2.1335158426559899
 50
191.33566360172327
 51
270.53116901982298
  0
ARC
  8
_2-0_
  6
CONTINUOUS
 62
    7
 10
493.82138536915295
 20
490.14959259435659
 40
2.1303697222736266
 50
271.77973800891402
 51
350.97524342701377
  0
ARC
  8
_2-0_
  6
CONTINUOUS
 62
    7
 10
497.25080321659561
 20
489.52610240014963
 40
1.3566299581799155
 50
90.526224116644102
 51
167.68640899339903
  0
LINE
  8
_2-0_
  6
CONTINUOUS
 62
    7
 10
497.23834363630743
 20
490.88267514139517
 11
498.80256867716992
 21
490.92009200308303
  0
LINE
  8
_2-0_
  6
CONTINUOUS
 62
    7
 10
498.80256867716992
 20
490.92009200308303
 11
502.15913754937816
 21
490.95940365686062
  0
ARC
  8
_2-0_
  6
CONTINUOUS
 62
    7
 10
501.86821720046953
 20
489.6061492247826
 40
1.384172029535413
 50
15.298321920358843
 51
77.867307749193756
  0
ARC
  8
_2-0_
  6
CONTINUOUS
 62
    7
 10
505.29523758430264
 20
490.39071219625794
 40
2.1335158426556005
 50
191.33566360173421
 51
270.53116901983395
  0
ARC
  8
_2-0_
  6
CONTINUOUS
 62
    7
 10
505.24885285895459
 20
490.38663007989788
 40
2.1303697222735503
 50
271.77973800888338
 51
350.97524342698313
  0
ARC
  8
_2-0_
  6
CONTINUOUS
 62
    7
 10
508.67491274742883
 20
489.77042069228992
 40
1.3518116653955914
 50
90.797366280024605
 51
167.95755115677954
  0
LINE
  8
_2-0_
  6
CONTINUOUS
 62
    7
 10
508.65610064197676
 20
491.1221014546698
 11
512.37149190744151
 21
491.19671877509802
  0
LINE
  8
_2-0_
  6
CONTINUOUS
 62
    7
 10
512.37149190744151
 20
491.19671877509802
 11
513.58421621144566
 21
491.18673065827113
  0
ARC
  8
_2-0_
  6
CONTINUOUS
 62
    7
 10
513.30248061763166
 20
489.83636580429453
 40
1.3794419827150459
 50
15.646070621359486
 51
78.215056450194396
  0
ARC
  8
_2-0_
  6
CONTINUOUS
 62
    7
 10
516.72108095270551
 20
490.61677549176204
 40
2.1297919478744296
 50
191.05478136629938
 51
270.25028678439912
  0
ARC
  8
_2-0_
  6
CONTINUOUS
 62
    7
 10
516.65954600257044
 20
490.62264506475901
 40
2.1368157235810372
 50
271.89978657574909
 51
351.09529199384878
  0
ARC
  8
_2-0_
  6
CONTINUOUS
 62
    7
 10
520.09602771206596
 20
490.00256619896527
 40
1.3566299581803907
 50
90.526224116630331
 51
167.68640899338527
  0
LINE
  8
_2-0_
  6
CONTINUOUS
 62
    7
 10
498.78289859225777
 20
491.63550313506107
 11
489.44594559454049
 21
491.44028859052781
  0
LINE
  8
_2-0_
  6
CONTINUOUS
 62
    7
 10
489.44594559454049
 20
491.44028859052781
 11
478.14455922524525
 21
491.21342710871454
  0
LINE
  8
_2-0_
  6
CONTINUOUS
 62
    7
 10
407.5743392672569
 20
489.04876660847401
 11
411.63183113184687
 21
489.09071620663434
  0
ARC
  8
_2-0_
  6
CONTINUOUS
 62
    7
 10
411.35009553803394
 20
487.74035135265888
 40
1.379441982713747
 50
15.646070621381419
 51
78.215056450216338
  0
ARC
  8
_2-0_
  6
CONTINUOUS
 62
    7
 10
414.76402083878833
 20
488.5270601958444
 40
2.1264232914271757
 50
191.24551487618857
 51
270.44102029428831
  0
ARC
  8
_2-0_
  6
CONTINUOUS
 62
    7
 10
414.71422478502456
 20
488.53004194153533
 40
2.1303697222732199
 50
271.77973800892983
 51
350.97524342702951
  0
ARC
  8
_2-0_
  6
CONTINUOUS
 62
    7
 10
418.14364263246688
 20
487.90655174732922
 40
1.3566299581798056
 50
90.526224116650255
 51
167.68640899340519
  0
LINE
  8
_2-0_
  6
CONTINUOUS
 62
    7
 10
418.13118305217841
 20
489.26312448857459
 11
421.84896314537633
 21
489.34745229313302
  0
LINE
  8
_2-0_
  6
CONTINUOUS
 62
    7
 10
421.84896314537633
 20
489.34745229313302
 11
423.05929862164703
 21
489.32775369217495
  0
ARC
  8
_2-0_
  6
CONTINUOUS
 62
    7
 10
422.77756302783382
 20
487.97738883819954
 40
1.379441982713854
 50
15.646070621373481
 51
78.215056450208394
  0
ARC
  8
_2-0_
  6
CONTINUOUS
 62
    7
 10
426.19616336290676
 20
488.75779852566757
 40
2.1297919478749967
 50
191.05478136631194
 51
270.25028678441168
  0
ARC
  8
_2-0_
  6
CONTINUOUS
 62
    7
 10
426.13462841277226
 20
488.76366809866397
 40
2.1368157235810372
 50
271.89978657574909
 51
351.09529199384878
  0
ARC
  8
_2-0_
  6
CONTINUOUS
 62
    7
 10
429.57111012226733
 20
488.1435892328708
 40
1.3566299581798056
 50
90.526224116650255
 51
167.68640899340519
  0
LINE
  8
_2-0_
  6
CONTINUOUS
 62
    7
 10
429.55865054197909
 20
489.50016197411622
 11
433.16977048293268
 21
489.56953611948023
  0
LINE
  8
_2-0_
  6
CONTINUOUS
 62
    7
 10
433.16977048293268
 20
489.56953611948023
 11
434.48676611144788
 21
489.5647911777175
  0
ARC
  8
_2-0_
  6
CONTINUOUS
 62
    7
 10
434.19295618443766
 20
488.2207215007341
 40
1.3758079698111896
 50
15.100279753754844
 51
77.669265582589759
  0
ARC
  8
_2-0_
  6
CONTINUOUS
 62
    7
 10
437.61315566224198
 20
488.99848854484839
 40
2.1335158426559899
 50
191.33566360172327
 51
270.53116901982298
  0
ARC
  8
_2-0_
  6
CONTINUOUS
 62
    7
 10
437.56677093689223
 20
488.99440642848793
 40
2.1303697222736266
 50
271.77973800891402
 51
350.97524342701377
  0
ARC
  8
_2-0_
  6
CONTINUOUS
 62
    7
 10
440.996188784335
 20
488.37091623428103
 40
1.3566299581799155
 50
90.526224116644102
 51
167.68640899339903
  0
LINE
  8
_2-0_
  6
CONTINUOUS
 62
    7
 10
440.98372920404671
 20
489.72748897552657
 11
442.54795424490931
 21
489.76490583721443
  0
LINE
  8
_2-0_
  6
CONTINUOUS
 62
    7
 10
442.54795424490931
 20
489.76490583721443
 11
445.90452311711761
 21
489.80421749099202
  0
ARC
  8
_2-0_
  6
CONTINUOUS
 62
    7
 10
445.61360276820886
 20
488.45096305891394
 40
1.384172029535413
 50
15.298321920358843
 51
77.867307749193756
  0
ARC
  8
_2-0_
  6
CONTINUOUS
 62
    7
 10
449.04062315204203
 20
489.23552603038934
 40
2.1335158426556005
 50
191.33566360173421
 51
270.53116901983395
  0
ARC
  8
_2-0_
  6
CONTINUOUS
 62
    7
 10
448.99423842669393
 20
489.23144391402928
 40
2.1303697222735503
 50
271.77973800888338
 51
350.97524342698313
  0
ARC
  8
_2-0_
  6
CONTINUOUS
 62
    7
 10
452.42029831516817
 20
488.61523452642132
 40
1.3518116653955914
 50
90.797366280024605
 51
167.95755115677954
  0
LINE
  8
_2-0_
  6
CONTINUOUS
 62
    7
 10
452.4014862097161
 20
489.9669152888012
 11
456.11687747518084
 21
490.04153260922942
  0
LINE
  8
_2-0_
  6
CONTINUOUS
 62
    7
 10
456.11687747518084
 20
490.04153260922942
 11
457.329601779185
 21
490.03154449240247
  0
ARC
  8
_2-0_
  6
CONTINUOUS
 62
    7
 10
457.04786618537099
 20
488.68117963842593
 40
1.3794419827150459
 50
15.646070621359486
 51
78.215056450194396
  0
ARC
  8
_2-0_
  6
CONTINUOUS
 62
    7
 10
460.46646652044473
 20
489.46158932589344
 40
2.1297919478744296
 50
191.05478136629938
 51
270.25028678439912
  0
ARC
  8
_2-0_
  6
CONTINUOUS
 62
    7
 10
460.40493157030983
 20
489.46745889889036
 40
2.1368157235810372
 50
271.89978657574909
 51
351.09529199384878
  0
ARC
  8
_2-0_
  6
CONTINUOUS
 62
    7
 10
463.84141327980529
 20
488.84738003309667
 40
1.3566299581803907
 50
90.526224116630331
 51
167.68640899338527
  0
LINE
  8
_2-0_
  6
CONTINUOUS
 62
    7
 10
442.5282841599971
 20
490.48031696919247
 11
433.19133116227977
 21
490.28510242465921
  0
LINE
  8
_2-0_
  6
CONTINUOUS
 62
    7
 10
433.19133116227977
 20
490.28510242465921
 11
421.88994479298452
 21
490.05824094284594
  0
LINE
  8
_2-0_
  6
CONTINUOUS
 62
    7
 10
373.30403610971842
 20
488.34497580824757
 11
376.91515605067218
 21
488.41434995361163
  0
LINE
  8
_2-0_
  6
CONTINUOUS
 62
    7
 10
376.91515605067218
 20
488.41434995361163
 11
378.23215167918733
 21
488.4096050118489
  0
ARC
  8
_2-0_
  6
CONTINUOUS
 62
    7
 10
377.93834175217711
 20
487.0655353348655
 40
1.3758079698111896
 50
15.100279753754844
 51
77.669265582589759
  0
ARC
  8
_2-0_
  6
CONTINUOUS
 62
    7
 10
381.35854122998126
 20
487.84330237897973
 40
2.1335158426559899
 50
191.33566360172327
 51
270.53116901982298
  0
ARC
  8
_2-0_
  6
CONTINUOUS
 62
    7
 10
381.31215650463162
 20
487.83922026261934
 40
2.1303697222736266
 50
271.77973800891402
 51
350.97524342701377
  0
ARC
  8
_2-0_
  6
CONTINUOUS
 62
    7
 10
384.74157435207439
 20
487.21573006841243
 40
1.3566299581799155
 50
90.526224116644102
 51
167.68640899339903
  0
LINE
  8
_2-0_
  6
CONTINUOUS
 62
    7
 10
384.72911477178621
 20
488.57230280965791
 11
386.29333981264864
 21
488.60971967134583
  0
LINE
  8
_2-0_
  6
CONTINUOUS
 62
    7
 10
386.29333981264864
 20
488.60971967134583
 11
389.64990868485694
 21
488.64903132512336
  0
ARC
  8
_2-0_
  6
CONTINUOUS
 62
    7
 10
389.3589883359482
 20
487.29577689304534
 40
1.384172029535413
 50
15.298321920358843
 51
77.867307749193756
  0
ARC
  8
_2-0_
  6
CONTINUOUS
 62
    7
 10
392.78600871978136
 20
488.08033986452074
 40
2.1335158426556005
 50
191.33566360173421
 51
270.53116901983395
  0
ARC
  8
_2-0_
  6
CONTINUOUS
 62
    7
 10
392.7396239944332
 20
488.07625774816069
 40
2.1303697222735503
 50
271.77973800888338
 51
350.97524342698313
  0
ARC
  8
_2-0_
  6
CONTINUOUS
 62
    7
 10
396.16568388290744
 20
487.46004836055272
 40
1.3518116653955914
 50
90.797366280024605
 51
167.95755115677954
  0
LINE
  8
_2-0_
  6
CONTINUOUS
 62
    7
 10
396.14687177745537
 20
488.8117291229326
 11
399.86226304292018
 21
488.88634644336082
  0
LINE
  8
_2-0_
  6
CONTINUOUS
 62
    7
 10
399.86226304292018
 20
488.88634644336082
 11
401.07498734692427
 21
488.87635832653388
  0
ARC
  8
_2-0_
  6
CONTINUOUS
 62
    7
 10
400.79325175311027
 20
487.52599347255733
 40
1.3794419827150459
 50
15.646070621359486
 51
78.215056450194396
  0
ARC
  8
_2-0_
  6
CONTINUOUS
 62
    7
 10
404.21185208818423
 20
488.30640316002479
 40
2.1297919478744296
 50
191.05478136629938
 51
270.25028678439912
  0
ARC
  8
_2-0_
  6
CONTINUOUS
 62
    7
 10
404.15031713804916
 20
488.31227273302176
 40
2.1368157235810372
 50
271.89978657574909
 51
351.09529199384878
  0
ARC
  8
_2-0_
  6
CONTINUOUS
 62
    7
 10
407.5867988475448
 20
487.69219386722801
 40
1.3566299581803907
 50
90.526224116630331
 51
167.68640899338527
  0
LINE
  8
_2-0_
  6
CONTINUOUS
 62
    7
 10
386.27366972773643
 20
489.32513080332387
 11
376.93671673001916
 21
489.12991625879056
  0
LINE
  8
_2-0_
  6
CONTINUOUS
 62
    7
 10
534.39917365750591
 20
492.36861327458314
 11
504.11538692170046
 21
491.74192315950029
  0
LINE
  8
_2-0_
  6
CONTINUOUS
 62
    7
 10
498.78289859225777
 20
491.63550313506107
 11
504.11538692170257
 21
491.7419231595004
  0
LINE
  8
_2-0_
  6
CONTINUOUS
 62
    7
 10
478.14455922524525
 20
491.21342710871454
 11
447.86077248943843
 21
490.58673699363169
  0
LINE
  8
_2-0_
  6
CONTINUOUS
 62
    7
 10
442.5282841599971
 20
490.48031696919247
 11
447.86077248944167
 21
490.58673699363175
  0
LINE
  8
_2-0_
  6
CONTINUOUS
 62
    7
 10
421.88994479298452
 20
490.05824094284594
 11
391.60615805716958
 21
489.43155082776292
  0
LINE
  8
_2-0_
  6
CONTINUOUS
 62
    7
 10
386.27366972773643
 20
489.32513080332387
 11
391.60615805716043
 21
489.43155082776275
  0
LINE
  8
_2-0_
  6
CONTINUOUS
 62
    7
 10
518.32906826126111
 20
575.1918620621168
 11
522.38476239706551
 21
575.31970992796676
  0
ARC
  8
_2-0_
  6
CONTINUOUS
 62
    7
 10
522.04677580662644
 20
576.6571048764979
 40
1.379441982713747
 50
284.18283212962746
 51
346.75181795846231
  0
ARC
  8
_2-0_
  6
CONTINUOUS
 62
    7
 10
525.490626762131
 20
576.01391955378961
 40
2.1264232914271766
 50
91.956868285555473
 51
171.1523737036552
  0
ARC
  8
_2-0_
  6
CONTINUOUS
 62
    7
 10
525.44099906392228
 20
576.0088570101301
 40
2.1303697222732199
 50
11.422645152814269
 51
90.618150570913997
  0
ARC
  8
_2-0_
  6
CONTINUOUS
 62
    7
 10
528.84132791586705
 20
576.77528410598404
 40
1.3566299581798058
 50
194.7114795864386
 51
271.87166446319355
  0
LINE
  8
_2-0_
  6
CONTINUOUS
 62
    7
 10
528.88563666833295
 20
575.41937792269334
 11
532.6036895484599
 21
575.49067154498414
  0
LINE
  8
_2-0_
  6
CONTINUOUS
 62
    7
 10
532.6036895484599
 20
575.49067154498414
 11
533.81214105530125
 21
575.5609919233417
  0
ARC
  8
_2-0_
  6
CONTINUOUS
 62
    7
 10
533.47415446486184
 20
576.89838687187284
 40
1.3794419827138542
 50
284.18283212963536
 51
346.75181795847027
  0
ARC
  8
_2-0_
  6
CONTINUOUS
 62
    7
 10
536.92241281176143
 20
576.26169078715702
 40
2.1297919478749971
 50
92.147601795432138
 51
171.34310721353185
  0
ARC
  8
_2-0_
  6
CONTINUOUS
 62
    7
 10
536.8611773194109
 20
576.2532518031071
 40
2.1368157235810372
 50
11.302596585995019
 51
90.498102004094747
  0
ARC
  8
_2-0_
  6
CONTINUOUS
 62
    7
 10
540.26870657410302
 20
577.01656610135808
 40
1.3566299581798058
 50
194.7114795864386
 51
271.87166446319355
  0
LINE
  8
_2-0_
  6
CONTINUOUS
 62
    7
 10
540.31301532656903
 20
575.66065991806738
 11
543.92387580532807
 21
575.74243156923012
  0
LINE
  8
_2-0_
  6
CONTINUOUS
 62
    7
 10
543.92387580532807
 20
575.74243156923012
 11
545.23951971353756
 21
575.80227391871495
  0
ARC
  8
_2-0_
  6
CONTINUOUS
 62
    7
 10
544.88973274538853
 20
577.13287402645165
 40
1.3758079698111896
 50
284.72862299725404
 51
347.29760882608895
  0
ARC
  8
_2-0_
  6
CONTINUOUS
 62
    7
 10
548.33947826964754
 20
576.49888517738736
 40
2.1335158426559904
 50
91.866719560020741
 51
171.06222497812047
  0
ARC
  8
_2-0_
  6
CONTINUOUS
 62
    7
 10
548.2929633690427
 20
576.50102303647384
 40
2.1303697222736275
 50
11.422645152830045
 51
90.618150570929771
  0
ARC
  8
_2-0_
  6
CONTINUOUS
 62
    7
 10
551.69329222098793
 20
577.26745013232858
 40
1.3566299581799155
 50
194.71147958644474
 51
271.87166446319969
  0
LINE
  8
_2-0_
  6
CONTINUOUS
 62
    7
 10
462.07538026819168
 20
573.99240919579881
 11
466.13107440399602
 21
574.12025706164877
  0
ARC
  8
_2-0_
  6
CONTINUOUS
 62
    7
 10
465.79308781355701
 20
575.4576520101798
 40
1.379441982713747
 50
284.18283212962746
 51
346.75181795846231
  0
ARC
  8
_2-0_
  6
CONTINUOUS
 62
    7
 10
469.23693876906157
 20
574.81446668747151
 40
2.1264232914271766
 50
91.956868285555473
 51
171.1523737036552
  0
ARC
  8
_2-0_
  6
CONTINUOUS
 62
    7
 10
469.18731107085279
 20
574.80940414381212
 40
2.1303697222732199
 50
11.422645152814269
 51
90.618150570913997
  0
ARC
  8
_2-0_
  6
CONTINUOUS
 62
    7
 10
472.58763992279768
 20
575.57583123966606
 40
1.3566299581798058
 50
194.7114795864386
 51
271.87166446319355
  0
LINE
  8
_2-0_
  6
CONTINUOUS
 62
    7
 10
472.63194867526352
 20
574.21992505637536
 11
476.35000155539046
 21
574.29121867866616
  0
LINE
  8
_2-0_
  6
CONTINUOUS
 62
    7
 10
476.35000155539046
 20
574.29121867866616
 11
477.55845306223165
 21
574.36153905702372
  0
ARC
  8
_2-0_
  6
CONTINUOUS
 62
    7
 10
477.22046647179241
 20
575.69893400555497
 40
1.3794419827138542
 50
284.18283212963536
 51
346.75181795847027
  0
ARC
  8
_2-0_
  6
CONTINUOUS
 62
    7
 10
480.66872481869206
 20
575.06223792083904
 40
2.1297919478749971
 50
92.147601795432138
 51
171.34310721353185
  0
ARC
  8
_2-0_
  6
CONTINUOUS
 62
    7
 10
480.60748932634141
 20
575.05379893678901
 40
2.1368157235810372
 50
11.302596585995019
 51
90.498102004094747
  0
ARC
  8
_2-0_
  6
CONTINUOUS
 62
    7
 10
484.01501858103359
 20
575.8171132350401
 40
1.3566299581798058
 50
194.7114795864386
 51
271.87166446319355
  0
LINE
  8
_2-0_
  6
CONTINUOUS
 62
    7
 10
484.05932733349943
 20
574.4612070517494
 11
487.67018781225858
 21
574.54297870291202
  0
LINE
  8
_2-0_
  6
CONTINUOUS
 62
    7
 10
487.67018781225858
 20
574.54297870291202
 11
488.98583172046807
 21
574.60282105239696
  0
ARC
  8
_2-0_
  6
CONTINUOUS
 62
    7
 10
488.63604475231909
 20
575.93342116013366
 40
1.3758079698111896
 50
284.72862299725404
 51
347.29760882608895
  0
ARC
  8
_2-0_
  6
CONTINUOUS
 62
    7
 10
492.08579027657805
 20
575.29943231106927
 40
2.1335158426559904
 50
91.866719560020741
 51
171.06222497812047
  0
ARC
  8
_2-0_
  6
CONTINUOUS
 62
    7
 10
492.03927537597326
 20
575.30157017015586
 40
2.1303697222736275
 50
11.422645152830045
 51
90.618150570929771
  0
ARC
  8
_2-0_
  6
CONTINUOUS
 62
    7
 10
495.43960422791838
 20
576.06799726601059
 40
1.3566299581799155
 50
194.71147958644474
 51
271.87166446319969
  0
LINE
  8
_2-0_
  6
CONTINUOUS
 62
    7
 10
495.48391298038439
 20
574.71209108271978
 11
497.04833382082029
 21
574.74015233732371
  0
LINE
  8
_2-0_
  6
CONTINUOUS
 62
    7
 10
497.04833382082029
 20
574.74015233732371
 11
500.40360834310803
 21
574.84131003641983
  0
ARC
  8
_2-0_
  6
CONTINUOUS
 62
    7
 10
500.05632414341585
 20
576.18120775340867
 40
1.384172029535413
 50
284.53058083065002
 51
347.09956665948494
  0
ARC
  8
_2-0_
  6
CONTINUOUS
 62
    7
 10
503.51316893481351
 20
575.54071430644387
 40
2.1335158426556013
 50
91.866719560009855
 51
171.06222497810958
  0
ARC
  8
_2-0_
  6
CONTINUOUS
 62
    7
 10
503.46665403421042
 20
575.54285216553023
 40
2.1303697222735507
 50
11.42264515286068
 51
90.61815057096041
  0
ARC
  8
_2-0_
  6
CONTINUOUS
 62
    7
 10
506.86393248797242
 20
576.3018643369694
 40
1.3518116653955914
 50
194.44033742306425
 51
271.6005222998192
  0
LINE
  8
_2-0_
  6
CONTINUOUS
 62
    7
 10
506.90168960302412
 20
574.95058006674253
 11
510.61694947179978
 21
575.03147572462854
  0
LINE
  8
_2-0_
  6
CONTINUOUS
 62
    7
 10
510.61694947179978
 20
575.03147572462854
 11
511.82819398999277
 21
575.0921940673901
  0
ARC
  8
_2-0_
  6
CONTINUOUS
 62
    7
 10
511.49020739955267
 20
576.42958901592226
 40
1.3794419827150459
 50
284.1828321296494
 51
346.75181795848431
  0
ARC
  8
_2-0_
  6
CONTINUOUS
 62
    7
 10
514.93846574645306
 20
575.79289293120712
 40
2.12979194787443
 50
92.147601795444658
 51
171.34310721354439
  0
ARC
  8
_2-0_
  6
CONTINUOUS
 62
    7
 10
514.87723025410207
 20
575.78445394715652
 40
2.1368157235810372
 50
11.302596585995019
 51
90.498102004094747
  0
ARC
  8
_2-0_
  6
CONTINUOUS
 62
    7
 10
518.28475950879476
 20
576.54776824540807
 40
1.3566299581803909
 50
194.71147958645852
 51
271.87166446321345
  0
LINE
  8
_2-0_
  6
CONTINUOUS
 62
    7
 10
497.05861292773272
 20
574.02454466550932
 11
487.72166807290887
 21
573.82894104090485
  0
LINE
  8
_2-0_
  6
CONTINUOUS
 62
    7
 10
487.72166807290887
 20
573.82894104090485
 11
476.42068588723203
 21
573.58276703936144
  0
LINE
  8
_2-0_
  6
CONTINUOUS
 62
    7
 10
405.82169227512225
 20
572.79295632948083
 11
409.8773864109267
 21
572.92080419533067
  0
ARC
  8
_2-0_
  6
CONTINUOUS
 62
    7
 10
409.53939982048752
 20
574.25819914386182
 40
1.379441982713747
 50
284.18283212962746
 51
346.75181795846231
  0
ARC
  8
_2-0_
  6
CONTINUOUS
 62
    7
 10
412.98325077599202
 20
573.61501382115352
 40
2.1264232914271766
 50
91.956868285555473
 51
171.1523737036552
  0
ARC
  8
_2-0_
  6
CONTINUOUS
 62
    7
 10
412.93362307778347
 20
573.60995127749413
 40
2.1303697222732199
 50
11.422645152814269
 51
90.618150570913997
  0
ARC
  8
_2-0_
  6
CONTINUOUS
 62
    7
 10
416.33395192972813
 20
574.37637837334808
 40
1.3566299581798058
 50
194.7114795864386
 51
271.87166446319355
  0
LINE
  8
_2-0_
  6
CONTINUOUS
 62
    7
 10
416.37826068219397
 20
573.02047219005726
 11
420.09631356232092
 21
573.09176581234806
  0
LINE
  8
_2-0_
  6
CONTINUOUS
 62
    7
 10
420.09631356232092
 20
573.09176581234806
 11
421.30476506916233
 21
573.16208619070574
  0
ARC
  8
_2-0_
  6
CONTINUOUS
 62
    7
 10
420.96677847872309
 20
574.49948113923688
 40
1.3794419827138542
 50
284.18283212963536
 51
346.75181795847027
  0
ARC
  8
_2-0_
  6
CONTINUOUS
 62
    7
 10
424.41503682562256
 20
573.86278505452105
 40
2.1297919478749971
 50
92.147601795432138
 51
171.34310721353185
  0
ARC
  8
_2-0_
  6
CONTINUOUS
 62
    7
 10
424.35380133327186
 20
573.85434607047114
 40
2.1368157235810372
 50
11.302596585995019
 51
90.498102004094747
  0
ARC
  8
_2-0_
  6
CONTINUOUS
 62
    7
 10
427.76133058796427
 20
574.617660368722
 40
1.3566299581798058
 50
194.7114795864386
 51
271.87166446319355
  0
LINE
  8
_2-0_
  6
CONTINUOUS
 62
    7
 10
427.8056393404301
 20
573.26175418543141
 11
431.41649981918926
 21
573.34352583659415
  0
LINE
  8
_2-0_
  6
CONTINUOUS
 62
    7
 10
431.41649981918926
 20
573.34352583659415
 11
432.73214372739858
 21
573.40336818607886
  0
ARC
  8
_2-0_
  6
CONTINUOUS
 62
    7
 10
432.38235675924977
 20
574.73396829381568
 40
1.3758079698111896
 50
284.72862299725404
 51
347.29760882608895
  0
ARC
  8
_2-0_
  6
CONTINUOUS
 62
    7
 10
435.8321022835085
 20
574.09997944475117
 40
2.1335158426559904
 50
91.866719560020741
 51
171.06222497812047
  0
ARC
  8
_2-0_
  6
CONTINUOUS
 62
    7
 10
435.78558738290383
 20
574.10211730383787
 40
2.1303697222736275
 50
11.422645152830045
 51
90.618150570929771
  0
ARC
  8
_2-0_
  6
CONTINUOUS
 62
    7
 10
439.185916234849
 20
574.86854439969261
 40
1.3566299581799155
 50
194.71147958644474
 51
271.87166446319969
  0
LINE
  8
_2-0_
  6
CONTINUOUS
 62
    7
 10
439.23022498731495
 20
573.51263821640168
 11
440.79464582775074
 21
573.54069947100572
  0
LINE
  8
_2-0_
  6
CONTINUOUS
 62
    7
 10
440.79464582775074
 20
573.54069947100572
 11
444.14992035003871
 21
573.64185717010173
  0
ARC
  8
_2-0_
  6
CONTINUOUS
 62
    7
 10
443.80263615034636
 20
574.98175488709069
 40
1.384172029535413
 50
284.53058083065002
 51
347.09956665948494
  0
ARC
  8
_2-0_
  6
CONTINUOUS
 62
    7
 10
447.25948094174413
 20
574.34126144012589
 40
2.1335158426556013
 50
91.866719560009855
 51
171.06222497810958
  0
ARC
  8
_2-0_
  6
CONTINUOUS
 62
    7
 10
447.21296604114087
 20
574.34339929921225
 40
2.1303697222735507
 50
11.42264515286068
 51
90.61815057096041
  0
ARC
  8
_2-0_
  6
CONTINUOUS
 62
    7
 10
450.61024449490299
 20
575.1024114706513
 40
1.3518116653955914
 50
194.44033742306425
 51
271.6005222998192
  0
LINE
  8
_2-0_
  6
CONTINUOUS
 62
    7
 10
450.64800160995475
 20
573.75112720042455
 11
454.36326147873041
 21
573.83202285831055
  0
LINE
  8
_2-0_
  6
CONTINUOUS
 62
    7
 10
454.36326147873041
 20
573.83202285831055
 11
455.57450599692334
 21
573.892741201072
  0
ARC
  8
_2-0_
  6
CONTINUOUS
 62
    7
 10
455.2365194064833
 20
575.23013614960428
 40
1.3794419827150459
 50
284.1828321296494
 51
346.75181795848431
  0
ARC
  8
_2-0_
  6
CONTINUOUS
 62
    7
 10
458.68477775338363
 20
574.59344006488902
 40
2.12979194787443
 50
92.147601795444658
 51
171.34310721354439
  0
ARC
  8
_2-0_
  6
CONTINUOUS
 62
    7
 10
458.62354226103264
 20
574.58500108083842
 40
2.1368157235810372
 50
11.302596585995019
 51
90.498102004094747
  0
ARC
  8
_2-0_
  6
CONTINUOUS
 62
    7
 10
462.03107151572533
 20
575.34831537909008
 40
1.3566299581803909
 50
194.71147958645852
 51
271.87166446321345
  0
LINE
  8
_2-0_
  6
CONTINUOUS
 62
    7
 10
440.80492493466323
 20
572.82509179919134
 11
431.46798007983955
 21
572.62948817458675
  0
LINE
  8
_2-0_
  6
CONTINUOUS
 62
    7
 10
431.46798007983955
 20
572.62948817458675
 11
420.16699789416259
 21
572.38331417304335
  0
LINE
  8
_2-0_
  6
CONTINUOUS
 62
    7
 10
375.16281182611976
 20
572.14407297027606
 11
376.47845573432926
 21
572.20391531976088
  0
ARC
  8
_2-0_
  6
CONTINUOUS
 62
    7
 10
376.12866876618028
 20
573.53451542749769
 40
1.3758079698111896
 50
284.72862299725404
 51
347.29760882608895
  0
ARC
  8
_2-0_
  6
CONTINUOUS
 62
    7
 10
379.57841429043918
 20
572.90052657843319
 40
2.1335158426559904
 50
91.866719560020741
 51
171.06222497812047
  0
ARC
  8
_2-0_
  6
CONTINUOUS
 62
    7
 10
379.53189938983428
 20
572.90266443751989
 40
2.1303697222736275
 50
11.422645152830045
 51
90.618150570929771
  0
ARC
  8
_2-0_
  6
CONTINUOUS
 62
    7
 10
382.93222824177968
 20
573.66909153337463
 40
1.3566299581799155
 50
194.71147958644474
 51
271.87166446319969
  0
LINE
  8
_2-0_
  6
CONTINUOUS
 62
    7
 10
382.97653699424558
 20
572.3131853500837
 11
384.54095783468142
 21
572.34124660468763
  0
LINE
  8
_2-0_
  6
CONTINUOUS
 62
    7
 10
384.54095783468142
 20
572.34124660468763
 11
387.89623235696922
 21
572.44240430378375
  0
ARC
  8
_2-0_
  6
CONTINUOUS
 62
    7
 10
387.54894815727704
 20
573.7823020207727
 40
1.384172029535413
 50
284.53058083065002
 51
347.09956665948494
  0
ARC
  8
_2-0_
  6
CONTINUOUS
 62
    7
 10
391.00579294867458
 20
573.14180857380779
 40
2.1335158426556013
 50
91.866719560009855
 51
171.06222497810958
  0
ARC
  8
_2-0_
  6
CONTINUOUS
 62
    7
 10
390.95927804807155
 20
573.14394643289427
 40
2.1303697222735507
 50
11.42264515286068
 51
90.61815057096041
  0
ARC
  8
_2-0_
  6
CONTINUOUS
 62
    7
 10
394.3565565018335
 20
573.90295860433332
 40
1.3518116653955914
 50
194.44033742306425
 51
271.6005222998192
  0
LINE
  8
_2-0_
  6
CONTINUOUS
 62
    7
 10
394.39431361688543
 20
572.55167433410645
 11
398.10957348566092
 21
572.63256999199257
  0
LINE
  8
_2-0_
  6
CONTINUOUS
 62
    7
 10
398.10957348566092
 20
572.63256999199257
 11
399.3208180038539
 21
572.69328833475402
  0
ARC
  8
_2-0_
  6
CONTINUOUS
 62
    7
 10
398.98283141341381
 20
574.03068328328618
 40
1.3794419827150459
 50
284.1828321296494
 51
346.75181795848431
  0
ARC
  8
_2-0_
  6
CONTINUOUS
 62
    7
 10
402.43108976031431
 20
573.39398719857104
 40
2.12979194787443
 50
92.147601795444658
 51
171.34310721354439
  0
ARC
  8
_2-0_
  6
CONTINUOUS
 62
    7
 10
402.36985426796309
 20
573.38554821452044
 40
2.1368157235810372
 50
11.302596585995019
 51
90.498102004094747
  0
ARC
  8
_2-0_
  6
CONTINUOUS
 62
    7
 10
405.77738352265584
 20
574.1488625127721
 40
1.3566299581803909
 50
194.71147958645852
 51
271.87166446321345
  0
LINE
  8
_2-0_
  6
CONTINUOUS
 62
    7
 10
384.55123694159391
 20
571.62563893287324
 11
375.21429208677006
 21
571.43003530826877
  0
LINE
  8
_2-0_
  6
CONTINUOUS
 62
    7
 10
532.67437388030146
 20
574.78221990567943
 11
502.39088447405146
 21
574.14132292360591
  0
LINE
  8
_2-0_
  6
CONTINUOUS
 62
    7
 10
497.05861292773272
 20
574.02454466550932
 11
502.39088447405351
 21
574.14132292360603
  0
LINE
  8
_2-0_
  6
CONTINUOUS
 62
    7
 10
476.42068588723203
 20
573.58276703936144
 11
446.13719648098055
 21
572.94187005728782
  0
LINE
  8
_2-0_
  6
CONTINUOUS
 62
    7
 10
440.80492493466323
 20
572.82509179919134
 11
446.13719648098396
 21
572.94187005728793
  0
LINE
  8
_2-0_
  6
CONTINUOUS
 62
    7
 10
420.16699789416259
 20
572.38331417304335
 11
389.88350848790299
 21
571.74241719096972
  0
LINE
  8
_2-0_
  6
CONTINUOUS
 62
    7
 10
384.55123694159391
 20
571.62563893287324
 11
389.88350848789389
 21
571.74241719096949
  0
ARC
  8
_2-0_
  6
CONTINUOUS
 62
    7
 10
556.79770264462809
 20
575.98229925178373
 40
1.3727170881431185
 50
357.04543820405894
 51
6.1870707432827681
  0
LINE
  8
_2-0_
  6
CONTINUOUS
 62
    7
 10
551.73760097345394
 20
575.91154394903788
 11
558.1685950150254
 21
575.91154394903788
  0
LINE
  8
_2-0_
  6
CONTINUOUS
 62
    7
 10
587.54057154672239
 20
492.7570167730089
 11
591.17624927838961
 21
493.53858406471085
  0
LINE
  8
_2-0_
  6
CONTINUOUS
 62
    7
 10
591.17624927838961
 20
493.53858406471085
 11
592.36871805784187
 21
493.74671433649092
  0
ARC
  8
_2-0_
  6
CONTINUOUS
 62
    7
 10
592.34579898307038
 20
492.36746276419348
 40
1.379441982713854
 50
26.479015685373483
 51
89.048001514208394
  0
ARC
  8
_2-0_
  6
CONTINUOUS
 62
    7
 10
595.55680266193576
 20
493.77647763479217
 40
2.1297919478749967
 50
201.88772643031194
 51
281.08323184841169
  0
ARC
  8
_2-0_
  6
CONTINUOUS
 62
    7
 10
595.49526114162688
 20
493.77067735434338
 40
2.1368157235810372
 50
282.73273163974909
 51
1.9282370578487891
  0
ARC
  8
_2-0_
  6
CONTINUOUS
 62
    7
 10
598.98704389679847
 20
493.80752203080601
 40
1.3566299581798056
 50
101.35916918065026
 51
178.51935405740517
  0
LINE
  8
_2-0_
  6
CONTINUOUS
 62
    7
 10
598.71984380023321
 20
495.13757802655448
 11
602.25357261543024
 21
495.88441178358744
  0
LINE
  8
_2-0_
  6
CONTINUOUS
 62
    7
 10
602.25357261543024
 20
495.88441178358744
 11
603.54799031135269
 21
496.12727559003753
  0
ARC
  8
_2-0_
  6
CONTINUOUS
 62
    7
 10
603.51202892196557
 20
494.75193768673182
 40
1.3758079698111896
 50
25.933224817754848
 51
88.502210646589759
  0
ARC
  8
_2-0_
  6
CONTINUOUS
 62
    7
 10
606.72509992029825
 20
496.15865756025192
 40
2.1335158426559899
 50
202.1686086657233
 51
281.36411408382298
  0
ARC
  8
_2-0_
  6
CONTINUOUS
 62
    7
 10
606.6803090190208
 20
496.14593036171891
 40
2.1303697222736266
 50
282.61268307291402
 51
1.8081884910137644
  0
ARC
  8
_2-0_
  6
CONTINUOUS
 62
    7
 10
610.16579494066127
 20
496.17809687656376
 40
1.3566299581799155
 50
101.3591691806441
 51
178.51935405739906
  0
LINE
  8
_2-0_
  6
CONTINUOUS
 62
    7
 10
609.89859484409612
 20
497.50815287231239
 11
611.42791201561806
 21
497.83889293472987
  0
LINE
  8
_2-0_
  6
CONTINUOUS
 62
    7
 10
611.42791201561806
 20
497.83889293472987
 11
614.71727615707607
 21
498.50835805323129
  0
ARC
  8
_2-0_
  6
CONTINUOUS
 62
    7
 10
614.68587909050018
 20
497.12454215812153
 40
1.384172029535413
 50
26.131266984358845
 51
88.700252813193757
  0
ARC
  8
_2-0_
  6
CONTINUOUS
 62
    7
 10
617.90437217380872
 20
498.53921881379699
 40
2.1335158426556005
 50
202.16860866573424
 51
281.36411408383395
  0
ARC
  8
_2-0_
  6
CONTINUOUS
 62
    7
 10
617.85958127253275
 20
498.52649161526449
 40
2.1303697222735503
 50
282.61268307288339
 51
1.8081884909831294
  0
ARC
  8
_2-0_
  6
CONTINUOUS
 62
    7
 10
621.34040067704109
 20
498.56517807267204
 40
1.3518116653955914
 50
101.63031134402461
 51
178.79049622077954
  0
LINE
  8
_2-0_
  6
CONTINUOUS
 62
    7
 10
621.06788068981916
 20
499.88923533550627
 11
624.70303721183791
 21
500.66081621942141
  0
LINE
  8
_2-0_
  6
CONTINUOUS
 62
    7
 10
624.70303721183791
 20
500.66081621942141
 11
625.89602720093865
 21
500.87893289898921
  0
ARC
  8
_2-0_
  6
CONTINUOUS
 62
    7
 10
625.87310812616681
 20
499.49968132669056
 40
1.3794419827150459
 50
26.479015685359489
 51
89.048001514194397
  0
ARC
  8
_2-0_
  6
CONTINUOUS
 62
    7
 10
629.0841118050331
 20
500.90869619728886
 40
2.1297919478744296
 50
201.88772643029938
 51
281.08323184839912
  0
ARC
  8
_2-0_
  6
CONTINUOUS
 62
    7
 10
629.02257028472354
 20
500.90289591684052
 40
2.1368157235810372
 50
282.73273163974909
 51
1.9282370578487891
  0
ARC
  8
_2-0_
  6
CONTINUOUS
 62
    7
 10
632.51435303989581
 20
500.9397405933027
 40
1.3566299581803907
 50
101.35916918063033
 51
178.51935405738527
  0
LINE
  8
_2-0_
  6
CONTINUOUS
 62
    7
 10
632.24715294333089
 20
502.26979658905185
 11
635.78140296817526
 21
503.02661675387253
  0
LINE
  8
_2-0_
  6
CONTINUOUS
 62
    7
 10
635.78140296817526
 20
503.02661675387253
 11
636.74314194921374
 21
503.22676203198597
  0
ARC
  8
_2-0_
  6
CONTINUOUS
 62
    7
 10
637.05013544698079
 20
501.88862097638776
 40
1.3729044002947577
 50
25.76089887598944
 51
102.92108375274438
  0
ARC
  8
_2-0_
  6
CONTINUOUS
 62
    7
 10
640.25708722501292
 20
503.28457928921739
 40
2.1264232914261494
 50
202.07845994020209
 51
281.27396535830184
  0
ARC
  8
_2-0_
  6
CONTINUOUS
 62
    7
 10
640.20184253823584
 20
503.28345717038565
 40
2.1368157235804501
 50
282.73273163973818
 51
1.9282370578378987
  0
ARC
  8
_2-0_
  6
CONTINUOUS
 62
    7
 10
643.68710535084392
 20
503.31563532971632
 40
1.3502414230458368
 50
101.15406829811643
 51
178.31425317487137
  0
LINE
  8
_2-0_
  6
CONTINUOUS
 62
    7
 10
643.42590398719244
 20
504.64037143480869
 11
645.63369225415954
 21
505.11594579097624
  0
LINE
  8
_2-0_
  6
CONTINUOUS
 62
    7
 10
645.63369225415954
 20
505.11594579097624
 11
645.48990037970748
 21
505.81438970199662
  0
LINE
  8
_2-0_
  6
CONTINUOUS
 62
    7
 10
645.48990037970748
 20
505.81438970199662
 11
635.66757031708551
 21
503.72349703594921
  0
LINE
  8
_2-0_
  6
CONTINUOUS
 62
    7
 10
635.66757031708551
 20
503.72349703594921
 11
624.60969858597298
 21
501.36664048998728
  0
LINE
  8
_2-0_
  6
CONTINUOUS
 62
    7
 10
624.60969858597298
 20
501.36664048998728
 11
611.27413373337743
 21
498.53785805539735
  0
LINE
  8
_2-0_
  6
CONTINUOUS
 62
    7
 10
611.27413373337743
 20
498.53785805539735
 11
602.14026117398998
 21
496.59127847345201
  0
LINE
  8
_2-0_
  6
CONTINUOUS
 62
    7
 10
602.14026117398998
 20
496.59127847345201
 11
591.08291065252365
 21
494.24440833527882
  0
LINE
  8
_2-0_
  6
CONTINUOUS
 62
    7
 10
569.3582281309541
 20
578.18080788480097
 11
572.99338465297308
 21
578.95238876871611
  0
LINE
  8
_2-0_
  6
CONTINUOUS
 62
    7
 10
572.99338465297308
 20
578.95238876871611
 11
574.17005029403663
 21
579.24145272209432
  0
ARC
  8
_2-0_
  6
CONTINUOUS
 62
    7
 10
573.5792215099882
 20
580.49463635644679
 40
1.385477489340565
 50
295.24210831559003
 51
357.81109414442494
  0
ARC
  8
_2-0_
  6
CONTINUOUS
 62
    7
 10
577.09299698713755
 20
580.50893982682089
 40
2.1303697222736266
 50
102.61268307291401
 51
181.80818849101374
  0
ARC
  8
_2-0_
  6
CONTINUOUS
 62
    7
 10
577.0435279242414
 20
580.50250946181927
 40
2.1264232914261916
 50
22.078459940154751
 51
101.27396535825447
  0
ARC
  8
_2-0_
  6
CONTINUOUS
 62
    7
 10
580.23983992096203
 20
581.88647030881873
 40
1.3581218146835741
 50
205.50014206040439
 51
282.66032693715931
  0
LINE
  8
_2-0_
  6
CONTINUOUS
 62
    7
 10
580.53750038446503
 20
580.56136913834655
 11
584.07122919966207
 21
581.30820289537951
  0
LINE
  8
_2-0_
  6
CONTINUOUS
 62
    7
 10
584.07122919966207
 20
581.30820289537951
 11
585.34932254754654
 21
581.62201397564002
  0
ARC
  8
_2-0_
  6
CONTINUOUS
 62
    7
 10
584.76645054565358
 20
582.86977552501673
 40
1.3771886779573614
 50
295.0388832845282
 51
357.60786911336311
  0
ARC
  8
_2-0_
  6
CONTINUOUS
 62
    7
 10
588.27336670291299
 20
582.89048966772793
 40
2.1323618422239674
 50
102.90605923962195
 51
182.10156465772167
  0
ARC
  8
_2-0_
  6
CONTINUOUS
 62
    7
 10
588.21749193158269
 20
582.87729509148107
 40
2.1335158426567116
 50
22.168608665727128
 51
101.36411408382685
  0
ARC
  8
_2-0_
  6
CONTINUOUS
 62
    7
 10
591.42511090738833
 20
584.26171167170855
 40
1.3612659203584185
 50
205.18933971199445
 51
282.34952458874938
  0
LINE
  8
_2-0_
  6
CONTINUOUS
 62
    7
 10
591.71625142832761
 20
582.93194398410424
 11
593.24556859984955
 21
583.26268404652171
  0
LINE
  8
_2-0_
  6
CONTINUOUS
 62
    7
 10
593.24556859984955
 20
583.26268404652171
 11
596.52807359140911
 21
583.99258882139793
  0
ARC
  8
_2-0_
  6
CONTINUOUS
 62
    7
 10
595.93182272238494
 20
585.23781567359504
 40
1.3806176198516937
 50
295.58645646984593
 51
358.15544229868084
  0
ARC
  8
_2-0_
  6
CONTINUOUS
 62
    7
 10
599.44103387672237
 20
585.26059713577274
 40
2.1303697222736266
 50
102.61268307291401
 51
181.80818849101374
  0
ARC
  8
_2-0_
  6
CONTINUOUS
 62
    7
 10
599.39624297544515
 20
585.24786993723887
 40
2.1335158426567116
 50
22.168608665727128
 51
101.36411408382685
  0
ARC
  8
_2-0_
  6
CONTINUOUS
 62
    7
 10
602.5925433276816
 20
586.63160767520719
 40
1.3507412436161008
 50
205.36762472415731
 51
282.52780960091224
  0
LINE
  8
_2-0_
  6
CONTINUOUS
 62
    7
 10
602.88553727405065
 20
585.31302644729726
 11
606.52069379607065
 21
586.08460733121331
  0
LINE
  8
_2-0_
  6
CONTINUOUS
 62
    7
 10
606.52069379607065
 20
586.08460733121331
 11
607.38152627993452
 21
586.26999189023331
  0
ARC
  8
_2-0_
  6
CONTINUOUS
 62
    7
 10
607.11896723176608
 20
587.61736524246578
 40
1.3727170881435873
 50
281.02688586655233
 51
358.18707074330729
  0
ARC
  8
_2-0_
  6
CONTINUOUS
 62
    7
 10
610.62030613023251
 20
587.64115838931775
 40
2.1303697222730413
 50
102.61268307290307
 51
181.8081884910028
  0
ARC
  8
_2-0_
  6
CONTINUOUS
 62
    7
 10
610.57551522895619
 20
587.62843119078457
 40
2.1335158426556857
 50
22.168608665740614
 51
101.36411408384033
  0
ARC
  8
_2-0_
  6
CONTINUOUS
 62
    7
 10
613.7718155811915
 20
589.01216892875391
 40
1.3507412436164865
 50
205.36762472419787
 51
282.52780960095282
  0
LINE
  8
_2-0_
  6
CONTINUOUS
 62
    7
 10
614.06480952756147
 20
587.69358770084375
 11
617.60852475054639
 21
588.43990024822961
  0
LINE
  8
_2-0_
  6
CONTINUOUS
 62
    7
 10
617.60852475054639
 20
588.43990024822961
 11
618.87663169064297
 21
588.75423253813619
  0
ARC
  8
_2-0_
  6
CONTINUOUS
 62
    7
 10
618.28580290659374
 20
590.00741617248923
 40
1.3854774893413189
 50
295.24210831560839
 51
357.8110941444433
  0
ARC
  8
_2-0_
  6
CONTINUOUS
 62
    7
 10
621.79490022212633
 20
590.02801647639512
 40
2.1259023362351002
 50
102.78628488451523
 51
181.98179030261494
  0
ARC
  8
_2-0_
  6
CONTINUOUS
 62
    7
 10
621.74480107467889
 20
590.00951365397896
 40
2.1335158426559899
 50
22.168608665723262
 51
101.36411408382298
  0
ARC
  8
_2-0_
  6
CONTINUOUS
 62
    7
 10
624.94642131757064
 20
591.39925012486276
 40
1.3581218146847687
 50
205.50014206038398
 51
282.6603269371389
  0
LINE
  8
_2-0_
  6
CONTINUOUS
 62
    7
 10
625.24408178107353
 20
590.07414895438933
 11
627.46133524617881
 21
590.53921569311899
  0
LINE
  8
_2-0_
  6
CONTINUOUS
 62
    7
 10
627.46133524617881
 20
590.53921569311899
 11
627.6056483302807
 21
589.85075818988742
  0
LINE
  8
_2-0_
  6
CONTINUOUS
 62
    7
 10
627.6056483302807
 20
589.85075818988742
 11
617.78331826765861
 21
587.75986552383915
  0
LINE
  8
_2-0_
  6
CONTINUOUS
 62
    7
 10
617.78331826765861
 20
587.75986552383915
 11
606.72544653654609
 21
585.40300897787813
  0
LINE
  8
_2-0_
  6
CONTINUOUS
 62
    7
 10
606.72544653654609
 20
585.40300897787813
 11
593.38936047430332
 21
582.56424013550134
  0
LINE
  8
_2-0_
  6
CONTINUOUS
 62
    7
 10
593.38936047430332
 20
582.56424013550134
 11
584.25600912456309
 21
580.62764696134286
  0
LINE
  8
_2-0_
  6
CONTINUOUS
 62
    7
 10
587.36101668036224
 20
493.45204262562925
 11
579.97086318433742
 21
493.29926555662303
  0
LINE
  8
_2-0_
  6
CONTINUOUS
 62
    7
 10
591.08291065252365
 20
494.24440833527882
 11
587.36101668036224
 21
493.45204262562925
  0
ARC
  8
_2-0_
  6
CONTINUOUS
 62
    7
 10
565.91372473362674
 20
578.1283785732752
 40
2.1303697222736266
 50
102.61268307291401
 51
181.80818849101374
  0
ARC
  8
_2-0_
  6
CONTINUOUS
 62
    7
 10
565.86425567073059
 20
578.12194820827358
 40
2.1264232914261916
 50
22.078459940154751
 51
101.27396535825447
  0
ARC
  8
_2-0_
  6
CONTINUOUS
 62
    7
 10
569.06056766745121
 20
579.50590905527304
 40
1.3581218146835741
 50
205.50014206040439
 51
282.66032693715931
  0
ARC
  8
_2-0_
  6
CONTINUOUS
 62
    7
 10
562.39994925647738
 20
578.11407510290121
 40
1.385477489340565
 50
267.29860335821093
 51
357.81109414442494
  0
ARC
  8
_2-0_
  6
CONTINUOUS
 62
    7
 10
560.21261349098586
 20
576.47876878563739
 40
2.1368733181407955
 50
6.7555605307476077
 51
109.17387126496187
  0
LINE
  8
_2-0_
  6
CONTINUOUS
 62
    7
 10
559.5803830415324
 20
575.36832470895729
 11
532.67437388030146
 21
574.78221990567943
  0
LINE
  8
_2-0_
  6
CONTINUOUS
 62
    7
 10
584.25600912456309
 20
580.62764696134286
 11
559.5803830415324
 21
575.36832470895729
  0
LINE
  8
_2-0_
  6
CONTINUOUS
 62
    7
 10
654.45840709649178
 20
595.42361832410461
 11
567.26366856754532
 21
576.88980450667509
  0
LINE
  8
_2-0_
  6
CONTINUOUS
 62
    7
 10
687.32153081202125
 20
515.35701367797492
 11
584.96726272630008
 21
493.60094238142233
  0
LINE
  8
_2-0_
  6
CONTINUOUS
 62
    7
 10
584.96726272630008
 20
493.60094238142233
 11
584.55143934466446
 21
495.55723758288991
  0
LINE
  8
_2-0_
  6
CONTINUOUS
 62
    7
 10
687.11132234148977
 20
517.35701367797492
 11
584.55143934466446
 21
495.55723758288991
  0
LINE
  8
_2-0_
  6
CONTINUOUS
 62
    7
 10
656.45840709649178
 20
593.80405025771461
 11
567.67949194918083
 21
574.93350930520751
  0
LINE
  8
_2-0_
  6
CONTINUOUS
 62
    7
 10
567.67949194918083
 20
574.93350930520751
 11
567.26366856754532
 21
576.88980450667509
  0
LINE
  8
_2-0_
  6
CONTINUOUS
 62
    7
 10
687.32153081202125
 20
515.35701367797492
 11
832.11132234148977
 21
515.35701367797492
  0
LINE
  8
_2-0_
  6
CONTINUOUS
 62
    7
 10
832.11132234148977
 20
515.35701367797492
 11
832.11132234148977
 21
517.35701367797492
  0
LINE
  8
_2-0_
  6
CONTINUOUS
 62
    7
 10
687.11132234148977
 20
517.35701367797492
 11
832.11132234148977
 21
517.35701367797492
  0
LINE
  8
_2-0_
  6
CONTINUOUS
 62
    7
 10
654.45840709649178
 20
748.80405025771461
 11
654.45840709649178
 21
595.42361832410461
  0
LINE
  8
_2-0_
  6
CONTINUOUS
 62
    7
 10
656.45840709649178
 20
748.80405025771461
 11
656.45840709649178
 21
593.80405025771461
  0
LINE
  8
_2-0_
  6
CONTINUOUS
 62
    7
 10
654.45840709649178
 20
748.80405025771461
 11
656.45840709649178
 21
748.80405025771461
  0
LINE
  8
_2-0_
  6
CONTINUOUS
 62
    7
 10
372.34557699184552
 20
572.08027378848351
 11
375.16281182611976
 21
572.14407297027606
  0
LINE
  8
_2-0_
  6
CONTINUOUS
 62
    7
 10
375.21429208677006
 20
571.43003530826877
 11
372.34557699184552
 21
571.36754489260375
  0
LINE
  8
_2-0_
  6
CONTINUOUS
 62
    7
 10
376.93671673001916
 20
489.12991625879056
 11
372.34557699184552
 21
489.03775475486719
  0
ARC
  8
_2-0_
  6
CONTINUOUS
 62
    7
 10
373.31649569000683
 20
486.9884030670022
 40
1.3566299581798056
 50
90.526224116650255
 51
135.6993042708493
  0
LINE
  8
_2-0_
  6
CONTINUOUS
 62
    7
 10
698.80744935577377
 20
514.35701367797492
 11
698.80744935577377
 21
513.15701367797487
  0
LINE
  8
_2-0_
  6
CONTINUOUS
 62
    7
 10
652.25840709649174
 20
596.60398539406026
 11
653.45840709649167
 21
596.60398539406026
  0
LINE
  8
_2-0_
  6
CONTINUOUS
 62
    7
 10
948.80744935577377
 20
514.35701367797492
 11
948.80744935577377
 21
513.15701367797487
  0
LINE
  8
_2-0_
  6
CONTINUOUS
 62
    7
 10
652.25840709649174
 20
796.60398539406037
 11
653.45840709649167
 21
796.60398539406037
  0
LINE
  8
_2-0_
  6
CONTINUOUS
 62
    7
 10
655.95840709649167
 20
797.00590918270689
 11
653.75840709649174
 21
800.81642095935854
  0
LINE
  8
_2-0_
  6
CONTINUOUS
 62
    7
 10
653.75840709649174
 20
945.18170228084966
 11
653.75840709649174
 21
800.81642095935854
  0
LINE
  8
_2-0_
  6
CONTINUOUS
 62
    7
 10
654.45840709649178
 20
796.60398539406037
 11
652.25840709649174
 21
800.41449717071168
  0
LINE
  8
_2-0_
  6
CONTINUOUS
 62
    7
 10
652.25840709649174
 20
945.18170228084966
 11
652.25840709649174
 21
800.41449717071168
  0
LINE
  8
_2-0_
  6
CONTINUOUS
 62
    7
 10
893.4772672437432
 20
514.35701367797492
 11
882.07686724374321
 21
514.35701367797492
  0
LINE
  8
_2-0_
  6
DASHED2
 62
    7
 10
883.80906724374336
 20
481.571813677975
 11
885.2770672437432
 21
481.571813677975
  0
LINE
  8
_2-0_
  6
DASHED2
 62
    7
 10
883.80906724374336
 20
479.67161367797496
 11
885.2770672437432
 21
479.67161367797496
  0
LINE
  8
_2-0_
  6
DASHED2
 62
    7
 10
883.80906724374336
 20
470.17261367797494
 11
885.2770672437432
 21
470.17261367797494
  0
LINE
  8
_2-0_
  6
DASHED2
 62
    7
 10
883.80906724374336
 20
472.07161367797494
 11
885.2770672437432
 21
472.07161367797494
  0
LINE
  8
_2-0_
  6
DASHED2
 62
    7
 10
883.80906724374336
 20
473.97201367797499
 11
885.2770672437432
 21
473.97201367797499
  0
LINE
  8
_2-0_
  6
DASHED2
 62
    7
 10
883.80906724374336
 20
475.87221367797503
 11
885.2770672437432
 21
475.87221367797503
  0
LINE
  8
_2-0_
  6
DASHED2
 62
    7
 10
883.80906724374336
 20
477.77261367797507
 11
885.2770672437432
 21
477.77261367797507
  0
ARC
  8
_2-0_
  6
CONTINUOUS
 62
    7
 10
871.81704524374311
 20
487.00675867797491
 40
12.02006079916025
 50
4.0515020868825955
 51
40.412609770171883
  0
ARC
  8
_2-0_
  6
CONTINUOUS
 62
    7
 10
864.81127524374324
 20
486.20831367797507
 40
19.067119053419354
 50
355.7950026216887
 51
4.9574427922427935
  0
ARC
  8
_2-0_
  6
CONTINUOUS
 62
    7
 10
875.72991724374333
 20
490.17598867797506
 40
6.9873387010452621
 50
41.426405381178789
 51
52.876026285625777
  0
LINE
  8
_2-0_
  6
CONTINUOUS
 62
    7
 10
880.64106724374312
 20
496.46781367797485
 11
879.94706724374328
 21
495.74721367797503
  0
ARC
  8
_2-0_
  6
CONTINUOUS
 62
    7
 10
871.09252779929875
 20
486.73131478908613
 40
13.63722904902037
 50
4.742514265329433
 51
45.558409152256168
  0
ARC
  8
_2-0_
  6
CONTINUOUS
 62
    7
 10
874.11801924374322
 20
486.84897367797487
 40
10.613200086114647
 50
356.29748064263498
 51
5.4599208131890915
  0
LINE
  8
_2-0_
  6
CONTINUOUS
 62
    7
 10
883.80906724374336
 20
483.47221367797493
 11
883.80906724374336
 21
483.86901367797498
  0
LINE
  8
_2-0_
  6
CONTINUOUS
 62
    7
 10
883.82706724374339
 20
484.81021367797496
 11
884.78023001537099
 21
483.86901367797498
  0
LINE
  8
_2-0_
  6
CONTINUOUS
 62
    7
 10
883.80906724374336
 20
483.86901367797498
 11
884.78023001537099
 21
483.86901367797498
  0
LINE
  8
_2-0_
  6
CONTINUOUS
 62
    7
 10
883.80906724374336
 20
483.47221367797493
 11
884.76977554973985
 21
481.96881367797488
  0
LINE
  8
_2-0_
  6
CONTINUOUS
 62
    7
 10
883.80906724374336
 20
477.77261367797507
 11
883.80906724374336
 21
478.16941367797494
  0
LINE
  8
_2-0_
  6
CONTINUOUS
 62
    7
 10
883.80906724374336
 20
481.571813677975
 11
883.80906724374336
 21
481.96881367797488
  0
LINE
  8
_2-0_
  6
CONTINUOUS
 62
    7
 10
883.80906724374336
 20
479.67161367797496
 11
883.80906724374336
 21
480.06841367797506
  0
LINE
  8
_2-0_
  6
CONTINUOUS
 62
    7
 10
883.80906724374336
 20
470.17261367797494
 11
883.80906724374336
 21
470.56961367797504
  0
LINE
  8
_2-0_
  6
CONTINUOUS
 62
    7
 10
883.80906724374336
 20
472.07161367797494
 11
883.80906724374336
 21
472.46841367797504
  0
LINE
  8
_2-0_
  6
CONTINUOUS
 62
    7
 10
883.80906724374336
 20
473.97201367797499
 11
883.80906724374336
 21
474.36881367797503
  0
LINE
  8
_2-0_
  6
CONTINUOUS
 62
    7
 10
883.80906724374336
 20
475.87221367797503
 11
883.80906724374336
 21
476.26921367797502
  0
LINE
  8
_2-0_
  6
CONTINUOUS
 62
    7
 10
883.80906724374336
 20
481.96881367797488
 11
884.76977554973985
 21
481.96881367797488
  0
LINE
  8
_2-0_
  6
CONTINUOUS
 62
    7
 10
883.80906724374336
 20
480.06841367797506
 11
884.76990162694528
 21
480.06841367797506
  0
LINE
  8
_2-0_
  6
CONTINUOUS
 62
    7
 10
883.80906724374336
 20
481.571813677975
 11
884.76990162694528
 21
480.06841367797506
  0
LINE
  8
_2-0_
  6
CONTINUOUS
 62
    7
 10
883.80906724374336
 20
478.16941367797494
 11
884.76900872123963
 21
478.16941367797494
  0
LINE
  8
_2-0_
  6
CONTINUOUS
 62
    7
 10
883.80906724374336
 20
479.67161367797496
 11
884.76900872123963
 21
478.16941367797494
  0
LINE
  8
_2-0_
  6
CONTINUOUS
 62
    7
 10
883.80906724374336
 20
474.36881367797503
 11
884.76990162694528
 21
474.36881367797503
  0
LINE
  8
_2-0_
  6
CONTINUOUS
 62
    7
 10
883.80906724374336
 20
475.87221367797503
 11
884.76990162694528
 21
474.36881367797503
  0
LINE
  8
_2-0_
  6
CONTINUOUS
 62
    7
 10
883.80906724374336
 20
476.26921367797502
 11
884.76889393488113
 21
476.26921367797502
  0
LINE
  8
_2-0_
  6
CONTINUOUS
 62
    7
 10
883.80906724374336
 20
477.77261367797507
 11
884.76889393488113
 21
476.26921367797502
  0
LINE
  8
_2-0_
  6
CONTINUOUS
 62
    7
 10
883.80906724374336
 20
472.46841367797504
 11
884.76990335448988
 21
472.46841367797504
  0
LINE
  8
_2-0_
  6
CONTINUOUS
 62
    7
 10
883.80906724374336
 20
473.97201367797499
 11
884.76990335448988
 21
472.46841367797504
  0
LINE
  8
_2-0_
  6
CONTINUOUS
 62
    7
 10
883.80906724374336
 20
470.56961367797504
 11
884.76888091648959
 21
470.56961367797504
  0
LINE
  8
_2-0_
  6
CONTINUOUS
 62
    7
 10
883.80906724374336
 20
472.07161367797494
 11
884.76888091648959
 21
470.56961367797504
  0
LINE
  8
_2-0_
  6
DASHED2
 62
    7
 10
890.27706724374343
 20
482.89341367797488
 11
890.27706724374343
 21
467.67561367797504
  0
ARC
  8
_2-0_
  6
CONTINUOUS
 62
    7
 10
903.49794102635201
 20
487.08768846058371
 40
12.716799182876581
 50
132.37502471061384
 51
184.18608276411595
  0
ARC
  8
_2-0_
  6
CONTINUOUS
 62
    7
 10
901.47584224374305
 20
487.60058867797483
 40
11.141243957981073
 50
155.17616440720482
 51
166.44206336835197
  0
LINE
  8
_2-0_
  6
CONTINUOUS
 62
    7
 10
895.69906724374323
 20
495.83401367797489
 11
894.92706724374329
 21
496.48221367797487
  0
ARC
  8
_2-0_
  6
CONTINUOUS
 62
    7
 10
903.23404333898134
 20
487.24743820178446
 40
11.423884766756254
 50
131.26791700126978
 51
178.70703348506169
  0
LINE
  8
_2-0_
  6
CONTINUOUS
 62
    7
 10
891.81106724374331
 20
486.15801367797485
 11
891.81306724374326
 21
487.50521367797495
  0
LINE
  8
_2-0_
  6
DASHED2
 62
    7
 10
891.74506724374328
 20
481.571813677975
 11
890.27706724374343
 21
481.571813677975
  0
LINE
  8
_2-0_
  6
DASHED2
 62
    7
 10
891.74506724374328
 20
479.67161367797496
 11
890.27706724374343
 21
479.67161367797496
  0
LINE
  8
_2-0_
  6
DASHED2
 62
    7
 10
891.74506724374328
 20
470.17261367797494
 11
890.27706724374343
 21
470.17261367797494
  0
LINE
  8
_2-0_
  6
DASHED2
 62
    7
 10
891.74506724374328
 20
472.07161367797494
 11
890.27706724374343
 21
472.07161367797494
  0
LINE
  8
_2-0_
  6
DASHED2
 62
    7
 10
891.74506724374328
 20
473.97201367797499
 11
890.27706724374343
 21
473.97201367797499
  0
LINE
  8
_2-0_
  6
DASHED2
 62
    7
 10
891.74506724374328
 20
475.87221367797503
 11
890.27706724374343
 21
475.87221367797503
  0
LINE
  8
_2-0_
  6
DASHED2
 62
    7
 10
891.74506724374328
 20
477.77261367797507
 11
890.27706724374343
 21
477.77261367797507
  0
LINE
  8
_2-0_
  6
CONTINUOUS
 62
    7
 10
891.74506724374328
 20
483.47221367797493
 11
891.74506724374328
 21
483.86901367797498
  0
LINE
  8
_2-0_
  6
CONTINUOUS
 62
    7
 10
891.74506724374328
 20
483.86901367797498
 11
890.77390447211565
 21
483.86901367797498
  0
LINE
  8
_2-0_
  6
CONTINUOUS
 62
    7
 10
891.74506724374328
 20
483.47221367797493
 11
890.78435893774667
 21
481.96881367797488
  0
LINE
  8
_2-0_
  6
CONTINUOUS
 62
    7
 10
891.74506724374328
 20
477.77261367797507
 11
891.74506724374328
 21
478.16941367797494
  0
LINE
  8
_2-0_
  6
CONTINUOUS
 62
    7
 10
891.74506724374328
 20
481.571813677975
 11
891.74506724374328
 21
481.96881367797488
  0
LINE
  8
_2-0_
  6
CONTINUOUS
 62
    7
 10
891.74506724374328
 20
479.67161367797496
 11
891.74506724374328
 21
480.06841367797506
  0
LINE
  8
_2-0_
  6
CONTINUOUS
 62
    7
 10
891.74506724374328
 20
470.17261367797494
 11
891.74506724374328
 21
470.56961367797504
  0
LINE
  8
_2-0_
  6
CONTINUOUS
 62
    7
 10
891.74506724374328
 20
472.07161367797494
 11
891.74506724374328
 21
472.46841367797504
  0
LINE
  8
_2-0_
  6
CONTINUOUS
 62
    7
 10
891.74506724374328
 20
473.97201367797499
 11
891.74506724374328
 21
474.36881367797503
  0
LINE
  8
_2-0_
  6
CONTINUOUS
 62
    7
 10
891.74506724374328
 20
475.87221367797503
 11
891.74506724374328
 21
476.26921367797502
  0
LINE
  8
_2-0_
  6
CONTINUOUS
 62
    7
 10
891.74506724374328
 20
481.96881367797488
 11
890.78435893774667
 21
481.96881367797488
  0
LINE
  8
_2-0_
  6
CONTINUOUS
 62
    7
 10
891.74506724374328
 20
480.06841367797506
 11
890.78423286054135
 21
480.06841367797506
  0
LINE
  8
_2-0_
  6
CONTINUOUS
 62
    7
 10
891.74506724374328
 20
481.571813677975
 11
890.78423286054135
 21
480.06841367797506
  0
LINE
  8
_2-0_
  6
CONTINUOUS
 62
    7
 10
891.74506724374328
 20
478.16941367797494
 11
890.78512576624689
 21
478.16941367797494
  0
LINE
  8
_2-0_
  6
CONTINUOUS
 62
    7
 10
891.74506724374328
 20
479.67161367797496
 11
890.78512576624689
 21
478.16941367797494
  0
LINE
  8
_2-0_
  6
CONTINUOUS
 62
    7
 10
891.74506724374328
 20
474.36881367797503
 11
890.78423286054135
 21
474.36881367797503
  0
LINE
  8
_2-0_
  6
CONTINUOUS
 62
    7
 10
891.74506724374328
 20
475.87221367797503
 11
890.78423286054135
 21
474.36881367797503
  0
LINE
  8
_2-0_
  6
CONTINUOUS
 62
    7
 10
891.74506724374328
 20
476.26921367797502
 11
890.7852405526055
 21
476.26921367797502
  0
LINE
  8
_2-0_
  6
CONTINUOUS
 62
    7
 10
891.74506724374328
 20
477.77261367797507
 11
890.7852405526055
 21
476.26921367797502
  0
LINE
  8
_2-0_
  6
CONTINUOUS
 62
    7
 10
891.74506724374328
 20
472.46841367797504
 11
890.78423113299664
 21
472.46841367797504
  0
LINE
  8
_2-0_
  6
CONTINUOUS
 62
    7
 10
891.74506724374328
 20
473.97201367797499
 11
890.78423113299664
 21
472.46841367797504
  0
LINE
  8
_2-0_
  6
CONTINUOUS
 62
    7
 10
891.74506724374328
 20
470.56961367797504
 11
890.78525357099693
 21
470.56961367797504
  0
LINE
  8
_2-0_
  6
CONTINUOUS
 62
    7
 10
891.74506724374328
 20
472.07161367797494
 11
890.78525357099693
 21
470.56961367797504
  0
LINE
  8
_2-0_
  6
DASHED2
 62
    7
 10
885.2770672437432
 20
482.89341367797488
 11
885.2770672437432
 21
467.67561367797504
  0
LINE
  8
_2-0_
  6
DASHED2
 62
    7
 10
888.6190672437433
 20
479.09421367797506
 11
886.89106724374312
 21
479.09421367797506
  0
LINE
  8
_2-0_
  6
DASHED2
 62
    7
 10
888.6190672437433
 20
478.71101367797507
 11
886.89106724374312
 21
478.71101367797507
  0
LINE
  8
_2-0_
  6
DASHED2
 62
    7
 10
888.6190672437433
 20
480.61141367797495
 11
886.89106724374312
 21
480.61141367797495
  0
LINE
  8
_2-0_
  6
DASHED2
 62
    7
 10
888.6190672437433
 20
480.99441367797499
 11
886.89106724374312
 21
480.99441367797499
  0
LINE
  8
_2-0_
  6
DASHED2
 62
    7
 10
888.6190672437433
 20
482.51161367797499
 11
886.89106724374312
 21
482.51161367797499
  0
LINE
  8
_2-0_
  6
DASHED2
 62
    7
 10
888.6190672437433
 20
482.89341367797488
 11
886.89106724374312
 21
482.89341367797488
  0
LINE
  8
_2-0_
  6
DASHED2
 62
    7
 10
888.6190672437433
 20
483.53561367797499
 11
886.89106724374312
 21
483.53561367797499
  0
LINE
  8
_2-0_
  6
DASHED2
 62
    7
 10
888.6190672437433
 20
483.86901367797498
 11
886.89106724374312
 21
483.86901367797498
  0
LINE
  8
_2-0_
  6
DASHED2
 62
    7
 10
887.37506724374316
 20
473.39461367797503
 11
885.2770672437432
 21
473.39461367797503
  0
LINE
  8
_2-0_
  6
DASHED2
 62
    7
 10
888.32706724374339
 20
477.19381367797502
 11
886.89106724374312
 21
477.19381367797502
  0
LINE
  8
_2-0_
  6
DASHED2
 62
    7
 10
888.10706724374336
 20
476.81201367797496
 11
886.89106724374312
 21
476.81201367797496
  0
LINE
  8
_2-0_
  6
DASHED2
 62
    7
 10
884.76977554973985
 20
481.96881367797488
 11
885.2770672437432
 21
481.96881367797488
  0
LINE
  8
_2-0_
  6
DASHED2
 62
    7
 10
884.79187883414568
 20
468.63341367797494
 11
885.2770672437432
 21
468.63341367797494
  0
LINE
  8
_2-0_
  6
DASHED2
 62
    7
 10
884.76888091648959
 20
470.56961367797504
 11
885.2770672437432
 21
470.56961367797504
  0
LINE
  8
_2-0_
  6
DASHED2
 62
    7
 10
884.76990335448988
 20
472.46841367797504
 11
885.2770672437432
 21
472.46841367797504
  0
LINE
  8
_2-0_
  6
DASHED2
 62
    7
 10
884.76990162694528
 20
474.36881367797503
 11
885.2770672437432
 21
474.36881367797503
  0
LINE
  8
_2-0_
  6
DASHED2
 62
    7
 10
884.76889393488113
 20
476.26921367797502
 11
885.2770672437432
 21
476.26921367797502
  0
LINE
  8
_2-0_
  6
DASHED2
 62
    7
 10
884.76900872123963
 20
478.16941367797494
 11
885.2770672437432
 21
478.16941367797494
  0
LINE
  8
_2-0_
  6
DASHED2
 62
    7
 10
884.76990162694528
 20
480.06841367797506
 11
885.2770672437432
 21
480.06841367797506
  0
LINE
  8
_2-0_
  6
DASHED2
 62
    7
 10
890.78435893774667
 20
481.96881367797488
 11
890.27706724374343
 21
481.96881367797488
  0
LINE
  8
_2-0_
  6
DASHED2
 62
    7
 10
890.78525357099693
 20
470.56961367797504
 11
890.27706724374343
 21
470.56961367797504
  0
LINE
  8
_2-0_
  6
DASHED2
 62
    7
 10
890.78423113299664
 20
472.46841367797504
 11
890.27706724374343
 21
472.46841367797504
  0
LINE
  8
_2-0_
  6
DASHED2
 62
    7
 10
890.78423286054135
 20
474.36881367797503
 11
890.27706724374343
 21
474.36881367797503
  0
LINE
  8
_2-0_
  6
DASHED2
 62
    7
 10
890.7852405526055
 20
476.26921367797502
 11
890.27706724374343
 21
476.26921367797502
  0
LINE
  8
_2-0_
  6
DASHED2
 62
    7
 10
890.78512576624689
 20
478.16941367797494
 11
890.27706724374343
 21
478.16941367797494
  0
LINE
  8
_2-0_
  6
DASHED2
 62
    7
 10
890.78423286054135
 20
480.06841367797506
 11
890.27706724374343
 21
480.06841367797506
  0
LINE
  8
_2-0_
  6
CONTINUOUS
 62
    7
 10
883.80906724374336
 20
470.17261367797494
 11
884.79187883414568
 21
468.63341367797494
  0
LINE
  8
_2-0_
  6
CONTINUOUS
 62
    7
 10
883.7770672437432
 20
468.63341367797494
 11
884.79187883414568
 21
468.63341367797494
  0
LINE
  8
_2-0_
  6
CONTINUOUS
 62
    7
 10
883.7770672437432
 20
468.63341367797494
 11
883.7770672437432
 21
462.76390492465919
  0
LINE
  8
_2-0_
  6
CONTINUOUS
 62
    7
 10
891.77706724374332
 20
468.63341367797494
 11
890.76225565334084
 21
468.63341367797494
  0
LINE
  8
_2-0_
  6
CONTINUOUS
 62
    7
 10
891.74506724374328
 20
470.17261367797494
 11
890.76225565334084
 21
468.63341367797494
  0
LINE
  8
_2-0_
  6
CONTINUOUS
 62
    7
 10
891.78506724374324
 20
484.86748574275231
 11
890.77390447211565
 21
483.86901367797498
  0
LINE
  8
_2-0_
  6
CONTINUOUS
 62
    7
 10
891.78506724374324
 20
486.147013677975
 11
891.78506724374324
 21
484.86748574275231
  0
LINE
  8
_2-0_
  6
DASHED2
 62
    7
 10
885.2770672437432
 20
467.67561367797504
 11
890.27706724374343
 21
467.67561367797504
  0
LINE
  8
_2-0_
  6
DASHED2
 62
    7
 10
889.16506724374335
 20
477.19381367797502
 11
890.27706724374343
 21
477.19381367797502
  0
LINE
  8
_2-0_
  6
DASHED2
 62
    7
 10
889.03306724374318
 20
476.81201367797496
 11
890.27706724374343
 21
476.81201367797496
  0
LINE
  8
_2-0_
  6
CONTINUOUS
 62
    7
 10
883.7770672437432
 20
492.79902877231461
 11
884.29906724374314
 21
492.27801367797497
  0
LINE
  8
_2-0_
  6
CONTINUOUS
 62
    7
 10
891.36401687437387
 20
492.27801367797497
 11
891.77706724374332
 21
492.79696262397323
  0
LINE
  8
_2-0_
  6
CONTINUOUS
 62
    7
 10
891.77706724374332
 20
492.79696262397323
 11
891.77706724374332
 21
499.4148982718126
  0
LINE
  8
_2-0_
  6
CONTINUOUS
 62
    7
 10
883.7770672437432
 20
492.79902877231461
 11
883.7770672437432
 21
499.41470435610682
  0
LINE
  8
_2-0_
  6
CONTINUOUS
 62
    7
 10
891.77706724374332
 20
499.4148982718126
 11
892.51918264990559
 21
500.15701367797487
  0
LINE
  8
_2-0_
  6
DASHED2
 62
    7
 10
884.66606913881355
 20
499.41470435610682
 11
883.7770672437432
 21
499.41470435610682
  0
LINE
  8
_2-0_
  6
DASHED2
 62
    7
 10
891.77706724374332
 20
499.41470435610682
 11
890.90206534867298
 21
499.41470435610682
  0
LINE
  8
_2-0_
  6
DASHED2
 62
    7
 10
890.29306006064553
 20
499.41470435610682
 11
885.27507442684077
 21
499.41470435610682
  0
LINE
  8
_2-0_
  6
CONTINUOUS
 62
    7
 10
883.7770672437432
 20
462.76390492465919
 11
885.28134831638772
 21
460.15841367797498
  0
LINE
  8
_2-0_
  6
CONTINUOUS
 62
    7
 10
891.77706724374332
 20
468.63341367797494
 11
891.77706724374332
 21
462.76390492465919
  0
LINE
  8
_2-0_
  6
CONTINUOUS
 62
    7
 10
891.77706724374332
 20
462.76390492465919
 11
890.27278617109891
 21
460.15841367797498
  0
LINE
  8
_2-0_
  6
CONTINUOUS
 62
    7
 10
883.7770672437432
 20
499.41470435610682
 11
883.03475792187533
 21
500.15701367797487
  0
LINE
  8
_2-0_
  6
DASHED2
 62
    7
 10
890.99990397088141
 20
500.15701367797487
 11
890.98561146903489
 21
500.14217650694275
  0
LINE
  8
_2-0_
  6
DASHED2
 62
    7
 10
890.67706724374318
 20
500.15701367797487
 11
884.87706724374334
 21
500.15701367797487
  0
LINE
  8
_2-0_
  6
CONTINUOUS
 62
    7
 10
883.03475792187533
 20
500.15701367797487
 11
884.87706724374334
 21
500.15701367797487
  0
LINE
  8
_2-0_
  6
CONTINUOUS
 62
    7
 10
892.51918264990559
 20
500.15701367797487
 11
890.67706724374318
 21
500.15701367797487
  0
ARC
  8
_2-0_
  6
DASHED2
 62
    7
 10
941.11330224374331
 20
483.83765367797548
 40
50.869247184058253
 50
172.80096185739851
 51
177.38401321009891
  0
LINE
  8
_2-0_
  6
DASHED2
 62
    7
 10
890.67706724374318
 20
486.15941367797495
 11
890.29706724374341
 21
486.15941367797495
  0
LINE
  8
_2-0_
  6
CONTINUOUS
 62
    7
 10
890.81506724374321
 20
486.15941367797507
 11
890.67706724374318
 21
486.15941367797507
  0
ARC
  8
_2-0_
  6
CONTINUOUS
 62
    7
 10
877.8039472437431
 20
489.20881367797494
 40
7.1837714645164583
 50
10.414571251914561
 51
25.292579033513555
  0
ARC
  8
_2-0_
  6
DASHED2
 62
    7
 10
865.28952724374335
 20
486.14595034464151
 40
20.067547773580664
 50
0.050431402692386
 51
12.556948514115463
  0
LINE
  8
_2-0_
  6
DASHED2
 62
    7
 10
885.35706724374336
 20
486.16361367797492
 11
884.87706724374334
 21
486.16361367797492
  0
LINE
  8
_2-0_
  6
CONTINUOUS
 62
    7
 10
884.70906724374322
 20
486.16361367797492
 11
884.87706724374334
 21
486.16361367797492
  0
LINE
  8
_2-0_
  6
DASHED2
 62
    7
 10
885.28134831638772
 20
460.15841367797498
 11
886.61432090758467
 21
460.15841367797498
  0
LINE
  8
_2-0_
  6
DASHED2
 62
    7
 10
887.01846609601739
 20
460.15841367797498
 11
888.53566839146902
 21
460.15841367797498
  0
LINE
  8
_2-0_
  6
DASHED2
 62
    7
 10
888.93981357990185
 20
460.15841367797498
 11
890.27278617109891
 21
460.15841367797498
  0
LINE
  8
_2-0_
  6
DASHED2
 62
    7
 10
883.7770672437432
 20
492.79902877231461
 11
887.37706724374334
 21
492.79902877231461
  0
LINE
  8
_2-0_
  6
DASHED2
 62
    7
 10
888.17706724374329
 20
492.79902877231461
 11
891.77706724374332
 21
492.79902877231461
  0
LINE
  8
_2-0_
  6
DASHED2
 62
    7
 10
884.29906724374314
 20
492.27801367797497
 11
887.37706724374334
 21
492.27801367797497
  0
LINE
  8
_2-0_
  6
DASHED2
 62
    7
 10
888.17706724374329
 20
492.27801367797497
 11
891.36401687437387
 21
492.27801367797497
  0
LINE
  8
_2-0_
  6
DASHED2
 62
    7
 10
890.77390447211565
 20
483.86901367797498
 11
889.41906724374337
 21
483.86901367797498
  0
LINE
  8
_2-0_
  6
DASHED2
 62
    7
 10
889.41906724374337
 20
483.47221367797493
 11
891.74506724374328
 21
483.47221367797493
  0
LINE
  8
_2-0_
  6
DASHED2
 62
    7
 10
890.27706724374343
 20
478.71101367797507
 11
889.41906724374337
 21
478.71101367797507
  0
LINE
  8
_2-0_
  6
DASHED2
 62
    7
 10
890.27706724374343
 20
482.89341367797488
 11
889.41906724374337
 21
482.89341367797488
  0
LINE
  8
_2-0_
  6
DASHED2
 62
    7
 10
890.27706724374343
 20
482.51161367797499
 11
889.41906724374337
 21
482.51161367797499
  0
LINE
  8
_2-0_
  6
DASHED2
 62
    7
 10
890.27706724374343
 20
479.09421367797506
 11
889.41906724374337
 21
479.09421367797506
  0
LINE
  8
_2-0_
  6
DASHED2
 62
    7
 10
890.27706724374343
 20
480.61141367797495
 11
889.41906724374337
 21
480.61141367797495
  0
LINE
  8
_2-0_
  6
DASHED2
 62
    7
 10
890.27706724374343
 20
480.99441367797499
 11
889.41906724374337
 21
480.99441367797499
  0
LINE
  8
_2-0_
  6
DASHED2
 62
    7
 10
884.78023001537099
 20
483.86901367797498
 11
886.09106724374328
 21
483.86901367797498
  0
LINE
  8
_2-0_
  6
DASHED2
 62
    7
 10
883.80906724374336
 20
483.47221367797493
 11
886.09106724374328
 21
483.47221367797493
  0
LINE
  8
_2-0_
  6
DASHED2
 62
    7
 10
886.09106724374328
 20
476.81201367797496
 11
885.2770672437432
 21
476.81201367797496
  0
LINE
  8
_2-0_
  6
DASHED2
 62
    7
 10
886.09106724374328
 20
479.09421367797506
 11
885.2770672437432
 21
479.09421367797506
  0
LINE
  8
_2-0_
  6
DASHED2
 62
    7
 10
886.09106724374328
 20
478.71101367797507
 11
885.2770672437432
 21
478.71101367797507
  0
LINE
  8
_2-0_
  6
DASHED2
 62
    7
 10
885.2770672437432
 20
482.51161367797499
 11
886.09106724374328
 21
482.51161367797499
  0
LINE
  8
_2-0_
  6
DASHED2
 62
    7
 10
886.09106724374328
 20
480.61141367797495
 11
885.2770672437432
 21
480.61141367797495
  0
LINE
  8
_2-0_
  6
DASHED2
 62
    7
 10
886.09106724374328
 20
480.99441367797499
 11
885.2770672437432
 21
480.99441367797499
  0
LINE
  8
_2-0_
  6
DASHED2
 62
    7
 10
885.2770672437432
 20
482.89341367797488
 11
886.09106724374328
 21
482.89341367797488
  0
LINE
  8
_2-0_
  6
DASHED2
 62
    7
 10
886.09106724374328
 20
477.19381367797502
 11
885.2770672437432
 21
477.19381367797502
  0
LINE
  8
_2-0_
  6
DASHED2
 62
    7
 10
887.40036774567795
 20
474.91181367797503
 11
885.2770672437432
 21
474.91181367797503
  0
LINE
  8
_2-0_
  6
DASHED2
 62
    7
 10
887.55529975573154
 20
475.29341367797497
 11
885.2770672437432
 21
475.29341367797497
  0
LINE
  8
_2-0_
  6
DASHED2
 62
    7
 10
888.26379019277124
 20
474.91181367797503
 11
890.27706724374343
 21
474.91181367797503
  0
LINE
  8
_2-0_
  6
DASHED2
 62
    7
 10
888.41872220282482
 20
475.29341367797497
 11
890.27706724374343
 21
475.29341367797497
  0
LINE
  8
_2-0_
  6
DASHED2
 62
    7
 10
888.17706724374329
 20
473.39461367797503
 11
890.27706724374343
 21
473.39461367797503
  0
LINE
  8
_2-0_
  6
DASHED2
 62
    7
 10
888.17706724374329
 20
473.01141367797504
 11
890.27706724374343
 21
473.01141367797504
  0
LINE
  8
_2-0_
  6
DASHED2
 62
    7
 10
888.17706724374329
 20
469.21221367797506
 11
890.27706724374343
 21
469.21221367797506
  0
LINE
  8
_2-0_
  6
DASHED2
 62
    7
 10
888.17706724374329
 20
471.11241367797504
 11
890.27706724374343
 21
471.11241367797504
  0
LINE
  8
_2-0_
  6
DASHED2
 62
    7
 10
888.17706724374329
 20
469.59521367797498
 11
890.27706724374343
 21
469.59521367797498
  0
LINE
  8
_2-0_
  6
DASHED2
 62
    7
 10
888.17706724374329
 20
471.49421367797504
 11
890.27706724374343
 21
471.49421367797504
  0
LINE
  8
_2-0_
  6
DASHED2
 62
    7
 10
887.37506724374316
 20
473.01141367797504
 11
885.2770672437432
 21
473.01141367797504
  0
LINE
  8
_2-0_
  6
DASHED2
 62
    7
 10
887.37506724374316
 20
469.21221367797506
 11
885.2770672437432
 21
469.21221367797506
  0
LINE
  8
_2-0_
  6
DASHED2
 62
    7
 10
887.37506724374316
 20
469.59521367797498
 11
885.2770672437432
 21
469.59521367797498
  0
LINE
  8
_2-0_
  6
DASHED2
 62
    7
 10
887.37506724374316
 20
471.11241367797504
 11
885.2770672437432
 21
471.11241367797504
  0
LINE
  8
_2-0_
  6
DASHED2
 62
    7
 10
887.37506724374316
 20
471.49421367797504
 11
885.2770672437432
 21
471.49421367797504
  0
LINE
  8
_2-0_
  6
DASHED2
 62
    7
 10
890.76225565334084
 20
468.63341367797494
 11
890.27706724374343
 21
468.63341367797494
  0
ARC
  8
_2-0_
  6
DASHED2
 62
    7
 10
887.7770672437432
 20
468.12221367797497
 40
0.4000000000000056
 50
180
 51
359.99999999999682
  0
ARC
  8
_2-0_
  6
DASHED2
 62
    7
 10
886.49106724374315
 20
476.179613677975
 40
0.3999999999999914
 50
180
 51
359.99999999999795
  0
LINE
  8
_2-0_
  6
DASHED2
 62
    7
 10
886.09106724374328
 20
488.34142632444872
 11
886.09106724374328
 21
476.179613677975
  0
LINE
  8
_2-0_
  6
DASHED2
 62
    7
 10
887.37706724374334
 20
490.56884366298232
 11
886.09106724374328
 21
488.34142632444872
  0
LINE
  8
_2-0_
  6
DASHED2
 62
    7
 10
886.89106724374324
 20
488.12706697050379
 11
886.89106724374324
 21
476.179613677975
  0
LINE
  8
_2-0_
  6
DASHED2
 62
    7
 10
888.17706724374329
 20
490.3544843090375
 11
886.89106724374324
 21
488.12706697050379
  0
LINE
  8
_2-0_
  6
DASHED2
 62
    7
 10
887.37706724374334
 20
495.380013677975
 11
887.37706724374334
 21
490.56884366298232
  0
LINE
  8
_2-0_
  6
DASHED2
 62
    7
 10
888.17706724374329
 20
495.380013677975
 11
888.17706724374329
 21
490.3544843090375
  0
ARC
  8
_2-0_
  6
DASHED2
 62
    7
 10
887.7770672437432
 20
495.380013677975
 40
0.4000000000000056
 50
0
 51
180
  0
LINE
  8
_2-0_
  6
DASHED2
 62
    7
 10
888.6190672437433
 20
477.91348988614607
 11
888.6190672437433
 21
489.9028136779749
  0
ARC
  8
_2-0_
  6
DASHED2
 62
    7
 10
889.01906724374328
 20
489.9028136779749
 40
0.3999999999999914
 50
359.99999999999693
 51
180.00000000000304
  0
LINE
  8
_2-0_
  6
DASHED2
 62
    7
 10
887.37706724374334
 20
474.85442417186044
 11
887.37706724374334
 21
468.12221367797497
  0
LINE
  8
_2-0_
  6
DASHED2
 62
    7
 10
887.37706724374334
 20
474.85442417186044
 11
888.6190672437433
 21
477.91348988614607
  0
LINE
  8
_2-0_
  6
DASHED2
 62
    7
 10
888.17706724374329
 20
474.6982136779643
 11
888.17706724374329
 21
468.12221367797497
  0
LINE
  8
_2-0_
  6
DASHED2
 62
    7
 10
888.17706724374329
 20
474.6982136779643
 11
889.41906724374337
 21
477.75727939224987
  0
LINE
  8
_2-0_
  6
DASHED2
 62
    7
 10
889.41906724374337
 20
489.9028136779749
 11
889.41906724374337
 21
477.75727939224987
  0
LINE
  8
_2-0_
  6
DASHED2
 62
    7
 10
885.17706724374329
 20
466.75381367797502
 11
885.52706724374332
 21
466.75381367797502
  0
LINE
  8
_2-0_
  6
DASHED2
 62
    7
 10
890.0270672437432
 20
466.75381367797502
 11
890.37706724374334
 21
466.75381367797502
  0
LINE
  8
_2-0_
  6
DASHED2
 62
    7
 10
885.52706724374332
 20
462.74159226446363
 11
885.52706724374332
 21
466.75381367797502
  0
LINE
  8
_2-0_
  6
DASHED2
 62
    7
 10
890.0270672437432
 20
462.74159226446363
 11
890.0270672437432
 21
466.75381367797502
  0
LINE
  8
_2-0_
  6
DASHED2
 62
    7
 10
885.17706724374329
 20
462.64781004711273
 11
885.17706724374329
 21
466.75381367797502
  0
LINE
  8
_2-0_
  6
DASHED2
 62
    7
 10
890.37706724374334
 20
462.64781004711273
 11
890.37706724374334
 21
466.75381367797502
  0
LINE
  8
_2-0_
  6
DASHED2
 62
    7
 10
885.17706724374329
 20
462.64781004711273
 11
886.61432090758467
 21
460.15841367797498
  0
LINE
  8
_2-0_
  6
DASHED2
 62
    7
 10
885.52706724374332
 20
462.74159226446363
 11
887.01846609601739
 21
460.15841367797498
  0
LINE
  8
_2-0_
  6
DASHED2
 62
    7
 10
890.0270672437432
 20
462.74159226446363
 11
888.53566839146902
 21
460.15841367797498
  0
LINE
  8
_2-0_
  6
DASHED2
 62
    7
 10
890.37706724374334
 20
462.64781004711273
 11
888.93981357990185
 21
460.15841367797498
  0
LINE
  8
_2-0_
  6
DASHED2
 62
    7
 10
885.27507442684077
 20
499.41470435610682
 11
884.53464044016187
 21
500.15513834278585
  0
LINE
  8
_2-0_
  6
DASHED2
 62
    7
 10
885.27507442684077
 20
499.41470435610682
 11
885.27507442684077
 21
494.779013677975
  0
LINE
  8
_2-0_
  6
DASHED2
 62
    7
 10
885.27507442684077
 20
494.779013677975
 11
884.53464044016187
 21
500.15513834278585
  0
LINE
  8
_2-0_
  6
DASHED2
 62
    7
 10
890.27906006064563
 20
499.41470435610682
 11
891.01949404732466
 21
500.15513834278585
  0
LINE
  8
_2-0_
  6
DASHED2
 62
    7
 10
890.27906006064563
 20
499.41470435610682
 11
890.27906006064563
 21
494.779013677975
  0
LINE
  8
_2-0_
  6
DASHED2
 62
    7
 10
890.27906006064563
 20
494.779013677975
 11
891.01949404732466
 21
500.15513834278585
  0
LINE
  8
_2-0_
  6
CONTINUOUS
 62
    7
 10
890.67706724374318
 20
511.5568136779749
 11
893.4772672437432
 21
514.35701367797492
  0
LINE
  8
_2-0_
  6
CONTINUOUS
 62
    7
 10
884.87706724374334
 20
511.5568136779749
 11
882.07686724374321
 21
514.35701367797492
  0
LINE
  8
_2-0_
  6
CONTINUOUS
 62
    7
 10
884.87706724374334
 20
459.37996101992462
 11
887.7770672437432
 21
454.35701367797492
  0
LINE
  8
_2-0_
  6
CONTINUOUS
 62
    7
 10
884.87706724374334
 20
459.37996101992462
 11
884.87706724374334
 21
511.5568136779749
  0
LINE
  8
_2-0_
  6
CONTINUOUS
 62
    7
 10
890.67706724374318
 20
459.37996101992468
 11
887.7770672437432
 21
454.35701367797492
  0
LINE
  8
_2-0_
  6
CONTINUOUS
 62
    7
 10
890.67706724374318
 20
459.37996101992468
 11
890.67706724374318
 21
511.5568136779749
  0
LINE
  8
_2-0_
  6
CONTINUOUS
 62
    7
 10
653.45840709649167
 20
735.901971692899
 11
653.45840709649167
 21
747.30237169289899
  0
LINE
  8
_2-0_
  6
CONTINUOUS
 62
    7
 10
650.65820709649176
 20
738.70217169289901
 11
653.45840709649167
 21
735.901971692899
  0
LINE
  8
_2-0_
  6
CONTINUOUS
 62
    7
 10
650.65820709649176
 20
744.50217169289897
 11
653.45840709649167
 21
747.30237169289899
  0
LINE
  8
_2-0_
  6
CONTINUOUS
 62
    7
 10
598.48135443844149
 20
744.50217169289897
 11
593.45840709649178
 21
741.60217169289899
  0
LINE
  8
_2-0_
  6
CONTINUOUS
 62
    7
 10
598.48135443844149
 20
744.50217169289897
 11
650.65820709649176
 21
744.50217169289897
  0
LINE
  8
_2-0_
  6
CONTINUOUS
 62
    7
 10
598.48135443844149
 20
738.70217169289901
 11
593.45840709649178
 21
741.60217169289899
  0
LINE
  8
_2-0_
  6
CONTINUOUS
 62
    7
 10
598.48135443844149
 20
738.70217169289901
 11
650.65820709649176
 21
738.70217169289901
  0
LINE
  8
_2-0_
  6
DASHED2
 62
    7
 10
622.67320709649175
 20
745.57017169289895
 11
622.67320709649175
 21
744.10217169289911
  0
LINE
  8
_2-0_
  6
DASHED2
 62
    7
 10
620.77300709649171
 20
745.57017169289895
 11
620.77300709649171
 21
744.10217169289911
  0
LINE
  8
_2-0_
  6
DASHED2
 62
    7
 10
611.2740070964918
 20
745.57017169289895
 11
611.2740070964918
 21
744.10217169289911
  0
LINE
  8
_2-0_
  6
DASHED2
 62
    7
 10
613.1730070964918
 20
745.57017169289895
 11
613.1730070964918
 21
744.10217169289911
  0
LINE
  8
_2-0_
  6
DASHED2
 62
    7
 10
615.07340709649179
 20
745.57017169289895
 11
615.07340709649179
 21
744.10217169289911
  0
LINE
  8
_2-0_
  6
DASHED2
 62
    7
 10
616.97360709649183
 20
745.57017169289895
 11
616.97360709649183
 21
744.10217169289911
  0
LINE
  8
_2-0_
  6
DASHED2
 62
    7
 10
618.87400709649182
 20
745.57017169289895
 11
618.87400709649182
 21
744.10217169289911
  0
ARC
  8
_2-0_
  6
CONTINUOUS
 62
    7
 10
628.10815209649172
 20
757.56219369289909
 40
12.02006079916025
 50
274.05150208688258
 51
310.41260977017191
  0
ARC
  8
_2-0_
  6
CONTINUOUS
 62
    7
 10
627.30970709649182
 20
764.56796369289907
 40
19.067119053419354
 50
265.7950026216887
 51
274.95744279224277
  0
ARC
  8
_2-0_
  6
CONTINUOUS
 62
    7
 10
631.27738209649181
 20
753.64932169289898
 40
6.9873387010452621
 50
311.42640538117877
 51
322.87602628562581
  0
LINE
  8
_2-0_
  6
CONTINUOUS
 62
    7
 10
637.56920709649171
 20
748.73817169289907
 11
636.84860709649183
 21
749.43217169289915
  0
ARC
  8
_2-0_
  6
CONTINUOUS
 62
    7
 10
627.83270820760299
 20
758.28671113734356
 40
13.63722904902037
 50
274.74251426532942
 51
315.55840915225616
  0
ARC
  8
_2-0_
  6
CONTINUOUS
 62
    7
 10
627.95036709649162
 20
755.26121969289898
 40
10.613200086114647
 50
266.29748064263498
 51
275.45992081318911
  0
LINE
  8
_2-0_
  6
CONTINUOUS
 62
    7
 10
624.57360709649174
 20
745.57017169289895
 11
624.97040709649173
 21
745.57017169289895
  0
LINE
  8
_2-0_
  6
CONTINUOUS
 62
    7
 10
625.91160709649171
 20
745.55217169289892
 11
624.97040709649173
 21
744.59900892127143
  0
LINE
  8
_2-0_
  6
CONTINUOUS
 62
    7
 10
624.97040709649173
 20
745.57017169289895
 11
624.97040709649173
 21
744.59900892127143
  0
LINE
  8
_2-0_
  6
CONTINUOUS
 62
    7
 10
624.57360709649174
 20
745.57017169289895
 11
623.07020709649169
 21
744.60946338690235
  0
LINE
  8
_2-0_
  6
CONTINUOUS
 62
    7
 10
618.87400709649182
 20
745.57017169289895
 11
619.27080709649181
 21
745.57017169289895
  0
LINE
  8
_2-0_
  6
CONTINUOUS
 62
    7
 10
622.67320709649175
 20
745.57017169289895
 11
623.07020709649169
 21
745.57017169289895
  0
LINE
  8
_2-0_
  6
CONTINUOUS
 62
    7
 10
620.77300709649171
 20
745.57017169289895
 11
621.16980709649181
 21
745.57017169289895
  0
LINE
  8
_2-0_
  6
CONTINUOUS
 62
    7
 10
611.2740070964918
 20
745.57017169289895
 11
611.67100709649185
 21
745.57017169289895
  0
LINE
  8
_2-0_
  6
CONTINUOUS
 62
    7
 10
613.1730070964918
 20
745.57017169289895
 11
613.56980709649179
 21
745.57017169289895
  0
LINE
  8
_2-0_
  6
CONTINUOUS
 62
    7
 10
615.07340709649179
 20
745.57017169289895
 11
615.47020709649178
 21
745.57017169289895
  0
LINE
  8
_2-0_
  6
CONTINUOUS
 62
    7
 10
616.97360709649183
 20
745.57017169289895
 11
617.37060709649177
 21
745.57017169289895
  0
LINE
  8
_2-0_
  6
CONTINUOUS
 62
    7
 10
623.07020709649169
 20
745.57017169289895
 11
623.07020709649169
 21
744.60946338690235
  0
LINE
  8
_2-0_
  6
CONTINUOUS
 62
    7
 10
621.16980709649181
 20
745.57017169289895
 11
621.16980709649181
 21
744.60933730969703
  0
LINE
  8
_2-0_
  6
CONTINUOUS
 62
    7
 10
622.67320709649175
 20
745.57017169289895
 11
621.16980709649181
 21
744.60933730969703
  0
LINE
  8
_2-0_
  6
CONTINUOUS
 62
    7
 10
619.27080709649181
 20
745.57017169289895
 11
619.27080709649181
 21
744.61023021540257
  0
LINE
  8
_2-0_
  6
CONTINUOUS
 62
    7
 10
620.77300709649171
 20
745.57017169289895
 11
619.27080709649181
 21
744.61023021540257
  0
LINE
  8
_2-0_
  6
CONTINUOUS
 62
    7
 10
615.47020709649178
 20
745.57017169289895
 11
615.47020709649178
 21
744.60933730969703
  0
LINE
  8
_2-0_
  6
CONTINUOUS
 62
    7
 10
616.97360709649183
 20
745.57017169289895
 11
615.47020709649178
 21
744.60933730969703
  0
LINE
  8
_2-0_
  6
CONTINUOUS
 62
    7
 10
617.37060709649177
 20
745.57017169289895
 11
617.37060709649177
 21
744.61034500176106
  0
LINE
  8
_2-0_
  6
CONTINUOUS
 62
    7
 10
618.87400709649182
 20
745.57017169289895
 11
617.37060709649177
 21
744.61034500176106
  0
LINE
  8
_2-0_
  6
CONTINUOUS
 62
    7
 10
613.56980709649179
 20
745.57017169289895
 11
613.56980709649179
 21
744.60933558215231
  0
LINE
  8
_2-0_
  6
CONTINUOUS
 62
    7
 10
615.07340709649179
 20
745.57017169289895
 11
613.56980709649179
 21
744.60933558215231
  0
LINE
  8
_2-0_
  6
CONTINUOUS
 62
    7
 10
611.67100709649185
 20
745.57017169289895
 11
611.67100709649185
 21
744.6103580201526
  0
LINE
  8
_2-0_
  6
CONTINUOUS
 62
    7
 10
613.1730070964918
 20
745.57017169289895
 11
611.67100709649185
 21
744.6103580201526
  0
LINE
  8
_2-0_
  6
DASHED2
 62
    7
 10
623.99480709649174
 20
739.10217169289899
 11
608.77700709649184
 21
739.10217169289899
  0
ARC
  8
_2-0_
  6
CONTINUOUS
 62
    7
 10
628.18908187910051
 20
725.8812979102903
 40
12.716799182876581
 50
42.375024710613857
 51
94.186082764115937
  0
ARC
  8
_2-0_
  6
CONTINUOUS
 62
    7
 10
628.70198209649163
 20
727.90339669289915
 40
11.141243957981073
 50
65.176164407204823
 51
76.442063368351967
  0
LINE
  8
_2-0_
  6
CONTINUOUS
 62
    7
 10
636.93540709649164
 20
733.68017169289919
 11
637.58360709649173
 21
734.45217169289901
  0
ARC
  8
_2-0_
  6
CONTINUOUS
 62
    7
 10
628.34883162030121
 20
726.14519559766097
 40
11.423884766756254
 50
41.26791700126978
 51
88.707033485061686
  0
LINE
  8
_2-0_
  6
CONTINUOUS
 62
    7
 10
627.25940709649171
 20
737.568171692899
 11
628.60660709649176
 21
737.56617169289916
  0
LINE
  8
_2-0_
  6
DASHED2
 62
    7
 10
622.67320709649175
 20
737.63417169289914
 11
622.67320709649175
 21
739.10217169289899
  0
LINE
  8
_2-0_
  6
DASHED2
 62
    7
 10
620.77300709649171
 20
737.63417169289914
 11
620.77300709649171
 21
739.10217169289899
  0
LINE
  8
_2-0_
  6
DASHED2
 62
    7
 10
611.2740070964918
 20
737.63417169289914
 11
611.2740070964918
 21
739.10217169289899
  0
LINE
  8
_2-0_
  6
DASHED2
 62
    7
 10
613.1730070964918
 20
737.63417169289914
 11
613.1730070964918
 21
739.10217169289899
  0
LINE
  8
_2-0_
  6
DASHED2
 62
    7
 10
615.07340709649179
 20
737.63417169289914
 11
615.07340709649179
 21
739.10217169289899
  0
LINE
  8
_2-0_
  6
DASHED2
 62
    7
 10
616.97360709649183
 20
737.63417169289914
 11
616.97360709649183
 21
739.10217169289899
  0
LINE
  8
_2-0_
  6
DASHED2
 62
    7
 10
618.87400709649182
 20
737.63417169289914
 11
618.87400709649182
 21
739.10217169289899
  0
LINE
  8
_2-0_
  6
CONTINUOUS
 62
    7
 10
624.57360709649174
 20
737.63417169289914
 11
624.97040709649173
 21
737.63417169289914
  0
LINE
  8
_2-0_
  6
CONTINUOUS
 62
    7
 10
624.97040709649173
 20
737.63417169289914
 11
624.97040709649173
 21
738.60533446452666
  0
LINE
  8
_2-0_
  6
CONTINUOUS
 62
    7
 10
624.57360709649174
 20
737.63417169289914
 11
623.07020709649169
 21
738.59487999889564
  0
LINE
  8
_2-0_
  6
CONTINUOUS
 62
    7
 10
618.87400709649182
 20
737.63417169289914
 11
619.27080709649181
 21
737.63417169289914
  0
LINE
  8
_2-0_
  6
CONTINUOUS
 62
    7
 10
622.67320709649175
 20
737.63417169289914
 11
623.07020709649169
 21
737.63417169289914
  0
LINE
  8
_2-0_
  6
CONTINUOUS
 62
    7
 10
620.77300709649171
 20
737.63417169289914
 11
621.16980709649181
 21
737.63417169289914
  0
LINE
  8
_2-0_
  6
CONTINUOUS
 62
    7
 10
611.2740070964918
 20
737.63417169289914
 11
611.67100709649185
 21
737.63417169289914
  0
LINE
  8
_2-0_
  6
CONTINUOUS
 62
    7
 10
613.1730070964918
 20
737.63417169289914
 11
613.56980709649179
 21
737.63417169289914
  0
LINE
  8
_2-0_
  6
CONTINUOUS
 62
    7
 10
615.07340709649179
 20
737.63417169289914
 11
615.47020709649178
 21
737.63417169289914
  0
LINE
  8
_2-0_
  6
CONTINUOUS
 62
    7
 10
616.97360709649183
 20
737.63417169289914
 11
617.37060709649177
 21
737.63417169289914
  0
LINE
  8
_2-0_
  6
CONTINUOUS
 62
    7
 10
623.07020709649169
 20
737.63417169289914
 11
623.07020709649169
 21
738.59487999889564
  0
LINE
  8
_2-0_
  6
CONTINUOUS
 62
    7
 10
621.16980709649181
 20
737.63417169289914
 11
621.16980709649181
 21
738.59500607610107
  0
LINE
  8
_2-0_
  6
CONTINUOUS
 62
    7
 10
622.67320709649175
 20
737.63417169289914
 11
621.16980709649181
 21
738.59500607610107
  0
LINE
  8
_2-0_
  6
CONTINUOUS
 62
    7
 10
619.27080709649181
 20
737.63417169289914
 11
619.27080709649181
 21
738.59411317039542
  0
LINE
  8
_2-0_
  6
CONTINUOUS
 62
    7
 10
620.77300709649171
 20
737.63417169289914
 11
619.27080709649181
 21
738.59411317039542
  0
LINE
  8
_2-0_
  6
CONTINUOUS
 62
    7
 10
615.47020709649178
 20
737.63417169289914
 11
615.47020709649178
 21
738.59500607610107
  0
LINE
  8
_2-0_
  6
CONTINUOUS
 62
    7
 10
616.97360709649183
 20
737.63417169289914
 11
615.47020709649178
 21
738.59500607610107
  0
LINE
  8
_2-0_
  6
CONTINUOUS
 62
    7
 10
617.37060709649177
 20
737.63417169289914
 11
617.37060709649177
 21
738.59399838403669
  0
LINE
  8
_2-0_
  6
CONTINUOUS
 62
    7
 10
618.87400709649182
 20
737.63417169289914
 11
617.37060709649177
 21
738.59399838403669
  0
LINE
  8
_2-0_
  6
CONTINUOUS
 62
    7
 10
613.56980709649179
 20
737.63417169289914
 11
613.56980709649179
 21
738.59500780364567
  0
LINE
  8
_2-0_
  6
CONTINUOUS
 62
    7
 10
615.07340709649179
 20
737.63417169289914
 11
613.56980709649179
 21
738.59500780364567
  0
LINE
  8
_2-0_
  6
CONTINUOUS
 62
    7
 10
611.67100709649185
 20
737.63417169289914
 11
611.67100709649185
 21
738.59398536564538
  0
LINE
  8
_2-0_
  6
CONTINUOUS
 62
    7
 10
613.1730070964918
 20
737.63417169289914
 11
611.67100709649185
 21
738.59398536564538
  0
LINE
  8
_2-0_
  6
DASHED2
 62
    7
 10
623.99480709649174
 20
744.10217169289911
 11
608.77700709649184
 21
744.10217169289911
  0
LINE
  8
_2-0_
  6
DASHED2
 62
    7
 10
620.19560709649181
 20
740.76017169289901
 11
620.19560709649181
 21
742.48817169289907
  0
LINE
  8
_2-0_
  6
DASHED2
 62
    7
 10
619.81240709649182
 20
740.76017169289901
 11
619.81240709649182
 21
742.48817169289907
  0
LINE
  8
_2-0_
  6
DASHED2
 62
    7
 10
621.71280709649182
 20
740.76017169289901
 11
621.71280709649182
 21
742.48817169289907
  0
LINE
  8
_2-0_
  6
DASHED2
 62
    7
 10
622.09580709649174
 20
740.76017169289901
 11
622.09580709649174
 21
742.48817169289907
  0
LINE
  8
_2-0_
  6
DASHED2
 62
    7
 10
623.61300709649174
 20
740.76017169289901
 11
623.61300709649174
 21
742.48817169289907
  0
LINE
  8
_2-0_
  6
DASHED2
 62
    7
 10
623.99480709649174
 20
740.76017169289901
 11
623.99480709649174
 21
742.48817169289907
  0
LINE
  8
_2-0_
  6
DASHED2
 62
    7
 10
624.63700709649174
 20
740.76017169289901
 11
624.63700709649174
 21
742.48817169289907
  0
LINE
  8
_2-0_
  6
DASHED2
 62
    7
 10
624.97040709649173
 20
740.76017169289901
 11
624.97040709649173
 21
742.48817169289907
  0
LINE
  8
_2-0_
  6
DASHED2
 62
    7
 10
614.49600709649178
 20
742.00417169289926
 11
614.49600709649178
 21
744.10217169289911
  0
LINE
  8
_2-0_
  6
DASHED2
 62
    7
 10
618.29520709649182
 20
741.05217169289881
 11
618.29520709649182
 21
742.48817169289907
  0
LINE
  8
_2-0_
  6
DASHED2
 62
    7
 10
617.91340709649171
 20
741.27217169289895
 11
617.91340709649171
 21
742.48817169289907
  0
LINE
  8
_2-0_
  6
DASHED2
 62
    7
 10
623.07020709649169
 20
744.60946338690235
 11
623.07020709649169
 21
744.10217169289911
  0
LINE
  8
_2-0_
  6
DASHED2
 62
    7
 10
609.73480709649175
 20
744.58736010249652
 11
609.73480709649175
 21
744.10217169289911
  0
LINE
  8
_2-0_
  6
DASHED2
 62
    7
 10
611.67100709649185
 20
744.6103580201526
 11
611.67100709649185
 21
744.10217169289911
  0
LINE
  8
_2-0_
  6
DASHED2
 62
    7
 10
613.56980709649179
 20
744.60933558215231
 11
613.56980709649179
 21
744.10217169289911
  0
LINE
  8
_2-0_
  6
DASHED2
 62
    7
 10
615.47020709649178
 20
744.60933730969703
 11
615.47020709649178
 21
744.10217169289911
  0
LINE
  8
_2-0_
  6
DASHED2
 62
    7
 10
617.37060709649177
 20
744.61034500176106
 11
617.37060709649177
 21
744.10217169289911
  0
LINE
  8
_2-0_
  6
DASHED2
 62
    7
 10
619.27080709649181
 20
744.61023021540257
 11
619.27080709649181
 21
744.10217169289911
  0
LINE
  8
_2-0_
  6
DASHED2
 62
    7
 10
621.16980709649181
 20
744.60933730969703
 11
621.16980709649181
 21
744.10217169289911
  0
LINE
  8
_2-0_
  6
DASHED2
 62
    7
 10
623.07020709649169
 20
738.59487999889564
 11
623.07020709649169
 21
739.10217169289899
  0
LINE
  8
_2-0_
  6
DASHED2
 62
    7
 10
611.67100709649185
 20
738.59398536564538
 11
611.67100709649185
 21
739.10217169289899
  0
LINE
  8
_2-0_
  6
DASHED2
 62
    7
 10
613.56980709649179
 20
738.59500780364567
 11
613.56980709649179
 21
739.10217169289899
  0
LINE
  8
_2-0_
  6
DASHED2
 62
    7
 10
615.47020709649178
 20
738.59500607610107
 11
615.47020709649178
 21
739.10217169289899
  0
LINE
  8
_2-0_
  6
DASHED2
 62
    7
 10
617.37060709649177
 20
738.59399838403669
 11
617.37060709649177
 21
739.10217169289899
  0
LINE
  8
_2-0_
  6
DASHED2
 62
    7
 10
619.27080709649181
 20
738.59411317039542
 11
619.27080709649181
 21
739.10217169289899
  0
LINE
  8
_2-0_
  6
DASHED2
 62
    7
 10
621.16980709649181
 20
738.59500607610107
 11
621.16980709649181
 21
739.10217169289899
  0
LINE
  8
_2-0_
  6
CONTINUOUS
 62
    7
 10
611.2740070964918
 20
745.57017169289895
 11
609.73480709649175
 21
744.58736010249652
  0
LINE
  8
_2-0_
  6
CONTINUOUS
 62
    7
 10
609.73480709649175
 20
745.60217169289899
 11
609.73480709649175
 21
744.58736010249652
  0
LINE
  8
_2-0_
  6
CONTINUOUS
 62
    7
 10
609.73480709649175
 20
745.60217169289899
 11
603.86529834317594
 21
745.60217169289899
  0
LINE
  8
_2-0_
  6
CONTINUOUS
 62
    7
 10
609.73480709649175
 20
737.60217169289899
 11
609.73480709649175
 21
738.61698328330147
  0
LINE
  8
_2-0_
  6
CONTINUOUS
 62
    7
 10
611.2740070964918
 20
737.63417169289914
 11
609.73480709649175
 21
738.61698328330147
  0
LINE
  8
_2-0_
  6
CONTINUOUS
 62
    7
 10
625.96887916126911
 20
737.59417169289907
 11
624.97040709649173
 21
738.60533446452666
  0
LINE
  8
_2-0_
  6
CONTINUOUS
 62
    7
 10
627.24840709649175
 20
737.59417169289907
 11
625.96887916126911
 21
737.59417169289907
  0
LINE
  8
_2-0_
  6
DASHED2
 62
    7
 10
608.77700709649184
 20
744.10217169289911
 11
608.77700709649184
 21
739.10217169289899
  0
LINE
  8
_2-0_
  6
DASHED2
 62
    7
 10
618.29520709649182
 20
740.21417169289884
 11
618.29520709649182
 21
739.10217169289899
  0
LINE
  8
_2-0_
  6
DASHED2
 62
    7
 10
617.91340709649171
 20
740.34617169289902
 11
617.91340709649171
 21
739.10217169289899
  0
LINE
  8
_2-0_
  6
CONTINUOUS
 62
    7
 10
633.90042219083148
 20
745.60217169289899
 11
633.37940709649172
 21
745.08017169289917
  0
LINE
  8
_2-0_
  6
CONTINUOUS
 62
    7
 10
633.37940709649172
 20
738.01522206226855
 11
633.89835604249004
 21
737.60217169289899
  0
LINE
  8
_2-0_
  6
CONTINUOUS
 62
    7
 10
633.89835604249004
 20
737.60217169289899
 11
640.51629169032935
 21
737.60217169289899
  0
LINE
  8
_2-0_
  6
CONTINUOUS
 62
    7
 10
633.90042219083148
 20
745.60217169289899
 11
640.51609777462363
 21
745.60217169289899
  0
LINE
  8
_2-0_
  6
CONTINUOUS
 62
    7
 10
640.51629169032935
 20
737.60217169289899
 11
641.25840709649174
 21
736.86005628673672
  0
LINE
  8
_2-0_
  6
DASHED2
 62
    7
 10
640.51609777462363
 20
744.71316979782864
 11
640.51609777462363
 21
745.60217169289899
  0
LINE
  8
_2-0_
  6
DASHED2
 62
    7
 10
640.51609777462363
 20
737.60217169289899
 11
640.51609777462363
 21
738.47717358796922
  0
LINE
  8
_2-0_
  6
DASHED2
 62
    7
 10
640.51609777462363
 20
739.08617887599667
 11
640.51609777462363
 21
744.10416450980142
  0
LINE
  8
_2-0_
  6
CONTINUOUS
 62
    7
 10
603.86529834317594
 20
745.60217169289899
 11
601.25980709649184
 21
744.09789062025447
  0
LINE
  8
_2-0_
  6
CONTINUOUS
 62
    7
 10
609.73480709649175
 20
737.60217169289899
 11
603.86529834317594
 21
737.60217169289899
  0
LINE
  8
_2-0_
  6
CONTINUOUS
 62
    7
 10
603.86529834317594
 20
737.60217169289899
 11
601.25980709649184
 21
739.10645276554328
  0
LINE
  8
_2-0_
  6
CONTINUOUS
 62
    7
 10
640.51609777462363
 20
745.60217169289899
 11
641.25840709649174
 21
746.3444810147671
  0
LINE
  8
_2-0_
  6
DASHED2
 62
    7
 10
641.25840709649174
 20
738.37933496576079
 11
641.2435699254595
 21
738.39362746760742
  0
LINE
  8
_2-0_
  6
DASHED2
 62
    7
 10
641.25840709649174
 20
738.70217169289901
 11
641.25840709649174
 21
744.50217169289897
  0
LINE
  8
_2-0_
  6
CONTINUOUS
 62
    7
 10
641.25840709649174
 20
746.3444810147671
 11
641.25840709649174
 21
744.50217169289897
  0
LINE
  8
_2-0_
  6
CONTINUOUS
 62
    7
 10
641.25840709649174
 20
736.86005628673672
 11
641.25840709649174
 21
738.70217169289901
  0
ARC
  8
_2-0_
  6
DASHED2
 62
    7
 10
624.93904709649223
 20
688.265936692899
 40
50.869247184058253
 50
82.800961857398505
 51
87.384013210098914
  0
LINE
  8
_2-0_
  6
DASHED2
 62
    7
 10
627.2608070964917
 20
738.70217169289901
 11
627.2608070964917
 21
739.08217169289878
  0
LINE
  8
_2-0_
  6
CONTINUOUS
 62
    7
 10
627.26080709649182
 20
738.56417169289898
 11
627.26080709649182
 21
738.70217169289901
  0
ARC
  8
_2-0_
  6
CONTINUOUS
 62
    7
 10
630.31020709649169
 20
751.5752916928991
 40
7.1837714645164583
 50
280.41457125191454
 51
295.29257903351356
  0
ARC
  8
_2-0_
  6
DASHED2
 62
    7
 10
627.24734376315826
 20
764.08971169289896
 40
20.067547773580664
 50
270.05043140269242
 51
282.55694851411545
  0
LINE
  8
_2-0_
  6
DASHED2
 62
    7
 10
627.26500709649167
 20
744.02217169289895
 11
627.26500709649167
 21
744.50217169289897
  0
LINE
  8
_2-0_
  6
CONTINUOUS
 62
    7
 10
627.26500709649167
 20
744.67017169289898
 11
627.26500709649167
 21
744.50217169289897
  0
LINE
  8
_2-0_
  6
DASHED2
 62
    7
 10
601.25980709649184
 20
744.09789062025447
 11
601.25980709649184
 21
742.76491802905753
  0
LINE
  8
_2-0_
  6
DASHED2
 62
    7
 10
601.25980709649184
 20
742.3607728406248
 11
601.25980709649184
 21
740.84357054517318
  0
LINE
  8
_2-0_
  6
DASHED2
 62
    7
 10
601.25980709649184
 20
740.43942535674034
 11
601.25980709649184
 21
739.10645276554328
  0
LINE
  8
_2-0_
  6
DASHED2
 62
    7
 10
633.90042219083148
 20
745.60217169289899
 11
633.90042219083148
 21
742.00217169289897
  0
LINE
  8
_2-0_
  6
DASHED2
 62
    7
 10
633.90042219083148
 20
741.20217169289901
 11
633.90042219083148
 21
737.60217169289899
  0
LINE
  8
_2-0_
  6
DASHED2
 62
    7
 10
633.37940709649172
 20
745.08017169289917
 11
633.37940709649172
 21
742.00217169289897
  0
LINE
  8
_2-0_
  6
DASHED2
 62
    7
 10
633.37940709649172
 20
741.20217169289901
 11
633.37940709649172
 21
738.01522206226855
  0
LINE
  8
_2-0_
  6
DASHED2
 62
    7
 10
624.97040709649173
 20
738.60533446452666
 11
624.97040709649173
 21
739.96017169289894
  0
LINE
  8
_2-0_
  6
DASHED2
 62
    7
 10
624.57360709649174
 20
739.96017169289894
 11
624.57360709649174
 21
737.63417169289914
  0
LINE
  8
_2-0_
  6
DASHED2
 62
    7
 10
619.81240709649182
 20
739.10217169289899
 11
619.81240709649182
 21
739.96017169289894
  0
LINE
  8
_2-0_
  6
DASHED2
 62
    7
 10
623.99480709649174
 20
739.10217169289899
 11
623.99480709649174
 21
739.96017169289894
  0
LINE
  8
_2-0_
  6
DASHED2
 62
    7
 10
623.61300709649174
 20
739.10217169289899
 11
623.61300709649174
 21
739.96017169289894
  0
LINE
  8
_2-0_
  6
DASHED2
 62
    7
 10
620.19560709649181
 20
739.10217169289899
 11
620.19560709649181
 21
739.96017169289894
  0
LINE
  8
_2-0_
  6
DASHED2
 62
    7
 10
621.71280709649182
 20
739.10217169289899
 11
621.71280709649182
 21
739.96017169289894
  0
LINE
  8
_2-0_
  6
DASHED2
 62
    7
 10
622.09580709649174
 20
739.10217169289899
 11
622.09580709649174
 21
739.96017169289894
  0
LINE
  8
_2-0_
  6
DASHED2
 62
    7
 10
624.97040709649173
 20
744.59900892127143
 11
624.97040709649173
 21
743.28817169289903
  0
LINE
  8
_2-0_
  6
DASHED2
 62
    7
 10
624.57360709649174
 20
745.57017169289895
 11
624.57360709649174
 21
743.28817169289903
  0
LINE
  8
_2-0_
  6
DASHED2
 62
    7
 10
617.91340709649171
 20
743.28817169289903
 11
617.91340709649171
 21
744.10217169289911
  0
LINE
  8
_2-0_
  6
DASHED2
 62
    7
 10
620.19560709649181
 20
743.28817169289903
 11
620.19560709649181
 21
744.10217169289911
  0
LINE
  8
_2-0_
  6
DASHED2
 62
    7
 10
619.81240709649182
 20
743.28817169289903
 11
619.81240709649182
 21
744.10217169289911
  0
LINE
  8
_2-0_
  6
DASHED2
 62
    7
 10
623.61300709649174
 20
744.10217169289911
 11
623.61300709649174
 21
743.28817169289903
  0
LINE
  8
_2-0_
  6
DASHED2
 62
    7
 10
621.71280709649182
 20
743.28817169289903
 11
621.71280709649182
 21
744.10217169289911
  0
LINE
  8
_2-0_
  6
DASHED2
 62
    7
 10
622.09580709649174
 20
743.28817169289903
 11
622.09580709649174
 21
744.10217169289911
  0
LINE
  8
_2-0_
  6
DASHED2
 62
    7
 10
623.99480709649174
 20
744.10217169289911
 11
623.99480709649174
 21
743.28817169289903
  0
LINE
  8
_2-0_
  6
DASHED2
 62
    7
 10
618.29520709649182
 20
743.28817169289903
 11
618.29520709649182
 21
744.10217169289911
  0
LINE
  8
_2-0_
  6
DASHED2
 62
    7
 10
616.01320709649178
 20
741.97887119096424
 11
616.01320709649178
 21
744.10217169289911
  0
LINE
  8
_2-0_
  6
DASHED2
 62
    7
 10
616.39480709649183
 20
741.82393918091066
 11
616.39480709649183
 21
744.10217169289911
  0
LINE
  8
_2-0_
  6
DASHED2
 62
    7
 10
616.01320709649178
 20
741.11544874387107
 11
616.01320709649178
 21
739.10217169289899
  0
LINE
  8
_2-0_
  6
DASHED2
 62
    7
 10
616.39480709649183
 20
740.96051673381737
 11
616.39480709649183
 21
739.10217169289899
  0
LINE
  8
_2-0_
  6
DASHED2
 62
    7
 10
614.49600709649178
 20
741.20217169289901
 11
614.49600709649178
 21
739.10217169289899
  0
LINE
  8
_2-0_
  6
DASHED2
 62
    7
 10
614.11280709649179
 20
741.20217169289901
 11
614.11280709649179
 21
739.10217169289899
  0
LINE
  8
_2-0_
  6
DASHED2
 62
    7
 10
610.31360709649186
 20
741.20217169289901
 11
610.31360709649186
 21
739.10217169289899
  0
LINE
  8
_2-0_
  6
DASHED2
 62
    7
 10
612.21380709649179
 20
741.20217169289901
 11
612.21380709649179
 21
739.10217169289899
  0
LINE
  8
_2-0_
  6
DASHED2
 62
    7
 10
610.69660709649179
 20
741.20217169289901
 11
610.69660709649179
 21
739.10217169289899
  0
LINE
  8
_2-0_
  6
DASHED2
 62
    7
 10
612.59560709649179
 20
741.20217169289901
 11
612.59560709649179
 21
739.10217169289899
  0
LINE
  8
_2-0_
  6
DASHED2
 62
    7
 10
614.11280709649179
 20
742.00417169289926
 11
614.11280709649179
 21
744.10217169289911
  0
LINE
  8
_2-0_
  6
DASHED2
 62
    7
 10
610.31360709649186
 20
742.00417169289926
 11
610.31360709649186
 21
744.10217169289911
  0
LINE
  8
_2-0_
  6
DASHED2
 62
    7
 10
610.69660709649179
 20
742.00417169289926
 11
610.69660709649179
 21
744.10217169289911
  0
LINE
  8
_2-0_
  6
DASHED2
 62
    7
 10
612.21380709649179
 20
742.00417169289926
 11
612.21380709649179
 21
744.10217169289911
  0
LINE
  8
_2-0_
  6
DASHED2
 62
    7
 10
612.59560709649179
 20
742.00417169289926
 11
612.59560709649179
 21
744.10217169289911
  0
LINE
  8
_2-0_
  6
DASHED2
 62
    7
 10
609.73480709649175
 20
738.61698328330147
 11
609.73480709649175
 21
739.10217169289899
  0
ARC
  8
_2-0_
  6
DASHED2
 62
    7
 10
609.22360709649183
 20
741.60217169289899
 40
0.4000000000000056
 50
90
 51
269.99999999999682
  0
ARC
  8
_2-0_
  6
DASHED2
 62
    7
 10
617.28100709649175
 20
742.88817169289905
 40
0.3999999999999914
 50
90
 51
269.99999999999795
  0
LINE
  8
_2-0_
  6
DASHED2
 62
    7
 10
629.44281974296553
 20
743.28817169289903
 11
617.28100709649175
 21
743.28817169289903
  0
LINE
  8
_2-0_
  6
DASHED2
 62
    7
 10
631.67023708149918
 20
742.00217169289897
 11
629.44281974296553
 21
743.28817169289903
  0
LINE
  8
_2-0_
  6
DASHED2
 62
    7
 10
629.22846038902071
 20
742.48817169289907
 11
617.28100709649175
 21
742.48817169289907
  0
LINE
  8
_2-0_
  6
DASHED2
 62
    7
 10
631.45587772755425
 20
741.20217169289901
 11
629.22846038902071
 21
742.48817169289907
  0
LINE
  8
_2-0_
  6
DASHED2
 62
    7
 10
636.48140709649181
 20
742.00217169289897
 11
631.67023708149918
 21
742.00217169289897
  0
LINE
  8
_2-0_
  6
DASHED2
 62
    7
 10
636.48140709649181
 20
741.20217169289901
 11
631.45587772755425
 21
741.20217169289901
  0
ARC
  8
_2-0_
  6
DASHED2
 62
    7
 10
636.48140709649181
 20
741.60217169289899
 40
0.4000000000000056
 50
270
 51
90
  0
LINE
  8
_2-0_
  6
DASHED2
 62
    7
 10
619.01488330466293
 20
740.76017169289901
 11
631.00420709649177
 21
740.76017169289901
  0
ARC
  8
_2-0_
  6
DASHED2
 62
    7
 10
631.00420709649177
 20
740.36017169289892
 40
0.3999999999999914
 50
269.99999999999693
 51
90.00000000000307
  0
LINE
  8
_2-0_
  6
DASHED2
 62
    7
 10
615.95581759037725
 20
742.00217169289897
 11
609.22360709649183
 21
742.00217169289897
  0
LINE
  8
_2-0_
  6
DASHED2
 62
    7
 10
615.95581759037725
 20
742.00217169289897
 11
619.01488330466293
 21
740.76017169289901
  0
LINE
  8
_2-0_
  6
DASHED2
 62
    7
 10
615.79960709648105
 20
741.20217169289901
 11
609.22360709649183
 21
741.20217169289901
  0
LINE
  8
_2-0_
  6
DASHED2
 62
    7
 10
615.79960709648105
 20
741.20217169289901
 11
618.85867281076673
 21
739.96017169289894
  0
LINE
  8
_2-0_
  6
DASHED2
 62
    7
 10
631.00420709649165
 20
739.96017169289894
 11
618.85867281076673
 21
739.96017169289894
  0
LINE
  8
_2-0_
  6
DASHED2
 62
    7
 10
607.85520709649177
 20
744.20217169289901
 11
607.85520709649177
 21
743.85217169289888
  0
LINE
  8
_2-0_
  6
DASHED2
 62
    7
 10
607.85520709649177
 20
739.35217169289899
 11
607.85520709649177
 21
739.00217169289908
  0
LINE
  8
_2-0_
  6
DASHED2
 62
    7
 10
603.8429856829805
 20
743.85217169289888
 11
607.85520709649177
 21
743.85217169289888
  0
LINE
  8
_2-0_
  6
DASHED2
 62
    7
 10
603.8429856829805
 20
739.35217169289899
 11
607.85520709649177
 21
739.35217169289899
  0
LINE
  8
_2-0_
  6
DASHED2
 62
    7
 10
603.74920346562953
 20
744.20217169289901
 11
607.85520709649177
 21
744.20217169289901
  0
LINE
  8
_2-0_
  6
DASHED2
 62
    7
 10
603.74920346562953
 20
739.00217169289908
 11
607.85520709649177
 21
739.00217169289908
  0
LINE
  8
_2-0_
  6
DASHED2
 62
    7
 10
603.74920346562953
 20
744.20217169289901
 11
601.25980709649184
 21
742.76491802905753
  0
LINE
  8
_2-0_
  6
DASHED2
 62
    7
 10
603.8429856829805
 20
743.85217169289888
 11
601.25980709649184
 21
742.3607728406248
  0
LINE
  8
_2-0_
  6
DASHED2
 62
    7
 10
603.8429856829805
 20
739.35217169289899
 11
601.25980709649184
 21
740.84357054517318
  0
LINE
  8
_2-0_
  6
DASHED2
 62
    7
 10
603.74920346562953
 20
739.00217169289908
 11
601.25980709649184
 21
740.43942535674034
  0
LINE
  8
_2-0_
  6
DASHED2
 62
    7
 10
640.51609777462363
 20
744.10416450980142
 11
641.25653176130277
 21
744.84459849648033
  0
LINE
  8
_2-0_
  6
DASHED2
 62
    7
 10
640.51609777462363
 20
744.10416450980142
 11
635.88040709649181
 21
744.10416450980142
  0
LINE
  8
_2-0_
  6
DASHED2
 62
    7
 10
635.88040709649181
 20
744.10416450980142
 11
641.25653176130277
 21
744.84459849648033
  0
LINE
  8
_2-0_
  6
DASHED2
 62
    7
 10
640.51609777462363
 20
739.10017887599668
 11
641.25653176130277
 21
738.35974488931754
  0
LINE
  8
_2-0_
  6
DASHED2
 62
    7
 10
640.51609777462363
 20
739.10017887599668
 11
635.88040709649181
 21
739.10017887599668
  0
LINE
  8
_2-0_
  6
DASHED2
 62
    7
 10
635.88040709649181
 20
739.10017887599668
 11
641.25653176130277
 21
738.35974488931754
  0
LINE
  8
_2-0_
  6
CONTINUOUS
 62
    7
 10
953.01988492107193
 20
514.65701367797487
 11
1183.7787426558998
 21
514.65701367797487
  0
LINE
  8
_2-0_
  6
CONTINUOUS
 62
    7
 10
949.2093731444204
 20
516.85701367797492
 11
953.01988492107193
 21
514.65701367797487
  0
LINE
  8
_2-0_
  6
CONTINUOUS
 62
    7
 10
948.80744935577377
 20
515.35701367797492
 11
952.61796113242531
 21
513.15701367797487
  0
LINE
  8
_2-0_
  6
CONTINUOUS
 62
    7
 10
952.61796113242531
 20
513.15701367797487
 11
1183.7787426558998
 21
513.15701367797487
  0
LINE
  8
_2-0_
  6
CONTINUOUS
 62
    7
 10
837.70939855284314
 20
516.85701367797492
 11
949.2093731444204
 21
516.85701367797492
  0
LINE
  8
_2-0_
  6
CONTINUOUS
 62
    7
 10
832.51324613013651
 20
519.85701367797492
 11
837.70939855284314
 21
516.85701367797492
  0
LINE
  8
_2-0_
  6
CONTINUOUS
 62
    7
 10
832.11132234148977
 20
518.35701367797492
 11
837.30747476419651
 21
515.35701367797492
  0
LINE
  8
_2-0_
  6
CONTINUOUS
 62
    7
 10
837.30747476419651
 20
515.35701367797492
 11
948.80744935577377
 21
515.35701367797492
  0
LINE
  8
_2-0_
  6
CONTINUOUS
 62
    7
 10
783.14095298554025
 20
518.35701367797492
 11
832.11132234148977
 21
518.35701367797492
  0
LINE
  8
_2-0_
  6
CONTINUOUS
 62
    7
 10
783.14095298554025
 20
519.85701367797492
 11
783.14095298554025
 21
518.35701367797492
  0
LINE
  8
_2-0_
  6
CONTINUOUS
 62
    7
 10
783.14095298554025
 20
519.85701367797492
 11
832.51324613013651
 21
519.85701367797492
  0
LINE
  8
_2-0_
  6
CONTINUOUS
 62
    7
 10
658.95840709649178
 20
749.20597404636146
 11
655.95840709649167
 21
754.40212646906787
  0
LINE
  8
_2-0_
  6
CONTINUOUS
 62
    7
 10
655.95840709649167
 20
797.00590918270689
 11
655.95840709649167
 21
754.40212646906787
  0
LINE
  8
_2-0_
  6
CONTINUOUS
 62
    7
 10
657.45840709649178
 20
748.80405025771461
 11
654.45840709649178
 21
754.00020268042124
  0
LINE
  8
_2-0_
  6
CONTINUOUS
 62
    7
 10
654.45840709649178
 20
796.60398539406037
 11
654.45840709649178
 21
754.00020268042124
  0
LINE
  8
_2-0_
  6
CONTINUOUS
 62
    7
 10
657.45840709649178
 20
748.80405025771461
 11
657.45840709649178
 21
661.93539369441419
  0
LINE
  8
_2-0_
  6
CONTINUOUS
 62
    7
 10
657.45840709649178
 20
661.93539369441419
 11
658.95840709649178
 21
661.93539369441419
  0
LINE
  8
_2-0_
  6
CONTINUOUS
 62
    7
 10
658.95840709649178
 20
749.20597404636146
 11
658.95840709649178
 21
661.93539369441419
  0
LINE
  8
_2-0_
  6
CONTINUOUS
 62
    7
 10
829.86764202517281
 20
430.66828965304296
 11
839.86764202517281
 21
430.66828965304296
  0
LINE
  8
_2-0_
  6
CONTINUOUS
 62
    7
 10
786.9736298775058
 20
504.96289803327886
 11
829.86764202517281
 21
430.66828965304296
  0
LINE
  8
_2-0_
  6
CONTINUOUS
 62
    7
 10
1084.8425411435039
 20
547.73301147770019
 11
1094.8425411435039
 21
547.73301147770019
  0
LINE
  8
_2-0_
  6
CONTINUOUS
 62
    7
 10
1064.0462360419647
 20
511.71275443213051
 11
1084.8425411435039
 21
547.73301147770019
  0
LINE
  8
_2-0_
  6
CONTINUOUS
 62
    7
 10
739.63550065613742
 20
692.50232512974651
 11
749.63550065613742
 21
692.50232512974651
  0
LINE
  8
_2-0_
  6
CONTINUOUS
 62
    7
 10
667.18588951145193
 20
567.01591763854265
 11
739.63550065613742
 21
692.50232512974651
  0
LINE
  8
_2-0_
  6
CONTINUOUS
 62
    7
 10
682.26012521841938
 20
782.86464087067429
 11
692.26012521841938
 21
782.86464087067429
  0
LINE
  8
_2-0_
  6
CONTINUOUS
 62
    7
 10
652.94836206610387
 20
732.09517783143849
 11
682.26012521841938
 21
782.86464087067429
  0
LINE
  8
_2-0_
  6
CONTINUOUS
 62
    7
 10
691.41469356674418
 20
887.28111602366141
 11
701.41469356674418
 21
887.28111602366141
  0
LINE
  8
_2-0_
  6
CONTINUOUS
 62
    7
 10
653.00366288227224
 20
820.75125930706895
 11
691.41469356674418
 21
887.28111602366141
  0
LINE
  8
_2-0_
  6
CONTINUOUS
 62
    7
 10
482.87029696799863
 20
489.44944495359766
 11
559.17840230480965
 21
357.27992948092293
  0
LINE
  8
_2-0_
  6
CONTINUOUS
 62
    7
 10
651.25840709649174
 20
945.18170228084966
 11
651.25840709649174
 21
745.10237169289894
  0
LINE
  8
_2-0_
  6
CONTINUOUS
 62
    7
 10
651.25840709649174
 20
738.10197169289893
 11
651.25840709649174
 21
605.64486283808174
  0
LINE
  8
_2-0_
  6
CONTINUOUS
 62
    7
 10
737.35011925280924
 20
510.15701367797487
 11
884.87706724374334
 21
510.15701367797487
  0
LINE
  8
_2-0_
  6
CONTINUOUS
 62
    7
 10
890.67706724374318
 20
510.15701367797487
 11
1183.7787426558998
 21
510.15701367797487
  0
LINE
  8
_2-0_
  6
DASHED3
 62
    7
 10
737.35011925280924
 20
512.15701367797487
 11
884.27686724374325
 21
512.15701367797487
  0
LINE
  8
_2-0_
  6
DASHED3
 62
    7
 10
891.27726724374327
 20
512.15701367797487
 11
1183.7787426558998
 21
512.15701367797487
  0
LINE
  8
_2-0_
  6
DASHED3
 62
    7
 10
737.35011925280924
 20
511.15701367797493
 11
884.87706724374334
 21
511.15701367797493
  0
LINE
  8
_2-0_
  6
DASHED3
 62
    7
 10
890.67706724374318
 20
511.15701367797493
 11
1183.7787426558998
 21
511.15701367797493
  0
LINE
  8
_2-0_
  6
CONTINUOUS
 62
    7
 10
652.25840709649174
 20
796.60398539406037
 11
652.25840709649174
 21
746.10237169289894
  0
LINE
  8
_2-0_
  6
CONTINUOUS
 62
    7
 10
652.25840709649174
 20
737.10197169289904
 11
652.25840709649174
 21
596.60398539406026
  0
LINE
  8
_2-0_
  6
CONTINUOUS
 62
    7
 10
653.45840709649167
 20
796.60398539406037
 11
653.45840709649167
 21
747.30237169289899
  0
LINE
  8
_2-0_
  6
CONTINUOUS
 62
    7
 10
653.45840709649167
 20
735.901971692899
 11
653.45840709649167
 21
596.60398539406026
  0
LINE
  8
_2-0_
  6
CONTINUOUS
 62
    7
 10
698.80744935577377
 20
513.15701367797487
 11
883.27686724374325
 21
513.15701367797487
  0
LINE
  8
_2-0_
  6
CONTINUOUS
 62
    7
 10
892.27726724374315
 20
513.15701367797487
 11
948.80744935577377
 21
513.15701367797487
  0
LINE
  8
_2-0_
  6
CONTINUOUS
 62
    7
 10
698.80744935577377
 20
514.35701367797492
 11
882.07686724374321
 21
514.35701367797492
  0
LINE
  8
_2-0_
  6
CONTINUOUS
 62
    7
 10
893.4772672437432
 20
514.35701367797492
 11
948.80744935577377
 21
514.35701367797492
  0
CIRCLE
  8
_2-0_
  6
CONTINUOUS
 62
    7
 10
653.00366288227224
 20
820.75125930706895
 40
2
  0
CIRCLE
  8
_2-0_
  6
CONTINUOUS
 62
    7
 10
652.94836206610387
 20
732.09517783143849
 40
2
  0
CIRCLE
  8
_2-0_
  6
CONTINUOUS
 62
    7
 10
655.64636066139553
 20
641.07286040871668
 40
2
  0
CIRCLE
  8
_2-0_
  6
CONTINUOUS
 62
    7
 10
667.18588951145193
 20
567.01591763854265
 40
2
  0
CIRCLE
  8
_2-0_
  6
CONTINUOUS
 62
    7
 10
786.9736298775058
 20
504.96289803327886
 40
2
  0
CIRCLE
  8
_2-0_
  6
CONTINUOUS
 62
    7
 10
873.02643547061416
 20
513.8209293607531
 40
2
  0
CIRCLE
  8
_2-0_
  6
CONTINUOUS
 62
    7
 10
987.39359164847031
 20
514.00311590870911
 40
2
  0
CIRCLE
  8
_2-0_
  6
CONTINUOUS
 62
    7
 10
1064.0462360419647
 20
511.71275443213051
 40
2
  0
CIRCLE
  8
_2-0_
  6
CONTINUOUS
 62
    7
 10
482.87029696799863
 20
489.44944495359766
 40
2
  0
ARC
  8
_2-0_
  6
CONTINUOUS
 62
    7
 10
657.45840709649178
 20
661.93539369441419
 40
2.5337643653923725
 50
312.15442921919413
 51
52.903395529832892
  0
LINE
  8
_2-0_
  6
CONTINUOUS
 62
    7
 10
659.15889534068867
 20
660.05701631202271
 11
656.41578011616639
 21
657.31390108750043
  0
ARC
  8
_2-0_
  6
CONTINUOUS
 62
    7
 10
783.14095298554025
 20
518.35701367797492
 40
2.9128092151110381
 50
26.984250258751739
 51
130.78290429249344
  0
LINE
  8
_2-0_
  6
CONTINUOUS
 62
    7
 10
781.23832142821584
 20
520.56256365036484
 11
777.91043326896499
 21
517.23467549111388
  0
LINE
  8
_0-0_
  6
CONTINUOUS
 62
    7
 10
976.54263905422215
 20
500.15701367797487
 11
762.76779170103146
 21
286.38216632478407
  0
LINE
  8
_0-0_
  6
CONTINUOUS
 62
    7
 10
990.68477467795333
 20
500.15701367797499
 11
776.90992732476218
 21
286.38216632478407
  0
LINE
  8
_0-0_
  6
CONTINUOUS
 62
    7
 10
1004.8269103016842
 20
500.15701367797487
 11
791.05206294849324
 21
286.38216632478407
  0
LINE
  8
_0-0_
  6
CONTINUOUS
 62
    7
 10
737.35011925280924
 20
500.15701367797487
 11
884.87706724374334
 21
500.15701367797487
  0
LINE
  8
_0-0_
  6
CONTINUOUS
 62
    7
 10
890.67706724374318
 20
500.15701367797487
 11
1183.7787426558998
 21
500.15701367797487
  0
LINE
  8
_0-0_
  6
CONTINUOUS
 62
    7
 10
391.27199527012181
 20
286.38216632478407
 11
591.67205617100763
 21
486.78222722566994
  0
LINE
  8
_0-0_
  6
CONTINUOUS
 62
    7
 10
405.41413089385276
 20
286.38216632478407
 11
606.85838167999452
 21
487.82641711092589
  0
LINE
  8
_0-0_
  6
CONTINUOUS
 62
    7
 10
377.12985964639097
 20
286.38216632478407
 11
577.23588265510239
 21
486.48818933349565
  0
LINE
  8
_0-0_
  6
CONTINUOUS
 62
    7
 10
591.94464639059538
 20
486.78777937932796
 11
372.34557699184535
 21
482.31495647938885
  0
LINE
  8
_0-0_
  6
CONTINUOUS
 62
    7
 10
641.25840709649174
 20
738.70217169289901
 11
641.25840709649174
 21
605.64486283808174
  0
LINE
  8
_0-0_
  6
CONTINUOUS
 62
    7
 10
641.25840709649174
 20
802.00469302838383
 11
437.21342840798332
 21
597.95971433987529
  0
LINE
  8
_0-0_
  6
CONTINUOUS
 62
    7
 10
641.25840709649174
 20
830.28896427584584
 11
408.34101889163691
 21
597.37157607099095
  0
LINE
  8
_0-0_
  6
CONTINUOUS
 62
    7
 10
641.25840709649174
 20
816.14682865211478
 11
422.77722364981014
 21
597.66564520543318
  0
LINE
  8
_0-0_
  6
CONTINUOUS
 62
    7
 10
641.25840709649174
 20
945.18170228084966
 11
641.25840709649174
 21
744.50217169289897
  0
TEXT
  8
_e-0_
 62
    7
 10
705.46560085178908
 20
877.80942096593651
 40
20.000000000000107
 41
0.9999999999999935
 50
0
  1
リベットルーフ
  0
TEXT
  8
_e-0_
 62
    7
 10
696.24557756890204
 20
772.54748848630902
 40
20.000000000000107
 41
0.9999999999999935
 50
0
  1
ＦＬ鋼板加工品
  0
TEXT
  8
_e-0_
 62
    7
 10
757.66896420986768
 20
683.29319858225767
 40
20.000000000000107
 41
0.9999999999999962
 50
0
  1
ストレーナー
  0
TEXT
  8
_e-0_
 62
    7
 10
754.21145547878518
 20
664.85315201648359
 40
20.000000000000107
 41
0.9999999999999962
 50
0
  1
(アルミダイキャスト製)
  0
TEXT
  8
_e-0_
 62
    7
 10
721.41971658704449
 20
714.48998580718489
 40
20.000000000000107
 41
0.9999999999999935
 50
0
  1
ＡＹドレンヨコ型
  0
LINE
  8
_2-0_
  6
CONTINUOUS
 62
    7
 10
655.64636066139553
 20
641.07286040871668
 11
704.29978232133624
 21
725.34305868580554
  0
LINE
  8
_2-0_
  6
CONTINUOUS
 62
    7
 10
704.29978232133624
 20
725.34305868580554
 11
715.73965740989843
 21
725.34305868580554
  0
LINE
  8
_2-0_
  6
CONTINUOUS
 62
    7
 10
711.79266145033819
 20
753.04030959612658
 11
721.79266145033819
 21
753.04030959612658
  0
LINE
  8
_2-0_
  6
CONTINUOUS
 62
    7
 10
657.88734359409568
 20
659.6735602709648
 11
711.79266145033819
 21
753.04030959612658
  0
TEXT
  8
_e-0_
 62
    7
 10
725.77811380082096
 20
742.7231572117613
 40
20.000000000000107
 41
0.9999999999999935
 50
0
  1
ＦＬシール
  0
TEXT
  8
_e-0_
 62
    7
 10
854.29874431597
 20
619.83219873291
 40
20.000000000000107
 41
0.9999999999999935
 50
0
  1
ＦＬシール
  0
LINE
  8
_2-0_
  6
CONTINUOUS
 62
    7
 10
846.17299478465839
 20
630.14935111727527
 11
856.17299478465839
 21
630.14935111727527
  0
LINE
  8
_2-0_
  6
CONTINUOUS
 62
    7
 10
782.57369944551681
 20
519.99214026430377
 11
846.17299478465839
 21
630.14935111727527
  0
TEXT
  8
_e-0_
 62
    7
 10
939.14893202929989
 20
594.04707887996233
 40
20.000000000000107
 41
0.9999999999999935
 50
0
  1
ＦＬ鋼板加工品
  0
LINE
  8
_2-0_
  6
CONTINUOUS
 62
    7
 10
873.02643547061416
 20
513.8209293607531
 11
925.30163519796065
 21
604.3642312643276
  0
LINE
  8
_2-0_
  6
CONTINUOUS
 62
    7
 10
925.30163519796065
 20
604.3642312643276
 11
935.16347967881734
 21
604.3642312643276
  0
TEXT
  8
_e-0_
 62
    7
 10
1035.5311959162923
 20
563.18783204958652
 40
20.000000000000107
 41
0.9999999999999935
 50
0
  1
リベットルーフ
  0
LINE
  8
_2-0_
  6
CONTINUOUS
 62
    7
 10
1021.2588864436805
 20
572.65952710731142
 11
1031.4802886312475
 21
572.65952710731142
  0
LINE
  8
_2-0_
  6
CONTINUOUS
 62
    7
 10
987.39359164847031
 20
514.00311590870911
 11
1021.2588864436805
 21
572.65952710731142
  0
TEXT
  8
_e-0_
 62
    7
 10
1097.5074884903008
 20
537.06221275656299
 40
20.000000000000107
 41
0.9999999999999935
 50
0
  1
絶縁シート
  0
TEXT
  8
_e-0_
 62
    7
 10
841.97198208750694
 20
419.89108353653967
 40
20.000000000000107
 41
0.9999999999999935
 50
0
  1
旧防水層
  0
TEXT
  8
_e-0_
 62
    7
 10
571.51796578948597
 20
346.89923254701694
 40
20.000000000000107
 41
0.9999999999999935
 50
0
  1
フレキシブルホース
  0
ENDSEC
  0
EOF
