  0
SECTION
  2
HEADER
  9
$ACADVER
  1
AC1009
  9
$INSBASE
 10
0
 20
0
 30
0
  9
$EXTMIN
 10
0
 20
0
  9
$EXTMAX
 10
1485
 20
1050
  9
$LIMMIN
 10
0
 20
0
  9
$LIMMAX
 10
1485
 20
1050
  9
$LTSCALE
 40
5
  0
ENDSEC
  0
SECTION
  2
TABLES
  0
TABLE
  2
LTYPE
 70
     9
  0
LTYPE
  2
CONTINUOUS
 70
    64
  3
実線
 72
    65
 73
     0
 40
0.0
  0
LTYPE
  2
DASHED1
 70
    64
  3
--  --  --  --  --  --  --  --  
 72
    65
 73
     2
 40
2.5
 49
1.25
 49
-1.25
  0
LTYPE
  2
DASHED2
 70
    64
  3
----    ----    ----    ----    
 72
    65
 73
     2
 40
5.0
 49
2.5
 49
-2.5
  0
LTYPE
  2
DASHED3
 70
    64
  3
------  ------  ------  ------  
 72
    65
 73
     2
 40
5.0
 49
3.75
 49
-1.25
  0
LTYPE
  2
CENTER1
 70
    64
  3
----- - ----- - ----- - ----- - 
 72
    65
 73
     4
 40
10.0
 49
6.25
 49
-1.25
 49
1.25
 49
-1.25
  0
LTYPE
  2
CENTER2
 70
    64
  3
----------  --  ----------  --  
 72
    65
 73
     4
 40
20.0
 49
12.5
 49
-2.5
 49
2.5
 49
-2.5
  0
LTYPE
  2
PHANTOM1
 70
    64
  3
--- - - --- - - --- - - --- - - 
 72
    65
 73
     6
 40
10.0
 49
3.25
 49
-1.25
 49
1.25
 49
-1.25
 49
1.25
 49
-1.25
  0
LTYPE
  2
PHANTOM2
 70
    64
  3
--------  -  -  --------  -  -  
 72
    65
 73
     6
 40
20.0
 49
10.0
 49
-2.5
 49
1.25
 49
-2.5
 49
1.25
 49
-2.5
  0
LTYPE
  2
DOT
 70
    64
  3
-   -   -   -   -   -   -   -   
 72
    65
 73
     2
 40
2.5
 49
0.625
 49
-1.875
  0
LTYPE
  2
DUMMY
 70
    64
  3
ダミー
 72
    65
 73
     0
 40
0.0
  0
LTYPE
  2
RAND1
 70
    64
  3
ランダム線1
 72
    65
 73
     4
 40
10.0
 49
1.0
 49
-2.0
 49
3.0
 49
-4.0
  0
LTYPE
  2
RAND2
 70
    64
  3
ランダム線2
 72
    65
 73
     4
 40
14.0
 49
2.0
 49
-3.0
 49
4.0
 49
-5.0
  0
LTYPE
  2
RAND3
 70
    64
  3
ランダム線3
 72
    65
 73
     4
 40
18.0
 49
3.0
 49
-4.0
 49
5.0
 49
-6.0
  0
LTYPE
  2
RAND4
 70
    64
  3
ランダム線4
 72
    65
 73
     4
 40
22.0
 49
4.0
 49
-5.0
 49
6.0
 49
-7.0
  0
LTYPE
  2
RAND5
 70
    64
  3
ランダム線5
 72
    65
 73
     4
 40
26.0
 49
5.0
 49
-6.0
 49
7.0
 49
-8.0
  0
LTYPE
  2
LONG1
 70
    64
  3
----------  --  ----------  --  
 72
    65
 73
     4
 40
40.0
 49
32.5
 49
-2.5
 49
2.5
 49
-2.5
  0
LTYPE
  2
LONG2
 70
    64
  3
--------  -  -  --------  -  -  
 72
    65
 73
     6
 40
40.0
 49
30.0
 49
-2.5
 49
1.25
 49
-2.5
 49
1.25
 49
-2.5
  0
LTYPE
  2
LONG3
 70
    64
  3
+++++++++++++++..+++++++++++++++
 72
    65
 73
     2
 40
40.0
 49
37.5
 49
-2.5
  0
LTYPE
  2
LONG4
 70
    64
  3
+++++++++++++++..+++++++++++++++
 72
    65
 73
     2
 40
80.0
 49
75.0
 49
-5.0
  0
LTYPE
  2
LONG5
 70
    64
  3
----------  --  ----------  --  
 72
    65
 73
     4
 40
60.0
 49
37.5
 49
-7.5
 49
7.5
 49
-7.5
  0
LTYPE
  2
dashed
 70
   64
  3
-------   -------------   ------
 72
   65
 73
    2
 40
7.5
 49
6
 49
-1.5
  0
LTYPE
  2
dashed_spaced
 70
   64
  3
----        --------        ----
 72
   65
 73
    2
 40
12
 49
6
 49
-6
  0
LTYPE
  2
long_dashed_dotted
 70
   64
  3
------------- --- --------------
 72
   65
 73
    4
 40
15.25
 49
12
 49
-1.5
 49
0.25
 49
-1.5
  0
LTYPE
  2
long_dashed_double-dotted
 70
   64
  3
----------- --- --- ------------
 72
   65
 73
    6
 40
17
 49
12
 49
-1.5
 49
0.25
 49
-1.5
 49
0.25
 49
-1.5
  0
LTYPE
  2
long_dashed_triplicate-dotted
 70
   64
  3
--------- --- --- --- ----------
 72
   65
 73
    8
 40
18.75
 49
12
 49
-1.5
 49
0.25
 49
-1.5
 49
0.25
 49
-1.5
 49
0.25
 49
-1.5
  0
LTYPE
  2
dotted
 70
   64
  3
   -       -       -       -    
 72
   65
 73
    2
 40
1.75
 49
0.25
 49
-1.5
  0
LTYPE
  2
chain
 70
   64
  3
-------------- -- --------------
 72
   65
 73
    4
 40
18.5
 49
12
 49
-1.5
 49
3.5
 49
-1.5
  0
LTYPE
  2
chain_double_dash
 70
   64
  3
------------ -- -- -------------
 72
   65
 73
    6
 40
23.5
 49
12
 49
-1.5
 49
3.5
 49
-1.5
 49
3.5
 49
-1.5
  0
LTYPE
  2
dashed_dotted
 70
   64
  3
-----------     -     ----------
 72
   65
 73
    4
 40
9.25
 49
6
 49
-1.5
 49
0.25
 49
-1.5
  0
LTYPE
  2
double-dashed_dotted
 70
   64
  3
------   -----------   -   -----
 72
   65
 73
    6
 40
16.75
 49
6
 49
-1.5
 49
6
 49
-1.5
 49
0.25
 49
-1.5
  0
LTYPE
  2
dashed_double-dotted
 70
   64
  3
---------    -    -    ---------
 72
   65
 73
    6
 40
11
 49
6
 49
-1.5
 49
0.25
 49
-1.5
 49
0.25
 49
-1.5
  0
LTYPE
  2
double-dashed_double-dotted
 70
   64
  3
-----   ---------   -   -   ----
 72
   65
 73
    8
 40
18.5
 49
6
 49
-1.5
 49
6
 49
-1.5
 49
0.25
 49
-1.5
 49
0.25
 49
-1.5
  0
LTYPE
  2
dashed_triplicate-dotted
 70
   64
  3
-------    -    -    -    ------
 72
   65
 73
    8
 40
12.75
 49
6
 49
-1.5
 49
0.25
 49
-1.5
 49
0.25
 49
-1.5
 49
0.25
 49
-1.5
  0
LTYPE
  2
double-dashed_triplicate-dotted
 70
   64
  3
-----  ---------  -  -  -  -----
 72
   65
 73
   10
 40
20.25
 49
6
 49
-1.5
 49
6
 49
-1.5
 49
0.25
 49
-1.5
 49
0.25
 49
-1.5
 49
0.25
 49
-1.5
  0
LTYPE
  2
undefined
 70
   64
  3
--------------------------------
 72
   65
 73
    0
 40
0
  0
ENDTAB
  0
TABLE
  2
STYLE
  5
3
100
AcDbSymbolTable
 70
     1
  0
STYLE
  5
10
100
AcDbSymbolTableRecord
100
AcDbTextStyleTableRecord
  2
STANDARD
 70
     0
 40
0.0
 41
1.0
 50
0.0
 71
     0
 42
0.2
  3
txt
  4
bigfont.shx
  0
STYLE
  5
26
100
AcDbSymbolTableRecord
100
AcDbTextStyleTableRecord
  2
TATEGAKI
 70
    68
 40
0.0
 41
1.0
 50
0.0
 71
     0
 42
1.0
  3
txt
  4
bigfont.shx
  0
ENDTAB
  0
TABLE
  2
LAYER
 70
    4
  0
LAYER
  2
_0-0_
 70
   64
 62
    7
  6
CONTINUOUS
  0
LAYER
  2
_2-0_
 70
   64
 62
    7
  6
CONTINUOUS
  0
LAYER
  2
_e-0_
 70
   64
 62
    7
  6
CONTINUOUS
  0
LAYER
  2
ADD_LINE
 70
   64
 62
    7
  6
CONTINUOUS
  0
ENDTAB
  0
ENDSEC
  0
SECTION
  2
BLOCKS
  0
ENDSEC
  0
SECTION
  2
ENTITIES
  0
LINE
  8
_e-0_
  6
CONTINUOUS
 62
    7
 10
1447.3064931608114
 20
221.03177475142792
 11
1447.3064931608114
 21
41.031774751427932
  0
TEXT
  8
_e-0_
 62
    7
 10
1067.3064931608114
 20
166.03177475142792
 40
20.000000000000018
 41
0.9999999999999986
 50
0
  1
ﾘﾍﾞｯﾄﾙｰﾌ ﾅｲﾝ
  0
TEXT
  8
_e-0_
 62
    7
 10
1067.3064931608114
 20
136.03177475142792
 40
20.000000000000018
 41
0.9999999999999986
 50
0
  1
ﾘﾍﾞｯﾄﾙｰﾌ SGM
  0
TEXT
  8
_e-0_
 62
    7
 10
1067.3064931608114
 20
106.03177475142793
 40
20
 41
1.0000000000000002
 50
0
  1
ﾘﾍﾞｯﾄﾙｰﾌ COOL
  0
TEXT
  8
_e-0_
 62
    7
 10
1067.3064931608114
 20
76.031774751427932
 40
19.999999999999996
 41
1.0000000000000002
 50
0
  1
ﾘﾍﾞｯﾄﾙｰﾌ SW
  0
TEXT
  8
_e-0_
 62
    7
 10
1067.3064931608114
 20
46.031774751427932
 40
19.999999999999972
 41
1.0000000000000013
 50
0
  1
ﾘﾍﾞｯﾄﾙｰﾌ HP
  0
LINE
  8
_e-0_
  6
CONTINUOUS
 62
    7
 10
1047.3064931608114
 20
221.03177475142792
 11
1047.3064931608114
 21
41.031774751427932
  0
TEXT
  8
_e-0_
 62
    7
 10
1067.3064931608114
 20
196.03177475142792
 40
20.000000000000018
 41
0.9999999999999993
 50
0
  1
シート名称
  0
LINE
  8
_e-0_
  6
CONTINUOUS
 62
    7
 10
1217.9103688764553
 20
221.03177475142792
 11
1217.9103688764553
 21
41.031774751427932
  0
LINE
  8
_e-0_
  6
CONTINUOUS
 62
    9
 10
1277.9103688764553
 20
221.03177475142792
 11
1277.9103688764553
 21
41.031774751427932
  0
TEXT
  8
_e-0_
 62
    7
 10
1237.9103688764553
 20
166.03177475142792
 40
20.000000000000018
 41
0.9999999999999988
 50
0
  1
○
  0
TEXT
  8
_e-0_
 62
    7
 10
1237.9103688764553
 20
136.03177475142792
 40
20.000000000000018
 41
0.9999999999999988
 50
0
  1
○
  0
TEXT
  8
_e-0_
 62
    7
 10
1237.9103688764553
 20
106.03177475142793
 40
20
 41
0.9999999999999997
 50
0
  1
○
  0
TEXT
  8
_e-0_
 62
    7
 10
1237.9103688764553
 20
76.031774751427932
 40
19.999999999999996
 41
1
 50
0
  1
○
  0
TEXT
  8
_e-0_
 62
    7
 10
1237.9103688764553
 20
46.031774751427932
 40
19.999999999999972
 41
1.0000000000000011
 50
0
  1
○
  0
LINE
  8
_e-0_
  6
CONTINUOUS
 62
    7
 10
1277.9103688764553
 20
41.031774751427932
 11
1277.9103688764553
 21
221.03177475142792
  0
TEXT
  8
_e-0_
 62
    7
 10
1227.9103688764553
 20
196.03177475142792
 40
20.000000000000018
 41
0.9999999999999993
 50
0
  1
対応
  0
TEXT
  8
_e-0_
 62
    7
 10
1299.0364316016417
 20
195.09455457098449
 40
20.000000000000018
 41
0.9999999999999991
 50
0
  1
シート厚み
  0
TEXT
  8
_e-0_
 62
    7
 10
1288.6817929669633
 20
166.03177475142792
 40
20.000000000000018
 41
0.9999999999999995
 50
0
  1
1.5㎜、2.0㎜
  0
TEXT
  8
_e-0_
 62
    7
 10
1288.6817929669633
 20
136.03177475142792
 40
20.000000000000018
 41
0.9999999999999995
 50
0
  1
1.5㎜、2.0㎜
  0
TEXT
  8
_e-0_
 62
    7
 10
1288.6817929669633
 20
106.03177475142793
 40
20
 41
1.0000000000000004
 50
0
  1
1.5㎜、2.0㎜
  0
TEXT
  8
_e-0_
 62
    7
 10
1288.6817929669633
 20
76.031774751427932
 40
19.999999999999996
 41
1.0000000000000007
 50
0
  1
1.5㎜、2.0㎜
  0
TEXT
  8
_e-0_
 62
    7
 10
1323.6817929669633
 20
46.031774751427932
 40
19.999999999999972
 41
1.0000000000000009
 50
0
  1
2.0㎜
  0
TEXT
  8
_e-0_
 62
    7
 10
1408.884319905128
 20
116.4160859797515
 40
10
 41
1.0000000000000053
 50
0
  1
※
  0
TEXT
  8
_e-0_
 62
    7
 10
1409.1300889474883
 20
86.776339471109551
 40
9.9999999999999858
 41
1.0000000000000067
 50
0
  1
※
  0
TEXT
  8
_e-0_
 62
    7
 10
1351.5111447489369
 20
26.235232036376459
 40
9.9999999999999645
 41
1.0000000000000044
 50
0
  1
※印は受注生産品
  0
LINE
  8
_e-0_
  6
CONTINUOUS
 62
    7
 10
1047.3064931608114
 20
221.03177475142792
 11
1447.3064931608114
 21
221.03177475142792
  0
LINE
  8
_e-0_
  6
CONTINUOUS
 62
    7
 10
1047.3064931608114
 20
41.031774751427932
 11
1447.3064931608114
 21
41.031774751427932
  0
LINE
  8
_e-0_
  6
CONTINUOUS
 62
    7
 10
1047.3064931608114
 20
191.03177475142792
 11
1447.3064931608114
 21
191.03177475142792
  0
LINE
  8
_e-0_
  6
CONTINUOUS
 62
    7
 10
1047.3064931608114
 20
161.03177475142792
 11
1447.3064931608114
 21
161.03177475142792
  0
LINE
  8
_e-0_
  6
CONTINUOUS
 62
    7
 10
1047.3064931608114
 20
131.03177475142792
 11
1447.3064931608114
 21
131.03177475142792
  0
LINE
  8
_e-0_
  6
CONTINUOUS
 62
    7
 10
1047.3064931608114
 20
101.03177475142793
 11
1447.3064931608114
 21
101.03177475142793
  0
LINE
  8
_e-0_
  6
CONTINUOUS
 62
    7
 10
1047.3064931608114
 20
71.031774751427932
 11
1447.3064931608114
 21
71.031774751427932
  0
LINE
  8
_e-0_
  6
CONTINUOUS
 62
    9
 10
1217.9103688764553
 20
176.03177475142792
 11
1277.9103688764553
 21
176.03177475142792
  0
LINE
  8
_e-0_
  6
CONTINUOUS
 62
    9
 10
1217.9103688764553
 20
146.03177475142792
 11
1277.9103688764553
 21
146.03177475142792
  0
LINE
  8
_e-0_
  6
CONTINUOUS
 62
    9
 10
1247.9103688764553
 20
191.03177475142792
 11
1247.9103688764553
 21
41.031774751427932
  0
LINE
  8
_e-0_
  6
CONTINUOUS
 62
    9
 10
1217.9103688764553
 20
56.031774751427932
 11
1277.9103688764553
 21
56.031774751427932
  0
LINE
  8
_e-0_
  6
CONTINUOUS
 62
    9
 10
1217.9103688764553
 20
86.031774751427932
 11
1277.9103688764553
 21
86.031774751427932
  0
LINE
  8
_e-0_
  6
CONTINUOUS
 62
    9
 10
1217.9103688764553
 20
116.03177475142793
 11
1277.9103688764553
 21
116.03177475142793
  0
LINE
  8
_2-0_
  6
CONTINUOUS
 62
    7
 10
637.63525335673626
 20
400.74942656582607
 11
644.3312662881774
 21
406.3676710168113
  0
LINE
  8
_2-0_
  6
CONTINUOUS
 62
    7
 10
636.67110996172357
 20
401.89852513159553
 11
643.36712289316483
 21
407.51676958258076
  0
ARC
  8
_2-0_
  6
CONTINUOUS
 62
    7
 10
646.90214533887365
 20
403.30337333452826
 40
3.9996919079872995
 50
90
 51
129.9998779296875
  0
ARC
  8
_2-0_
  6
CONTINUOUS
 62
    7
 10
646.90214533887365
 20
403.30337333452826
 40
5.4996919079872999
 50
90
 51
129.9998779296875
  0
LINE
  8
_2-0_
  6
CONTINUOUS
 62
    7
 10
637.63525335673626
 20
400.74942656582607
 11
636.67110996172357
 21
401.89852513159553
  0
LINE
  8
_2-0_
  6
CONTINUOUS
 62
    7
 10
675.31084770317261
 20
422.8029275599049
 11
675.31084770317261
 21
423.80327904228153
  0
LINE
  8
_2-0_
  6
CONTINUOUS
 62
    7
 10
568.31089471673874
 20
530.80347976310918
 11
675.31084770317261
 21
423.80327904228153
  0
LINE
  8
_2-0_
  6
CONTINUOUS
 62
    7
 10
618.27495820649813
 20
480.83867307016817
 11
615.80058708069896
 21
476.24258072821874
  0
LINE
  8
_2-0_
  6
CONTINUOUS
 62
    7
 10
620.75007253547892
 20
471.29272367184768
 11
625.34628874462567
 21
473.76759026643469
  0
LINE
  8
_2-0_
  6
CONTINUOUS
 62
    7
 10
599.96763423518826
 20
499.14649251026617
 11
595.37166576043558
 21
496.67162591567916
  0
LINE
  8
_2-0_
  6
CONTINUOUS
 62
    7
 10
563.31087144561263
 20
512.80334644017614
 11
563.31087144561263
 21
439.80320486924893
  0
LINE
  8
_2-0_
  6
CONTINUOUS
 62
    7
 10
666.82594471372238
 20
432.28830589892851
 11
664.35058265034752
 21
427.69221355697891
  0
LINE
  8
_2-0_
  6
CONTINUOUS
 62
    7
 10
649.87942576784405
 20
423.80327904228153
 11
658.51371259678729
 21
423.80327904228153
  0
LINE
  8
_2-0_
  6
CONTINUOUS
 62
    7
 10
568.31089471673874
 20
439.80320486924893
 11
568.31089471673874
 21
447.35439692826873
  0
LINE
  8
_2-0_
  6
CONTINUOUS
 62
    7
 10
568.31089471673874
 20
472.44481247045883
 11
568.31089471673874
 21
480.61856106123031
  0
LINE
  8
_2-0_
  6
CONTINUOUS
 62
    7
 10
563.31087144561263
 20
518.80310185769417
 11
563.31087144561263
 21
526.07596432522064
  0
LINE
  8
_2-0_
  6
CONTINUOUS
 62
    7
 10
670.58382773407186
 20
418.80337963835234
 11
584.31057280931225
 21
418.80337963835234
  0
LINE
  8
_2-0_
  6
CONTINUOUS
 62
    7
 10
669.40188694100141
 20
417.80339975756647
 11
675.31084770317261
 21
422.8029275599049
  0
LINE
  8
_2-0_
  6
CONTINUOUS
 62
    7
 10
584.31057280931225
 20
423.80327904228153
 11
591.86201260272594
 21
423.80327904228153
  0
LINE
  8
_2-0_
  6
CONTINUOUS
 62
    7
 10
616.95255201211307
 20
423.80327904228153
 11
625.12630060288427
 21
423.80327904228153
  0
LINE
  8
_2-0_
  6
CONTINUOUS
 62
    7
 10
569.13535477948028
 20
449.42025403860526
 11
604.93148828481151
 21
487.1113079225151
  0
LINE
  8
_2-0_
  6
CONTINUOUS
 62
    7
 10
598.36157215984213
 20
493.68147178187854
 11
573.36219900739263
 21
470.25533589758993
  0
LINE
  8
_2-0_
  6
CONTINUOUS
 62
    7
 10
593.92811744745654
 20
424.62798683941674
 11
631.61892359697231
 21
460.42374874315726
  0
LINE
  8
_2-0_
  6
CONTINUOUS
 62
    7
 10
638.18933519072982
 20
453.85346101659678
 11
614.76307543924418
 21
428.85433559854135
  0
LINE
  8
_2-0_
  6
CONTINUOUS
 62
    7
 10
648.17426993495701
 20
443.86852627236948
 11
627.15375888217363
 21
424.59194148511119
  0
LINE
  8
_2-0_
  6
CONTINUOUS
 62
    7
 10
647.6230609086349
 20
428.77976754599172
 11
654.92527990183305
 21
437.11788790708408
  0
LINE
  8
_2-0_
  6
CONTINUOUS
 62
    7
 10
660.33332171963434
 20
424.41827967502047
 11
664.46899969060905
 21
427.57354878232366
  0
LINE
  8
_2-0_
  6
CONTINUOUS
 62
    7
 10
585.17813865658422
 20
500.17942106543444
 11
569.09968102676555
 21
482.64614320771642
  0
LINE
  8
_2-0_
  6
CONTINUOUS
 62
    7
 10
615.01526905218623
 20
477.02789875673119
 11
573.39192713465491
 21
437.20471881212944
  0
LINE
  8
_2-0_
  6
CONTINUOUS
 62
    7
 10
621.53563829838572
 20
470.50740564333495
 11
581.71233448658666
 21
428.88443532739444
  0
LINE
  8
_2-0_
  6
CONTINUOUS
 62
    7
 10
568.31089471673874
 20
509.65253655196221
 11
568.31089471673874
 21
530.80347976310918
  0
LINE
  8
_2-0_
  6
CONTINUOUS
 62
    7
 10
572.15721891569342
 20
505.65546597434832
 11
594.31061935156504
 21
504.80325965949532
  0
LINE
  8
_2-0_
  6
CONTINUOUS
 62
    7
 10
571.96497702606405
 20
500.658910984736
 11
592.1607802817125
 21
499.88201592561438
  0
LINE
  8
_2-0_
  6
CONTINUOUS
 62
    7
 10
592.1607802817125
 20
499.88201592561438
 11
672.02242135917356
 21
420.02037484815287
  0
LINE
  8
_2-0_
  6
CONTINUOUS
 62
    7
 10
562.3107676976299
 20
524.89377579775635
 11
567.31054323436251
 21
530.80347976310918
  0
LINE
  8
_2-0_
  6
CONTINUOUS
 62
    7
 10
562.1049004163383
 20
510.04445236303695
 11
561.73552843510447
 21
510.11790561081426
  0
LINE
  8
_2-0_
  6
CONTINUOUS
 62
    7
 10
567.31054323436251
 20
530.80347976310918
 11
568.31089471673874
 21
530.80347976310918
  0
LINE
  8
_2-0_
  6
CENTER1
 62
    7
 10
562.07269494513764
 20
417.56483153628636
 11
590.43308061898483
 21
445.92546494452722
  0
ARC
  8
_2-0_
  6
CONTINUOUS
 62
    7
 10
561.8105919564415
 20
508.57352939953756
 40
1.5000000621936496
 50
0
 51
78.689697265625
  0
ARC
  8
_2-0_
  6
CONTINUOUS
 62
    7
 10
583.88001043279655
 20
426.81003138047004
 40
3.0000001243872991
 50
136.26622009277344
 51
268.10188293457031
  0
ARC
  8
_2-0_
  6
CONTINUOUS
 62
    7
 10
591.86201260272594
 20
426.80334255183595
 40
3.0000001243872991
 50
269.99983215332031
 51
313.52268981933594
  0
ARC
  8
_2-0_
  6
CONTINUOUS
 62
    7
 10
616.95255201211307
 20
426.80334255183595
 40
3.0000001243872991
 50
136.86117553710937
 51
269.99966430664062
  0
ARC
  8
_2-0_
  6
CONTINUOUS
 62
    7
 10
625.12630060288427
 20
426.80334255183595
 40
3.0000001243872991
 50
269.99983215332031
 51
312.52210998535156
  0
ARC
  8
_2-0_
  6
CONTINUOUS
 62
    7
 10
649.87942576784405
 20
426.80334255183595
 40
3.0000001243872991
 50
138.78688049316406
 51
270
  0
ARC
  8
_2-0_
  6
CONTINUOUS
 62
    7
 10
658.51371259678729
 20
426.80334255183595
 40
3.0000001243872991
 50
270
 51
307.34552001953125
  0
ARC
  8
_2-0_
  6
CONTINUOUS
 62
    7
 10
571.31789478932103
 20
439.37227089114242
 40
3.0000001243872991
 50
181.89811706542972
 51
313.73377990722656
  0
ARC
  8
_2-0_
  6
CONTINUOUS
 62
    7
 10
571.31095822629345
 20
447.35439692826873
 40
3.0000001243872991
 50
136.47731018066406
 51
180.00016784667969
  0
ARC
  8
_2-0_
  6
CONTINUOUS
 62
    7
 10
571.31095822629345
 20
472.44481247045883
 40
3.0000001243872991
 50
180.0003356933594
 51
313.13882446289062
  0
ARC
  8
_2-0_
  6
CONTINUOUS
 62
    7
 10
571.31095822629345
 20
480.61856106123031
 40
3.0000001243872991
 50
137.47789001464844
 51
180.00016784667969
  0
ARC
  8
_2-0_
  6
CONTINUOUS
 62
    7
 10
584.31057280931225
 20
439.80320486924893
 40
15.999998405403151
 50
180
 51
181.89961242675781
  0
ARC
  8
_2-0_
  6
CONTINUOUS
 62
    7
 10
584.31057280931225
 20
439.80320486924893
 40
15.999998405403151
 50
268.10173034667974
 51
270.00000000000006
  0
ARC
  8
_2-0_
  6
DASHED1
 62
    7
 10
653.08114507399466
 20
417.3031001491812
 40
1.5000000621936496
 50
11.309844970703125
 51
19.471710205078125
  0
ARC
  8
_2-0_
  6
CONTINUOUS
 62
    7
 10
653.08114507399466
 20
417.3031001491812
 40
1.5000000621936496
 50
19.471710205078125
 51
90
  0
ARC
  8
_2-0_
  6
CONTINUOUS
 62
    7
 10
584.31057280931225
 20
439.80320486924893
 40
21.000003289992289
 50
180
 51
204.07583618164062
  0
ARC
  8
_2-0_
  6
CONTINUOUS
 62
    7
 10
584.31057280931225
 20
439.80320486924893
 40
21.000003289992289
 50
245.92543029785159
 51
270
  0
ARC
  8
_2-0_
  6
CONTINUOUS
 62
    7
 10
572.31081423988212
 20
509.65253655196221
 40
3.9999996013507877
 50
180
 51
267.79757690429687
  0
ARC
  8
_2-0_
  6
CONTINUOUS
 62
    7
 10
572.31081423988212
 20
509.65253655196221
 40
9.0000008570181365
 50
180
 51
267.79757690429687
  0
LINE
  8
_2-0_
  6
CONTINUOUS
 62
    7
 10
335.12569408074773
 20
500.16530020498465
 11
521.85772305665785
 21
503.96777541622754
  0
LINE
  8
_2-0_
  6
CONTINUOUS
 62
    7
 10
335.22751291662109
 20
495.16614400423691
 11
521.95954189253155
 21
498.96899081707062
  0
LINE
  8
_2-0_
  6
CONTINUOUS
 62
    7
 10
521.85772305665785
 20
503.96777541622754
 11
524.07940510072774
 21
394.88066016158609
  0
LINE
  8
_2-0_
  6
CONTINUOUS
 62
    7
 10
335.12569408074773
 20
391.03242467084954
 11
524.07940510072774
 21
394.88066016158609
  0
LINE
  8
_2-0_
  6
CONTINUOUS
 62
    7
 10
335.12569408074773
 20
396.03365451627826
 11
523.97758626485438
 21
399.87981636233383
  0
LINE
  8
_2-0_
  6
CONTINUOUS
 62
    7
 10
688.71381455221172
 20
408.80306524249187
 11
646.90214533887365
 21
408.80306524249187
  0
LINE
  8
_2-0_
  6
CONTINUOUS
 62
    7
 10
688.79211083884957
 20
407.30306524249187
 11
646.90214533887365
 21
407.30306524249187
  0
ARC
  8
_2-0_
  6
CONTINUOUS
 62
    7
 10
643.1972311226674
 20
400.85576686927703
 40
13.501695954533945
 50
138.49544464898653
 51
186.60252242064462
  0
LINE
  8
_2-0_
  6
CONTINUOUS
 62
    7
 10
635.78721886370636
 20
399.30332994418723
 11
637.45187362497848
 21
400.9679847054594
  0
LINE
  8
_2-0_
  6
CONTINUOUS
 62
    7
 10
632.95879173895878
 20
399.3033299441899
 11
643.45852703726109
 21
409.80306524249227
  0
LINE
  8
_2-0_
  6
CONTINUOUS
 62
    7
 10
630.13036461421575
 20
399.30332994418814
 11
640.63009991251738
 21
409.80306524248977
  0
LINE
  8
_2-0_
  6
CONTINUOUS
 62
    7
 10
629.72354030287988
 20
401.72493275760257
 11
637.80167278776912
 21
409.8030652424917
  0
LINE
  8
_2-0_
  6
CONTINUOUS
 62
    7
 10
630.43610723318125
 20
405.26592681264515
 11
634.97324566302791
 21
409.80306524249187
  0
LINE
  8
_2-0_
  6
CONTINUOUS
 62
    7
 10
551.81043318255558
 20
819.51487257793428
 11
551.81043318255558
 21
509.48618543121279
  0
LINE
  8
_2-0_
  6
CONTINUOUS
 62
    7
 10
551.81043318255558
 20
509.48618543121279
 11
553.31043318255547
 21
509.48618543121279
  0
LINE
  8
_2-0_
  6
CONTINUOUS
 62
    7
 10
553.31043318255547
 20
819.51487257793428
 11
553.31043318255547
 21
509.48618543121279
  0
ARC
  8
_2-0_
  6
CONTINUOUS
 62
    7
 10
549.21900926970557
 20
510.96393977451339
 40
7.4229496143482576
 50
282.37988264590547
 51
313.30666976435606
  0
LINE
  8
_2-0_
  6
CONTINUOUS
 62
    7
 10
550.81043318255468
 20
503.83116162103317
 11
554.31043318255558
 21
507.33116162103408
  0
LINE
  8
_2-0_
  6
CONTINUOUS
 62
    7
 10
550.81043318255581
 20
506.65958874577547
 11
554.31043318255558
 21
510.1595887457753
  0
LINE
  8
_2-0_
  6
CONTINUOUS
 62
    7
 10
568.81082272353308
 20
539.80292708859088
 11
554.31043318255558
 21
539.80292708859088
  0
LINE
  8
_2-0_
  6
CONTINUOUS
 62
    7
 10
554.31043318255558
 20
439.80320486924893
 11
554.31043318255558
 21
539.80292708859088
  0
LINE
  8
_2-0_
  6
CONTINUOUS
 62
    7
 10
684.3107904974421
 20
424.30283544748522
 11
684.3107904974421
 21
409.80306524249187
  0
LINE
  8
_2-0_
  6
CONTINUOUS
 62
    7
 10
673.59702116650067
 20
418.27632471543097
 11
681.17075705536092
 21
424.68471801560895
  0
LINE
  8
_2-0_
  6
CONTINUOUS
 62
    7
 10
654.07778054046332
 20
417.80302815597565
 11
644.54372239304803
 21
409.80306524249187
  0
LINE
  8
_2-0_
  6
CONTINUOUS
 62
    7
 10
579.90090059873705
 20
414.17978877868507
 11
558.68765218753606
 21
435.39303718988577
  0
LINE
  8
_2-0_
  6
CONTINUOUS
 62
    7
 10
563.99090235673793
 20
430.08953928629012
 11
561.16202331333579
 21
425.84684005717122
  0
LINE
  8
_2-0_
  6
CONTINUOUS
 62
    7
 10
570.35470346602222
 20
416.65465537327208
 11
574.59740269514111
 21
419.48291508068974
  0
LINE
  8
_2-0_
  6
CONTINUOUS
 62
    7
 10
569.31075073032798
 20
529.80275667914157
 11
569.31075073032798
 21
539.30299908179654
  0
LINE
  8
_2-0_
  6
CONTINUOUS
 62
    7
 10
674.31049622079581
 20
424.80313505587048
 11
683.8106147562537
 21
424.80313505587048
  0
LINE
  8
_2-0_
  6
CONTINUOUS
 62
    7
 10
584.31057280931225
 20
413.80310863283228
 11
684.3107904974421
 21
413.80310863283228
  0
LINE
  8
_2-0_
  6
CONTINUOUS
 62
    7
 10
684.3107904974421
 20
417.80302815597565
 11
654.07778054046332
 21
417.80302815597565
  0
LINE
  8
_2-0_
  6
CONTINUOUS
 62
    7
 10
562.31051996323583
 20
510.80313894421039
 11
554.31043318255558
 21
501.268709195204
  0
LINE
  8
_2-0_
  6
CONTINUOUS
 62
    7
 10
562.31051996323583
 20
528.53002123072406
 11
569.19233369006645
 21
536.66326524810052
  0
LINE
  8
_2-0_
  6
CONTINUOUS
 62
    7
 10
562.31051996323583
 20
510.80313894421039
 11
562.31051996323583
 21
512.80334644017614
  0
LINE
  8
_2-0_
  6
CONTINUOUS
 62
    7
 10
562.31051996323583
 20
518.80310185769417
 11
562.31051996323583
 21
539.80292708859088
  0
LINE
  8
_2-0_
  6
CONTINUOUS
 62
    7
 10
614.20121383398691
 20
418.80337963835234
 11
614.20121383398691
 21
415.26957237724247
  0
LINE
  8
_2-0_
  6
CONTINUOUS
 62
    7
 10
622.15992897089404
 20
418.80337963835234
 11
616.61018307980908
 21
414.14609690112115
  0
LINE
  8
_2-0_
  6
CONTINUOUS
 62
    7
 10
558.68765218753606
 20
435.39303718988577
 11
554.63669937925897
 21
435.39303718988577
  0
LINE
  8
_2-0_
  6
CONTINUOUS
 62
    7
 10
579.90040512994949
 20
414.17941717709425
 11
579.90040512994949
 21
410.12895983760501
  0
LINE
  8
_2-0_
  6
CONTINUOUS
 62
    7
 10
556.31064067852105
 20
517.93343026807497
 11
554.31043318255558
 21
517.93343026807497
  0
LINE
  8
_2-0_
  6
CONTINUOUS
 62
    7
 10
556.31064067852105
 20
518.80310185769417
 11
554.31043318255558
 21
518.80310185769417
  0
LINE
  8
_2-0_
  6
CONTINUOUS
 62
    7
 10
556.31064067852105
 20
513.6728941625986
 11
554.31043318255558
 21
513.6728941625986
  0
LINE
  8
_2-0_
  6
CONTINUOUS
 62
    7
 10
556.31064067852105
 20
512.80334644017614
 11
554.31043318255558
 21
512.80334644017614
  0
LINE
  8
_2-0_
  6
CONTINUOUS
 62
    7
 10
575.48082354361964
 20
411.52828756128116
 11
556.03565550134488
 21
430.97333173635917
  0
LINE
  8
_2-0_
  6
CONTINUOUS
 62
    7
 10
584.31057280931225
 20
409.80306524249187
 11
684.3107904974421
 21
409.80306524249187
  0
LINE
  8
_2-0_
  6
CONTINUOUS
 62
    7
 10
558.31060044009246
 20
506.03598600330571
 11
558.31060044009246
 21
439.80320486924893
  0
ARC
  8
_2-0_
  6
CONTINUOUS
 62
    7
 10
683.8106147562537
 20
424.30283544748522
 40
0.4999999501688484
 50
0
 51
90
  0
ARC
  8
_2-0_
  6
CONTINUOUS
 62
    7
 10
681.49405043933837
 20
424.30283544748522
 40
0.4999999501688484
 50
90
 51
130.2366943359375
  0
ARC
  8
_2-0_
  6
CONTINUOUS
 62
    7
 10
568.81082272353308
 20
539.30299908179654
 40
0.4999999501688484
 50
0
 51
90
  0
ARC
  8
_2-0_
  6
CONTINUOUS
 62
    7
 10
568.81082272353308
 20
536.98618703048737
 40
0.4999999501688484
 50
319.76698303222656
 51
0
  0
ARC
  8
_2-0_
  6
CONTINUOUS
 62
    7
 10
672.30558177134708
 20
419.80323565194112
 40
1.9999998006753938
 50
270
 51
310.236572265625
  0
ARC
  8
_2-0_
  6
CONTINUOUS
 62
    7
 10
584.31057280931225
 20
439.80320486924893
 40
26.000007206868947
 50
260.23466491699219
 51
270
  0
ARC
  8
_2-0_
  6
CONTINUOUS
 62
    7
 10
584.31057280931225
 20
439.80320486924893
 40
26.000007206868947
 50
180
 51
189.76585388183594
  0
ARC
  8
_2-0_
  6
CONTINUOUS
 62
    7
 10
558.15750058469189
 20
433.09443361652473
 40
3.0000001243872991
 50
194.38682556152344
 51
225.00033569335937
  0
ARC
  8
_2-0_
  6
CONTINUOUS
 62
    7
 10
577.60192542378502
 20
413.64938944144671
 40
3.0000001243872991
 50
224.99919128417969
 51
255.61270141601562
  0
ARC
  8
_2-0_
  6
CONTINUOUS
 62
    7
 10
584.31057280931225
 20
439.80320486924893
 40
30.000000276160517
 50
180
 51
217.33798217773435
  0
ARC
  8
_2-0_
  6
CONTINUOUS
 62
    7
 10
615.66780144559357
 20
415.26957237724247
 40
1.4663178617544617
 50
180
 51
309.99996948242187
  0
ARC
  8
_2-0_
  6
CONTINUOUS
 62
    7
 10
584.31057280931225
 20
439.80320486924893
 40
30.000000276160517
 50
232.66255187988281
 51
270
  0
LINE
  8
_2-0_
  6
CONTINUOUS
 62
    7
 10
635.81008558851886
 20
370.30317019821661
 11
643.81042010359374
 21
370.30317019821661
  0
LINE
  8
_2-0_
  6
CONTINUOUS
 62
    7
 10
643.81042010359374
 20
370.30317019821661
 11
643.81042010359374
 21
376.30342108452248
  0
LINE
  8
_2-0_
  6
CONTINUOUS
 62
    7
 10
635.81008558851886
 20
376.30342108452248
 11
643.81042010359374
 21
376.30342108452248
  0
LINE
  8
_2-0_
  6
CONTINUOUS
 62
    7
 10
511.31017502034069
 20
511.40029421694112
 11
518.3104057874325
 21
511.5432369621941
  0
LINE
  8
_2-0_
  6
CONTINUOUS
 62
    7
 10
513.79470325628802
 20
389.42566419249874
 11
520.79443855459203
 21
389.56823533616091
  0
LINE
  8
_2-0_
  6
CONTINUOUS
 62
    7
 10
511.4015890116724
 20
506.91630168820996
 11
512.91053920462809
 21
505.46804642174766
  0
LINE
  8
_2-0_
  6
CONTINUOUS
 62
    7
 10
515.15154453141827
 20
395.41848304698897
 11
513.70304153056259
 21
393.90965672123002
  0
LINE
  8
_2-0_
  6
CONTINUOUS
 62
    7
 10
540.81980054726978
 20
508.90944875395053
 11
536.82087196170164
 21
508.82782027117617
  0
LINE
  8
_2-0_
  6
CONTINUOUS
 62
    7
 10
543.18170025825998
 20
392.93321160786024
 11
539.1827716726923
 21
392.85158312508571
  0
LINE
  8
_2-0_
  6
CONTINUOUS
 62
    7
 10
547.09961969703818
 20
397.01376867620246
 11
544.90048148280925
 21
504.99152931517233
  0
LINE
  8
_2-0_
  6
CONTINUOUS
 62
    7
 10
545.65408950890833
 20
394.3210196822223
 11
543.34074573911357
 21
507.92259879603887
  0
LINE
  8
_2-0_
  6
CONTINUOUS
 62
    7
 10
638.27801562007812
 20
399.98336085531315
 11
644.97402855151927
 21
405.60160530629838
  0
LINE
  8
_2-0_
  6
CONTINUOUS
 62
    7
 10
639.95567293524778
 20
395.51609039816691
 11
646.6118006292786
 21
401.10163390916364
  0
LINE
  8
_2-0_
  6
CONTINUOUS
 62
    7
 10
568.60866297449866
 20
393.40006707307538
 11
638.08825107438702
 21
394.81500206356407
  0
LINE
  8
_2-0_
  6
CONTINUOUS
 62
    7
 10
552.2757821221935
 20
387.79074106026883
 11
563.22068764259961
 21
392.28067921445256
  0
LINE
  8
_2-0_
  6
CONTINUOUS
 62
    7
 10
547.74298591787306
 20
503.65054304124851
 11
550.81043318255547
 21
503.71359144448388
  0
LINE
  8
_2-0_
  6
CONTINUOUS
 62
    7
 10
636.41084149361154
 20
399.28190091911966
 11
549.60842590358288
 21
397.51406828458778
  0
LINE
  8
_2-0_
  6
CONTINUOUS
 62
    7
 10
685.55688601486986
 20
397.6977633376294
 11
685.8105660341746
 21
396.30326643463343
  0
LINE
  8
_2-0_
  6
CONTINUOUS
 62
    7
 10
625.73274591538484
 20
391.70952756942552
 11
625.19169399921088
 21
394.5522797388835
  0
LINE
  8
_2-0_
  6
CONTINUOUS
 62
    7
 10
635.6287440122187
 20
391.30299542911348
 11
626.22400321839427
 21
391.30299542911348
  0
LINE
  8
_2-0_
  6
CONTINUOUS
 62
    7
 10
635.94980778665195
 20
391.42029766460269
 11
646.92989159098511
 21
400.63366363917618
  0
LINE
  8
_2-0_
  6
CONTINUOUS
 62
    7
 10
648.54016515102649
 20
401.80321771255399
 11
680.63762415613928
 21
401.80321771255399
  0
LINE
  8
_2-0_
  6
CONTINUOUS
 62
    7
 10
555.78320567035826
 20
419.76136005572914
 11
553.46862322859374
 21
419.76136005572914
  0
LINE
  8
_2-0_
  6
CONTINUOUS
 62
    7
 10
564.26885186298955
 20
411.27583773029426
 11
564.26885186298955
 21
405.09610327564224
  0
LINE
  8
_2-0_
  6
CONTINUOUS
 62
    7
 10
690.81058930530071
 20
404.30335321531408
 11
690.81058930530071
 21
396.30326643463343
  0
LINE
  8
_2-0_
  6
CONTINUOUS
 62
    7
 10
548.81047342098418
 20
546.30346909963112
 11
540.81038664030325
 21
546.30346909963112
  0
LINE
  8
_2-0_
  6
CONTINUOUS
 62
    7
 10
546.31058565261787
 20
533.43564921414145
 11
546.31058565261787
 21
518.94157690020688
  0
LINE
  8
_2-0_
  6
CONTINUOUS
 62
    7
 10
544.9673697691494
 20
536.84558927832495
 11
540.81038664030325
 21
541.30319809411094
  0
LINE
  8
_2-0_
  6
CONTINUOUS
 62
    7
 10
518.3104057874325
 20
511.5432369621941
 11
518.3104057874325
 21
514.45238194920466
  0
LINE
  8
_2-0_
  6
CONTINUOUS
 62
    7
 10
542.39192301065805
 20
514.94264831463897
 11
518.3104057874325
 21
514.45238194920466
  0
LINE
  8
_2-0_
  6
CONTINUOUS
 62
    7
 10
520.79443855459203
 20
389.56823533616091
 11
520.92028762666905
 21
386.47873971042571
  0
LINE
  8
_2-0_
  6
CONTINUOUS
 62
    7
 10
548.68388114572531
 20
387.0439457300003
 11
520.92028762666905
 21
386.47873971042571
  0
LINE
  8
_2-0_
  6
CONTINUOUS
 62
    7
 10
511.4015890116724
 20
506.91630168820996
 11
533.15836668298539
 21
506.23713784746303
  0
LINE
  8
_2-0_
  6
CONTINUOUS
 62
    7
 10
515.15005812505535
 20
395.49713871703722
 11
534.90241681570751
 21
396.920620544114
  0
LINE
  8
_2-0_
  6
CONTINUOUS
 62
    7
 10
513.70279379616875
 20
393.90965672123002
 11
535.34734778706684
 21
395.46964019931954
  0
LINE
  8
_2-0_
  6
CONTINUOUS
 62
    7
 10
536.65687179297129
 20
394.0905028287425
 11
534.34699630469004
 21
507.52015427322544
  0
LINE
  8
_2-0_
  6
CONTINUOUS
 62
    7
 10
535.09614511170014
 20
397.05972340626209
 11
532.9064208044374
 21
504.59106666750972
  0
LINE
  8
_2-0_
  6
CONTINUOUS
 62
    7
 10
627.81049427662629
 20
391.30299542911348
 11
627.81049427662629
 21
378.30313311170039
  0
LINE
  8
_2-0_
  6
CONTINUOUS
 62
    7
 10
633.81037356134107
 20
378.30313311170039
 11
633.81037356134107
 21
391.30299542911348
  0
LINE
  8
_2-0_
  6
CONTINUOUS
 62
    7
 10
564.26885186298955
 20
411.27583773029426
 11
555.78320567035826
 21
419.76136005572914
  0
LINE
  8
_2-0_
  6
CONTINUOUS
 62
    7
 10
688.81038180933524
 20
406.30306524249187
 11
646.90214533887365
 21
406.30306524249187
  0
LINE
  8
_2-0_
  6
CONTINUOUS
 62
    7
 10
550.81043318255547
 20
544.30326160366565
 11
550.81043318255547
 21
429.30309796935421
  0
LINE
  8
_2-0_
  6
CONTINUOUS
 62
    7
 10
690.81058930530071
 20
396.30326643463343
 11
685.8105660341746
 21
396.30326643463343
  0
LINE
  8
_2-0_
  6
CONTINUOUS
 62
    7
 10
580.81057280931282
 20
399.30332994418785
 11
636.41084149361154
 21
399.30332994418785
  0
LINE
  8
_2-0_
  6
CONTINUOUS
 62
    7
 10
540.81038664030325
 20
546.30346909963112
 11
540.81038664030325
 21
541.30319809411094
  0
ARC
  8
_2-0_
  6
CONTINUOUS
 62
    7
 10
635.81008558851886
 20
378.30313311170039
 40
1.9999998006753938
 50
180
 51
270
  0
ARC
  8
_2-0_
  6
CONTINUOUS
 62
    7
 10
635.81008558851886
 20
378.30313311170039
 40
7.9999992027015754
 50
180
 51
270
  0
ARC
  8
_2-0_
  6
CONTINUOUS
 62
    7
 10
648.54016515102649
 20
398.80315420299956
 40
3.0000001243872991
 50
90
 51
130.00003051757812
  0
ARC
  8
_2-0_
  6
CONTINUOUS
 62
    7
 10
636.34965109833024
 20
402.28122122549257
 40
3.0000001243872991
 50
271.16636657714844
 51
309.99966430664062
  0
ARC
  8
_2-0_
  6
CONTINUOUS
 62
    7
 10
638.02730841349921
 20
397.81469397152784
 40
3.0000001243872991
 50
271.16636657714844
 51
309.99966430664062
  0
ARC
  8
_2-0_
  6
CONTINUOUS
 62
    7
 10
568.9141194821193
 20
378.40346554121061
 40
15.000000138080258
 50
91.166748046875014
 51
112.30676269531251
  0
ARC
  8
_2-0_
  6
CONTINUOUS
 62
    7
 10
548.48024347397859
 20
397.04188652990473
 40
10.000001059765982
 50
271.16670227050781
 51
292.30667114257812
  0
ARC
  8
_2-0_
  6
CONTINUOUS
 62
    7
 10
547.68179552259176
 20
506.65023494921218
 40
3.0000001243872991
 50
194.39323425292969
 51
271.16542053222656
  0
ARC
  8
_2-0_
  6
CONTINUOUS
 62
    7
 10
540.90105742845344
 20
504.91027243398878
 40
3.9999996013507877
 50
14.393325805664061
 51
91.166839599609361
  0
ARC
  8
_2-0_
  6
CONTINUOUS
 62
    7
 10
549.66986403325814
 20
394.514376376624
 40
3.0000001243872991
 50
91.166839599609389
 51
159.79348754882813
  0
ARC
  8
_2-0_
  6
CONTINUOUS
 62
    7
 10
543.10044337707632
 20
396.93238792782188
 40
3.9999996013507877
 50
271.16648864746094
 51
339.7935791015625
  0
ARC
  8
_2-0_
  6
CONTINUOUS
 62
    7
 10
580.81057280931282
 20
429.30309796935421
 40
30.000000276160517
 50
180
 51
270
  0
ARC
  8
_2-0_
  6
CONTINUOUS
 62
    7
 10
542.31066612947438
 20
518.94157690020688
 40
3.9999996013507877
 50
271.16648864746094
 51
0
  0
ARC
  8
_2-0_
  6
CONTINUOUS
 62
    7
 10
680.63762415613928
 20
396.8033183086248
 40
5.0000005298829908
 50
10.304885864257812
 51
90
  0
ARC
  8
_2-0_
  6
CONTINUOUS
 62
    7
 10
650.1439976168283
 20
396.8033183086248
 40
5.0000005298829908
 50
90
 51
129.99964904785156
  0
ARC
  8
_2-0_
  6
CONTINUOUS
 62
    7
 10
626.22400321839427
 20
391.8034189046956
 40
0.4999999501688484
 50
190.78463745117187
 51
270
  0
ARC
  8
_2-0_
  6
CONTINUOUS
 62
    7
 10
635.6287440122187
 20
391.8034189046956
 40
0.4999999501688484
 50
270
 51
309.99929809570312
  0
ARC
  8
_2-0_
  6
CONTINUOUS
 62
    7
 10
553.46862322859374
 20
421.26126794330946
 40
1.5000000621936496
 50
196.39025878906253
 51
270
  0
ARC
  8
_2-0_
  6
CONTINUOUS
 62
    7
 10
565.76814041458556
 20
405.09610327564224
 40
1.5000000621936496
 50
180
 51
238.14411926269531
  0
ARC
  8
_2-0_
  6
CONTINUOUS
 62
    7
 10
536.90237657727926
 20
504.82852008401733
 40
3.9999996013507877
 50
91.166488647460952
 51
173.35179138183597
  0
ARC
  8
_2-0_
  6
CONTINUOUS
 62
    7
 10
539.1010193227205
 20
396.85113104663833
 40
3.9999996013507877
 50
188.99766540527347
 51
271.16683959960937
  0
ARC
  8
_2-0_
  6
CONTINUOUS
 62
    7
 10
688.81038180933524
 20
404.30335321531408
 40
1.9999998006753938
 50
0
 51
90
  0
ARC
  8
_2-0_
  6
CONTINUOUS
 62
    7
 10
548.81047342098418
 20
544.30326160366565
 40
1.9999998006753938
 50
0
 51
90
  0
ARC
  8
_2-0_
  6
CONTINUOUS
 62
    7
 10
541.31031464709758
 20
533.43564921414145
 40
5.0000005298829908
 50
0
 51
43.000061035156243
  0
ARC
  8
_2-0_
  6
CONTINUOUS
 62
    7
 10
530.94263026436829
 20
505.52341505877382
 40
1.9999998006753938
 50
337.828125
 51
353.35140991210937
  0
ARC
  8
_2-0_
  6
CONTINUOUS
 62
    7
 10
533.17496488737356
 20
395.91283702992177
 40
1.9999998006753938
 50
8.997711181640625
 51
30.258224487304691
  0
ARC
  8
_2-0_
  6
CONTINUOUS
 62
    7
 10
646.90214533887365
 20
403.30337333452826
 40
3.0000001243872991
 50
90
 51
129.9998779296875
  0
LINE
  8
_2-0_
  6
CONTINUOUS
 62
    7
 10
513.70318755949995
 20
393.90968510085338
 11
513.79470325628802
 21
389.42566419249874
  0
LINE
  8
_2-0_
  6
CONTINUOUS
 62
    7
 10
512.91202561099135
 20
505.38976235329028
 11
515.51422768401858
 21
505.30850547210673
  0
LINE
  8
_2-0_
  6
CONTINUOUS
 62
    7
 10
532.79469259280995
 20
504.76881609509906
 11
515.51421835570011
 21
505.30820662041913
  0
LINE
  8
_2-0_
  6
CONTINUOUS
 62
    7
 10
511.31017502034069
 20
511.40029421694112
 11
511.40166006100139
 21
506.91623349671801
  0
LINE
  8
_2-0_
  6
CONTINUOUS
 62
    7
 10
570.91061944582759
 20
521.80316536724854
 11
568.31089471673874
 21
521.80316536724854
  0
LINE
  8
_2-0_
  6
CONTINUOUS
 62
    7
 10
570.91061944582759
 20
509.80315906342469
 11
568.31089471673874
 21
509.80315906342469
  0
LINE
  8
_2-0_
  6
CONTINUOUS
 62
    7
 10
570.91061944582759
 20
515.32416776482273
 11
570.91061944582759
 21
516.28252826744131
  0
LINE
  8
_2-0_
  6
CONTINUOUS
 62
    7
 10
556.31064067852105
 20
518.80310185769417
 11
556.31064067852105
 21
512.80334644017614
  0
LINE
  8
_2-0_
  6
CONTINUOUS
 62
    7
 10
566.31068722077327
 20
518.80310185769417
 11
556.31064067852105
 21
518.80310185769417
  0
LINE
  8
_2-0_
  6
CONTINUOUS
 62
    7
 10
568.31089471673874
 20
521.80316536724854
 11
568.31089471673874
 21
509.80315906342469
  0
LINE
  8
_2-0_
  6
CONTINUOUS
 62
    7
 10
566.31068722077327
 20
512.80334644017614
 11
556.31064067852105
 21
512.80334644017614
  0
LINE
  8
_2-0_
  6
CONTINUOUS
 62
    7
 10
566.31068722077327
 20
517.93343026807497
 11
556.31064067852105
 21
517.93343026807497
  0
LINE
  8
_2-0_
  6
CONTINUOUS
 62
    7
 10
566.31068722077327
 20
513.6728941625986
 11
556.31064067852105
 21
513.6728941625986
  0
LINE
  8
_2-0_
  6
CONTINUOUS
 62
    7
 10
566.31068722077327
 20
513.6728941625986
 11
568.18355923829881
 21
512.62101392630052
  0
LINE
  8
_2-0_
  6
CONTINUOUS
 62
    7
 10
566.31068722077327
 20
512.80334644017614
 11
567.0744523570205
 21
513.24418979403674
  0
LINE
  8
_2-0_
  6
CONTINUOUS
 62
    7
 10
566.31068722077327
 20
517.93343026807497
 11
568.18355923829881
 21
518.98531050437271
  0
LINE
  8
_2-0_
  6
CONTINUOUS
 62
    7
 10
566.31068722077327
 20
518.80310185769417
 11
567.0744523570205
 21
518.36213463663648
  0
LINE
  8
_2-0_
  6
CONTINUOUS
 62
    7
 10
572.89918342528222
 20
516.28252826744131
 11
570.91061944582759
 21
516.28252826744131
  0
LINE
  8
_2-0_
  6
CONTINUOUS
 62
    7
 10
566.31068722077327
 20
518.80310185769417
 11
566.31068722077327
 21
512.80334644017614
  0
LINE
  8
_2-0_
  6
CONTINUOUS
 62
    7
 10
572.89918342528222
 20
515.32416776482273
 11
570.91061944582759
 21
515.32416776482273
  0
ARC
  8
_2-0_
  6
CONTINUOUS
 62
    7
 10
568.06093071334158
 20
512.40275992531656
 40
0.2499999750844242
 50
0
 51
60.670822143554688
  0
ARC
  8
_2-0_
  6
CONTINUOUS
 62
    7
 10
568.06093071334158
 20
519.20319290376597
 40
0.2499999750844242
 50
299.32917785644531
 51
0
  0
ARC
  8
_2-0_
  6
CONTINUOUS
 62
    7
 10
562.91078039954084
 20
515.80340994973062
 40
10.000001059765982
 50
2.7456207275390629
 51
36.869873046875
  0
ARC
  8
_2-0_
  6
CONTINUOUS
 62
    7
 10
562.91078039954084
 20
515.80340994973062
 40
10.000001059765982
 50
323.130126953125
 51
357.25437927246094
  0
LINE
  8
_2-0_
  6
CONTINUOUS
 62
    7
 10
562.85428847409185
 20
412.69002951760172
 11
568.58661398416029
 21
418.42245320410223
  0
LINE
  8
_2-0_
  6
CONTINUOUS
 62
    7
 10
562.35931515517427
 20
413.18512670371604
 11
568.09167533029336
 21
418.91738870517224
  0
LINE
  8
_2-0_
  6
CONTINUOUS
 62
    7
 10
557.69249464377958
 20
417.85207108230736
 11
563.42458167003304
 21
423.58445263569172
  0
LINE
  8
_2-0_
  6
CONTINUOUS
 62
    7
 10
557.19752132486201
 20
418.3469205340279
 11
562.92981597243215
 21
424.07921518159753
  0
LINE
  8
_2-0_
  6
CONTINUOUS
 62
    7
 10
577.3808909615517
 20
438.53089640533926
 11
578.37083759938685
 21
438.53089640533926
  0
LINE
  8
_2-0_
  6
CONTINUOUS
 62
    7
 10
583.03765811078142
 20
433.86358042515712
 11
583.03765811078142
 21
432.87338605292848
  0
LINE
  8
_2-0_
  6
CONTINUOUS
 62
    7
 10
578.68323067003507
 20
423.56947315740172
 11
574.59734731222431
 21
419.48334206519758
  0
LINE
  8
_2-0_
  6
CONTINUOUS
 62
    7
 10
570.73021342418633
 20
431.52236653605343
 11
566.64408233198208
 21
427.43623544384945
  0
LINE
  8
_2-0_
  6
CONTINUOUS
 62
    7
 10
576.02974757748007
 20
426.22332785154725
 11
571.94361648527581
 21
422.13682515775247
  0
LINE
  8
_2-0_
  6
CONTINUOUS
 62
    7
 10
569.91368086204807
 20
433.35919319927325
 11
577.86645037350274
 21
425.4062998206216
  0
LINE
  8
_2-0_
  6
CONTINUOUS
 62
    7
 10
578.05274663768023
 20
434.60591653633628
 11
579.1135453121567
 21
433.54548946345034
  0
LINE
  8
_2-0_
  6
CONTINUOUS
 62
    7
 10
578.05274663768023
 20
434.60591653633628
 11
580.17384851784561
 21
436.72751388528968
  0
LINE
  8
_2-0_
  6
CONTINUOUS
 62
    7
 10
579.1135453121567
 20
433.54548946345034
 11
581.23464719232209
 21
435.66671521081287
  0
LINE
  8
_2-0_
  6
CONTINUOUS
 62
    7
 10
577.3808909615517
 20
438.53089640533926
 11
579.67912293332211
 21
436.23266443356908
  0
LINE
  8
_2-0_
  6
CONTINUOUS
 62
    7
 10
580.73992160779858
 20
435.17198962628936
 11
583.03765811078142
 21
432.87338605292848
  0
LINE
  8
_2-0_
  6
CONTINUOUS
 62
    7
 10
578.37083759938685
 20
438.53089640533926
 11
580.17384851784561
 21
436.72751388528968
  0
LINE
  8
_2-0_
  6
CONTINUOUS
 62
    7
 10
581.23464719232209
 20
435.66671521081287
 11
583.03765811078142
 21
433.86358042515712
  0
LINE
  8
_2-0_
  6
CONTINUOUS
 62
    7
 10
568.07648259723783
 20
434.17572576141129
 11
563.99084697382114
 21
430.08996627079796
  0
LINE
  8
_2-0_
  6
CONTINUOUS
 62
    7
 10
571.06192977755461
 20
432.21119201816055
 11
577.3808909615517
 21
438.53089640533926
  0
LINE
  8
_2-0_
  6
CONTINUOUS
 62
    7
 10
571.55665536207812
 20
431.71609483204622
 11
578.37083759938685
 21
438.53089640533926
  0
LINE
  8
_2-0_
  6
CONTINUOUS
 62
    7
 10
576.22347587347269
 20
427.04952205504554
 11
583.03765811078142
 21
433.86358042515712
  0
LINE
  8
_2-0_
  6
CONTINUOUS
 62
    7
 10
576.71844919239027
 20
426.554672603325
 11
583.03765811078142
 21
432.87338605292848
  0
ARC
  8
_2-0_
  6
CONTINUOUS
 62
    7
 10
567.93378758637834
 20
431.37942379080062
 40
2.8001733043709316
 50
2.925567626953125
 51
87.074630737304688
  0
ARC
  8
_2-0_
  6
CONTINUOUS
 62
    7
 10
566.75605827800359
 20
422.24855336937992
 40
10.08940995084733
 50
23.197860717773441
 51
66.802139282226577
  0
ARC
  8
_2-0_
  6
CONTINUOUS
 62
    7
 10
575.88655709783302
 20
423.42653041214885
 40
2.8001895135549044
 50
2.92572021484375
 51
87.07427978515625
  0
LINE
  8
_2-0_
  6
CONTINUOUS
 62
    7
 10
518.3104057874325
 20
513.04339258416815
 11
518.21899179610091
 21
517.54262077812132
  0
LINE
  8
_2-0_
  6
CONTINUOUS
 62
    7
 10
520.85562894987356
 20
388.06956612054989
 11
520.94704294120538
 21
383.57033792659661
  0
LINE
  8
_2-0_
  6
CONTINUOUS
 62
    7
 10
335.12569408074773
 20
513.81344529749515
 11
518.21899179610091
 21
517.54262077812132
  0
LINE
  8
_2-0_
  6
CONTINUOUS
 62
    7
 10
335.12569408074773
 20
509.31236207012478
 11
518.3104057874325
 21
513.04339258416815
  0
LINE
  8
_2-0_
  6
CONTINUOUS
 62
    7
 10
335.12569408074773
 20
379.78622639037849
 11
520.94704294120538
 21
383.57033792659661
  0
LINE
  8
_2-0_
  6
CONTINUOUS
 62
    7
 10
335.12569408074773
 20
384.2873099410524
 11
520.85562894987356
 21
388.06956612054989
  0
LINE
  8
_2-0_
  6
CONTINUOUS
 62
    7
 10
609.364609643216
 20
487.12511268837955
 11
658.2512833180092
 21
571.7993153061617
  0
LINE
  8
_2-0_
  6
CONTINUOUS
 62
    7
 10
658.2512833180092
 20
571.7993153061617
 11
668.2512833180092
 21
571.7993153061617
  0
LINE
  8
_2-0_
  6
CONTINUOUS
 62
    7
 10
612.14403496455532
 20
759.70164685744498
 11
622.14403496455532
 21
759.70164685744498
  0
LINE
  8
_2-0_
  6
CONTINUOUS
 62
    7
 10
610.88024567634864
 20
696.89924782270612
 11
620.88024567634864
 21
696.89924782270612
  0
LINE
  8
_2-0_
  6
CONTINUOUS
 62
    7
 10
552.64639290106868
 20
656.6487078729391
 11
612.14403496455532
 21
759.70164685744498
  0
LINE
  8
_2-0_
  6
CONTINUOUS
 62
    7
 10
551.33230376012659
 20
593.75918693764913
 11
610.88024567634864
 21
696.89924782270612
  0
CIRCLE
  8
_2-0_
  6
CONTINUOUS
 62
    7
 10
552.64639290106868
 20
656.6487078729391
 40
2
  0
CIRCLE
  8
_2-0_
  6
CONTINUOUS
 62
    7
 10
551.33230376012659
 20
593.75918693764913
 40
2
  0
CIRCLE
  8
_2-0_
  6
CONTINUOUS
 62
    7
 10
604.93148828481151
 20
487.1113079225151
 40
2
  0
LINE
  8
_2-0_
  6
CONTINUOUS
 62
    7
 10
813.88591827355458
 20
424.41977357459609
 11
1050.8104331825555
 21
424.41977357459609
  0
LINE
  8
_2-0_
  6
CONTINUOUS
 62
    7
 10
813.96421456019254
 20
422.91977357459609
 11
1050.8104331825555
 21
422.91977357459609
  0
LINE
  8
_2-0_
  6
CONTINUOUS
 62
    7
 10
688.71381455221172
 20
408.80306524249187
 11
812.6755651048793
 21
421.77941336580898
  0
LINE
  8
_2-0_
  6
CONTINUOUS
 62
    7
 10
812.6755651048793
 20
421.77941336580898
 11
812.83173218820048
 21
420.28756490095509
  0
LINE
  8
_2-0_
  6
CONTINUOUS
 62
    7
 10
688.79211083884957
 20
407.30306524249187
 11
812.83173218820048
 21
420.28756490095509
  0
LINE
  8
_2-0_
  6
CONTINUOUS
 62
    7
 10
762.68700447088031
 20
419.06025802986414
 11
813.88591827355458
 21
424.41977357459609
  0
LINE
  8
_2-0_
  6
CONTINUOUS
 62
    7
 10
762.68700447088031
 20
419.06025802986414
 11
762.84317155420138
 21
417.56840956501026
  0
LINE
  8
_2-0_
  6
CONTINUOUS
 62
    7
 10
762.84317155420138
 20
417.56840956501026
 11
813.96421456019254
 21
422.91977357459609
  0
ARC
  8
_2-0_
  6
CONTINUOUS
 62
    7
 10
761.40429253150796
 20
417.4592648582896
 40
2.8749394402558455
 50
36.466855497243202
 51
134.26169997241107
  0
LINE
  8
_2-0_
  6
CONTINUOUS
 62
    7
 10
759.39776673893618
 20
419.51817987083444
 11
756.3474663401206
 21
415.88297341205447
  0
CIRCLE
  8
_2-0_
  6
CONTINUOUS
 62
    7
 10
635.76790365836587
 20
405.30356715443168
 40
2
  0
TEXT
  8
_2-0_
 62
    7
 10
180.65418445220558
 20
140.84125598240831
 40
20.000000000000018
 41
0.9999999999999988
 50
0
  1
●防水性能の向上のため、顎の広いドレンの採用を推奨します。
  0
LINE
  8
_0-0_
  6
CONTINUOUS
 62
    7
 10
550.81043318255547
 20
740.89246036368479
 11
335.12569408074773
 21
525.20772126187694
  0
LINE
  8
_0-0_
  6
CONTINUOUS
 62
    7
 10
550.81043318255547
 20
755.03459598741551
 11
335.12569408074773
 21
539.34985688560789
  0
LINE
  8
_0-0_
  6
CONTINUOUS
 62
    7
 10
550.81043318255547
 20
769.17673161114658
 11
335.12569408074785
 21
553.49199250933896
  0
LINE
  8
_0-0_
  6
CONTINUOUS
 62
    7
 10
544.85486941663783
 20
386.96599542876072
 11
366.73579148795261
 21
208.84714454102982
  0
LINE
  8
_0-0_
  6
CONTINUOUS
 62
    7
 10
560.2740399775364
 20
391.07187336833198
 11
378.04914671523466
 21
208.84714454102982
  0
LINE
  8
_0-0_
  6
CONTINUOUS
 62
    7
 10
533.30572375791519
 20
386.73088009173591
 11
355.42174714065249
 21
208.84714454102982
  0
LINE
  8
_0-0_
  6
CONTINUOUS
 62
    7
 10
871.47361443747695
 20
421.91977357459609
 11
1050.8104331825555
 21
421.91977357459609
  0
LINE
  8
_0-0_
  6
CONTINUOUS
 62
    7
 10
838.02915484866685
 20
421.91977357459609
 11
871.47361443747695
 21
421.91977357459609
  0
LINE
  8
_0-0_
  6
CONTINUOUS
 62
    7
 10
688.84430836327488
 20
406.30306524249187
 11
838.02915484866685
 21
421.91977357459609
  0
LINE
  8
_0-0_
  6
CONTINUOUS
 62
    7
 10
550.81043318255547
 20
544.30326160366565
 11
550.81043318255547
 21
819.51487257793428
  0
TEXT
  8
_e-0_
 62
    7
 10
624.18460779526856
 20
750.29496792422492
 40
20.000000000000107
 41
0.9999999999999935
 50
0
  1
リベットルーフ
  0
TEXT
  8
_e-0_
 62
    7
 10
625.89224039552721
 20
687.11256171465175
 40
20.000000000000107
 41
0.9999999999999962
 50
0
  1
ＡＹボンド５８０ＮＦ
  0
TEXT
  8
_e-0_
 62
    7
 10
671.78486652748074
 20
560.74774929550563
 40
20.000000000000107
 41
0.9999999999999962
 50
0
  1
ストレーナー
  0
LINE
  8
_2-0_
  6
CONTINUOUS
 62
    7
 10
635.31688921112482
 20
407.55420305495977
 11
662.38470891811983
 21
360.67136407233011
  0
LINE
  8
_2-0_
  6
CONTINUOUS
 62
    7
 10
662.38470891811983
 20
360.67136407233011
 11
669.64369771965892
 21
360.67136407233011
  0
TEXT
  8
_e-0_
 62
    7
 10
673.33383925249973
 20
351.45871722848284
 40
20.000000000000107
 41
0.9999999999999962
 50
0
  1
エフレックス又はＡＹシールＭＳ-１
  0
TEXT
  8
_e-0_
 62
    7
 10
835.81186162278732
 20
471.35912159292849
 40
20.000000000000107
 41
0.9999999999999962
 50
0
  1
ＡＹボンド５８０ＮＦ
  0
LINE
  8
_2-0_
  6
CONTINUOUS
 62
    7
 10
784.3631949091257
 20
417.75011299166096
 11
821.42936360996191
 21
481.95060042342851
  0
LINE
  8
_2-0_
  6
CONTINUOUS
 62
    7
 10
821.42936360996191
 20
481.95060042342851
 11
832.11965629914903
 21
481.95060042342851
  0
CIRCLE
  8
_2-0_
  6
CONTINUOUS
 62
    7
 10
784.3631949091257
 20
417.75011299166096
 40
2
  0
CIRCLE
  8
_2-0_
  6
CONTINUOUS
 62
    7
 10
760.68179765130981
 20
419.17344173441734
 40
2
  0
LINE
  8
_2-0_
  6
CONTINUOUS
 62
    7
 10
760.56917936650393
 20
419.08295871743337
 11
812.30661105806689
 21
508.69481906034446
  0
LINE
  8
_2-0_
  6
CONTINUOUS
 62
    7
 10
812.30661105806689
 20
508.69481906034446
 11
822.99690374725401
 21
508.69481906034446
  0
TEXT
  8
_e-0_
 62
    7
 10
826.6891090708923
 20
498.10334022984443
 40
20.000000000000107
 41
0.9999999999999962
 50
0
  1
ＦＬシール
  0
TEXT
  8
_2-0_
 62
    7
 10
180.65418445220558
 20
114.90994049928844
 40
20.000000000000018
 41
0.9999999999999988
 50
0
  1
(カネソウ社製ＷＸＨ、第一機材社製ＲＬ-Ｗ-Ｋなど)
  0
LINE
  8
_0-0_
  6
CONTINUOUS
 62
    7
 10
946.70493948040234
 20
421.91977357459615
 11
902.2991300732258
 21
377.51396416741954
  0
LINE
  8
_0-0_
  6
CONTINUOUS
 62
    7
 10
872.51864226834766
 20
347.73347636254152
 11
733.63231044683619
 21
208.84714454102982
  0
LINE
  8
_0-0_
  6
CONTINUOUS
 62
    7
 10
960.84707510413318
 20
421.91977357459609
 11
916.44126569695675
 21
377.51396416741954
  0
LINE
  8
_0-0_
  6
CONTINUOUS
 62
    7
 10
886.66077789207861
 20
347.73347636254158
 11
747.77444607056714
 21
208.84714454102982
  0
LINE
  8
_0-0_
  6
CONTINUOUS
 62
    7
 10
974.98921072786425
 20
421.91977357459615
 11
930.5834013206877
 21
377.51396416741954
  0
LINE
  8
_0-0_
  6
CONTINUOUS
 62
    7
 10
900.80291351580968
 20
347.73347636254152
 11
761.91658169429797
 21
208.84714454102982
  0
ENDSEC
  0
EOF
