  0
SECTION
  2
HEADER
  9
$ACADVER
  1
AC1009
  9
$INSBASE
 10
0
 20
0
 30
0
  9
$EXTMIN
 10
0
 20
0
  9
$EXTMAX
 10
1485
 20
1050
  9
$LIMMIN
 10
0
 20
0
  9
$LIMMAX
 10
1485
 20
1050
  9
$LTSCALE
 40
5
  0
ENDSEC
  0
SECTION
  2
TABLES
  0
TABLE
  2
LTYPE
 70
     9
  0
LTYPE
  2
CONTINUOUS
 70
    64
  3
実線
 72
    65
 73
     0
 40
0.0
  0
LTYPE
  2
DASHED1
 70
    64
  3
--  --  --  --  --  --  --  --  
 72
    65
 73
     2
 40
2.5
 49
1.25
 49
-1.25
  0
LTYPE
  2
DASHED2
 70
    64
  3
----    ----    ----    ----    
 72
    65
 73
     2
 40
5.0
 49
2.5
 49
-2.5
  0
LTYPE
  2
DASHED3
 70
    64
  3
------  ------  ------  ------  
 72
    65
 73
     2
 40
5.0
 49
3.75
 49
-1.25
  0
LTYPE
  2
CENTER1
 70
    64
  3
----- - ----- - ----- - ----- - 
 72
    65
 73
     4
 40
10.0
 49
6.25
 49
-1.25
 49
1.25
 49
-1.25
  0
LTYPE
  2
CENTER2
 70
    64
  3
----------  --  ----------  --  
 72
    65
 73
     4
 40
20.0
 49
12.5
 49
-2.5
 49
2.5
 49
-2.5
  0
LTYPE
  2
PHANTOM1
 70
    64
  3
--- - - --- - - --- - - --- - - 
 72
    65
 73
     6
 40
10.0
 49
3.25
 49
-1.25
 49
1.25
 49
-1.25
 49
1.25
 49
-1.25
  0
LTYPE
  2
PHANTOM2
 70
    64
  3
--------  -  -  --------  -  -  
 72
    65
 73
     6
 40
20.0
 49
10.0
 49
-2.5
 49
1.25
 49
-2.5
 49
1.25
 49
-2.5
  0
LTYPE
  2
DOT
 70
    64
  3
-   -   -   -   -   -   -   -   
 72
    65
 73
     2
 40
2.5
 49
0.625
 49
-1.875
  0
LTYPE
  2
DUMMY
 70
    64
  3
ダミー
 72
    65
 73
     0
 40
0.0
  0
LTYPE
  2
RAND1
 70
    64
  3
ランダム線1
 72
    65
 73
     4
 40
10.0
 49
1.0
 49
-2.0
 49
3.0
 49
-4.0
  0
LTYPE
  2
RAND2
 70
    64
  3
ランダム線2
 72
    65
 73
     4
 40
14.0
 49
2.0
 49
-3.0
 49
4.0
 49
-5.0
  0
LTYPE
  2
RAND3
 70
    64
  3
ランダム線3
 72
    65
 73
     4
 40
18.0
 49
3.0
 49
-4.0
 49
5.0
 49
-6.0
  0
LTYPE
  2
RAND4
 70
    64
  3
ランダム線4
 72
    65
 73
     4
 40
22.0
 49
4.0
 49
-5.0
 49
6.0
 49
-7.0
  0
LTYPE
  2
RAND5
 70
    64
  3
ランダム線5
 72
    65
 73
     4
 40
26.0
 49
5.0
 49
-6.0
 49
7.0
 49
-8.0
  0
LTYPE
  2
LONG1
 70
    64
  3
----------  --  ----------  --  
 72
    65
 73
     4
 40
40.0
 49
32.5
 49
-2.5
 49
2.5
 49
-2.5
  0
LTYPE
  2
LONG2
 70
    64
  3
--------  -  -  --------  -  -  
 72
    65
 73
     6
 40
40.0
 49
30.0
 49
-2.5
 49
1.25
 49
-2.5
 49
1.25
 49
-2.5
  0
LTYPE
  2
LONG3
 70
    64
  3
+++++++++++++++..+++++++++++++++
 72
    65
 73
     2
 40
40.0
 49
37.5
 49
-2.5
  0
LTYPE
  2
LONG4
 70
    64
  3
+++++++++++++++..+++++++++++++++
 72
    65
 73
     2
 40
80.0
 49
75.0
 49
-5.0
  0
LTYPE
  2
LONG5
 70
    64
  3
----------  --  ----------  --  
 72
    65
 73
     4
 40
60.0
 49
37.5
 49
-7.5
 49
7.5
 49
-7.5
  0
LTYPE
  2
dashed
 70
   64
  3
-------   -------------   ------
 72
   65
 73
    2
 40
7.5
 49
6
 49
-1.5
  0
LTYPE
  2
dashed_spaced
 70
   64
  3
----        --------        ----
 72
   65
 73
    2
 40
12
 49
6
 49
-6
  0
LTYPE
  2
long_dashed_dotted
 70
   64
  3
------------- --- --------------
 72
   65
 73
    4
 40
15.25
 49
12
 49
-1.5
 49
0.25
 49
-1.5
  0
LTYPE
  2
long_dashed_double-dotted
 70
   64
  3
----------- --- --- ------------
 72
   65
 73
    6
 40
17
 49
12
 49
-1.5
 49
0.25
 49
-1.5
 49
0.25
 49
-1.5
  0
LTYPE
  2
long_dashed_triplicate-dotted
 70
   64
  3
--------- --- --- --- ----------
 72
   65
 73
    8
 40
18.75
 49
12
 49
-1.5
 49
0.25
 49
-1.5
 49
0.25
 49
-1.5
 49
0.25
 49
-1.5
  0
LTYPE
  2
dotted
 70
   64
  3
   -       -       -       -    
 72
   65
 73
    2
 40
1.75
 49
0.25
 49
-1.5
  0
LTYPE
  2
chain
 70
   64
  3
-------------- -- --------------
 72
   65
 73
    4
 40
18.5
 49
12
 49
-1.5
 49
3.5
 49
-1.5
  0
LTYPE
  2
chain_double_dash
 70
   64
  3
------------ -- -- -------------
 72
   65
 73
    6
 40
23.5
 49
12
 49
-1.5
 49
3.5
 49
-1.5
 49
3.5
 49
-1.5
  0
LTYPE
  2
dashed_dotted
 70
   64
  3
-----------     -     ----------
 72
   65
 73
    4
 40
9.25
 49
6
 49
-1.5
 49
0.25
 49
-1.5
  0
LTYPE
  2
double-dashed_dotted
 70
   64
  3
------   -----------   -   -----
 72
   65
 73
    6
 40
16.75
 49
6
 49
-1.5
 49
6
 49
-1.5
 49
0.25
 49
-1.5
  0
LTYPE
  2
dashed_double-dotted
 70
   64
  3
---------    -    -    ---------
 72
   65
 73
    6
 40
11
 49
6
 49
-1.5
 49
0.25
 49
-1.5
 49
0.25
 49
-1.5
  0
LTYPE
  2
double-dashed_double-dotted
 70
   64
  3
-----   ---------   -   -   ----
 72
   65
 73
    8
 40
18.5
 49
6
 49
-1.5
 49
6
 49
-1.5
 49
0.25
 49
-1.5
 49
0.25
 49
-1.5
  0
LTYPE
  2
dashed_triplicate-dotted
 70
   64
  3
-------    -    -    -    ------
 72
   65
 73
    8
 40
12.75
 49
6
 49
-1.5
 49
0.25
 49
-1.5
 49
0.25
 49
-1.5
 49
0.25
 49
-1.5
  0
LTYPE
  2
double-dashed_triplicate-dotted
 70
   64
  3
-----  ---------  -  -  -  -----
 72
   65
 73
   10
 40
20.25
 49
6
 49
-1.5
 49
6
 49
-1.5
 49
0.25
 49
-1.5
 49
0.25
 49
-1.5
 49
0.25
 49
-1.5
  0
LTYPE
  2
undefined
 70
   64
  3
--------------------------------
 72
   65
 73
    0
 40
0
  0
ENDTAB
  0
TABLE
  2
STYLE
  5
3
100
AcDbSymbolTable
 70
     1
  0
STYLE
  5
10
100
AcDbSymbolTableRecord
100
AcDbTextStyleTableRecord
  2
STANDARD
 70
     0
 40
0.0
 41
1.0
 50
0.0
 71
     0
 42
0.2
  3
txt
  4
bigfont.shx
  0
STYLE
  5
26
100
AcDbSymbolTableRecord
100
AcDbTextStyleTableRecord
  2
TATEGAKI
 70
    68
 40
0.0
 41
1.0
 50
0.0
 71
     0
 42
1.0
  3
txt
  4
bigfont.shx
  0
ENDTAB
  0
TABLE
  2
LAYER
 70
    4
  0
LAYER
  2
_0-0_
 70
   64
 62
    7
  6
CONTINUOUS
  0
LAYER
  2
_2-0_
 70
   64
 62
    7
  6
CONTINUOUS
  0
LAYER
  2
_e-0_
 70
   64
 62
    7
  6
CONTINUOUS
  0
LAYER
  2
ADD_LINE
 70
   64
 62
    7
  6
CONTINUOUS
  0
ENDTAB
  0
ENDSEC
  0
SECTION
  2
BLOCKS
  0
ENDSEC
  0
SECTION
  2
ENTITIES
  0
LINE
  8
_e-0_
  6
CONTINUOUS
 62
    7
 10
1447.3064931608114
 20
221.03177475142792
 11
1447.3064931608114
 21
41.031774751427932
  0
TEXT
  8
_e-0_
 62
    7
 10
1067.3064931608114
 20
166.03177475142792
 40
20.000000000000018
 41
0.9999999999999986
 50
0
  1
ﾘﾍﾞｯﾄﾙｰﾌ ﾅｲﾝ
  0
TEXT
  8
_e-0_
 62
    7
 10
1067.3064931608114
 20
136.03177475142792
 40
20.000000000000018
 41
0.9999999999999986
 50
0
  1
ﾘﾍﾞｯﾄﾙｰﾌ SGM
  0
TEXT
  8
_e-0_
 62
    7
 10
1067.3064931608114
 20
106.03177475142793
 40
20
 41
1.0000000000000002
 50
0
  1
ﾘﾍﾞｯﾄﾙｰﾌ COOL
  0
TEXT
  8
_e-0_
 62
    7
 10
1067.3064931608114
 20
76.031774751427932
 40
19.999999999999996
 41
1.0000000000000002
 50
0
  1
ﾘﾍﾞｯﾄﾙｰﾌ SW
  0
TEXT
  8
_e-0_
 62
    7
 10
1067.3064931608114
 20
46.031774751427932
 40
19.999999999999972
 41
1.0000000000000013
 50
0
  1
ﾘﾍﾞｯﾄﾙｰﾌ HP
  0
LINE
  8
_e-0_
  6
CONTINUOUS
 62
    7
 10
1047.3064931608114
 20
221.03177475142792
 11
1047.3064931608114
 21
41.031774751427932
  0
TEXT
  8
_e-0_
 62
    7
 10
1067.3064931608114
 20
196.03177475142792
 40
20.000000000000018
 41
0.9999999999999993
 50
0
  1
シート名称
  0
LINE
  8
_e-0_
  6
CONTINUOUS
 62
    7
 10
1217.9103688764553
 20
221.03177475142792
 11
1217.9103688764553
 21
41.031774751427932
  0
LINE
  8
_e-0_
  6
CONTINUOUS
 62
    9
 10
1277.9103688764553
 20
221.03177475142792
 11
1277.9103688764553
 21
41.031774751427932
  0
TEXT
  8
_e-0_
 62
    7
 10
1237.9103688764553
 20
166.03177475142792
 40
20.000000000000018
 41
0.9999999999999988
 50
0
  1
○
  0
TEXT
  8
_e-0_
 62
    7
 10
1237.9103688764553
 20
136.03177475142792
 40
20.000000000000018
 41
0.9999999999999988
 50
0
  1
○
  0
TEXT
  8
_e-0_
 62
    7
 10
1237.9103688764553
 20
106.03177475142793
 40
20
 41
0.9999999999999997
 50
0
  1
○
  0
TEXT
  8
_e-0_
 62
    7
 10
1237.9103688764553
 20
76.031774751427932
 40
19.999999999999996
 41
1
 50
0
  1
○
  0
TEXT
  8
_e-0_
 62
    7
 10
1237.9103688764553
 20
46.031774751427932
 40
19.999999999999972
 41
1.0000000000000011
 50
0
  1
○
  0
LINE
  8
_e-0_
  6
CONTINUOUS
 62
    7
 10
1277.9103688764553
 20
41.031774751427932
 11
1277.9103688764553
 21
221.03177475142792
  0
TEXT
  8
_e-0_
 62
    7
 10
1227.9103688764553
 20
196.03177475142792
 40
20.000000000000018
 41
0.9999999999999993
 50
0
  1
対応
  0
TEXT
  8
_e-0_
 62
    7
 10
1299.0364316016417
 20
195.09455457098449
 40
20.000000000000018
 41
0.9999999999999991
 50
0
  1
シート厚み
  0
TEXT
  8
_e-0_
 62
    7
 10
1288.6817929669633
 20
166.03177475142792
 40
20.000000000000018
 41
0.9999999999999995
 50
0
  1
1.5㎜、2.0㎜
  0
TEXT
  8
_e-0_
 62
    7
 10
1288.6817929669633
 20
136.03177475142792
 40
20.000000000000018
 41
0.9999999999999995
 50
0
  1
1.5㎜、2.0㎜
  0
TEXT
  8
_e-0_
 62
    7
 10
1288.6817929669633
 20
106.03177475142793
 40
20
 41
1.0000000000000004
 50
0
  1
1.5㎜、2.0㎜
  0
TEXT
  8
_e-0_
 62
    7
 10
1288.6817929669633
 20
76.031774751427932
 40
19.999999999999996
 41
1.0000000000000007
 50
0
  1
1.5㎜、2.0㎜
  0
TEXT
  8
_e-0_
 62
    7
 10
1323.6817929669633
 20
46.031774751427932
 40
19.999999999999972
 41
1.0000000000000009
 50
0
  1
2.0㎜
  0
TEXT
  8
_e-0_
 62
    7
 10
1408.884319905128
 20
116.4160859797515
 40
10
 41
1.0000000000000053
 50
0
  1
※
  0
TEXT
  8
_e-0_
 62
    7
 10
1409.1300889474883
 20
86.776339471109551
 40
9.9999999999999858
 41
1.0000000000000067
 50
0
  1
※
  0
TEXT
  8
_e-0_
 62
    7
 10
1351.5111447489369
 20
26.235232036376459
 40
9.9999999999999645
 41
1.0000000000000044
 50
0
  1
※印は受注生産品
  0
LINE
  8
_e-0_
  6
CONTINUOUS
 62
    7
 10
1047.3064931608114
 20
221.03177475142792
 11
1447.3064931608114
 21
221.03177475142792
  0
LINE
  8
_e-0_
  6
CONTINUOUS
 62
    7
 10
1047.3064931608114
 20
41.031774751427932
 11
1447.3064931608114
 21
41.031774751427932
  0
LINE
  8
_e-0_
  6
CONTINUOUS
 62
    7
 10
1047.3064931608114
 20
191.03177475142792
 11
1447.3064931608114
 21
191.03177475142792
  0
LINE
  8
_e-0_
  6
CONTINUOUS
 62
    7
 10
1047.3064931608114
 20
161.03177475142792
 11
1447.3064931608114
 21
161.03177475142792
  0
LINE
  8
_e-0_
  6
CONTINUOUS
 62
    7
 10
1047.3064931608114
 20
131.03177475142792
 11
1447.3064931608114
 21
131.03177475142792
  0
LINE
  8
_e-0_
  6
CONTINUOUS
 62
    7
 10
1047.3064931608114
 20
101.03177475142793
 11
1447.3064931608114
 21
101.03177475142793
  0
LINE
  8
_e-0_
  6
CONTINUOUS
 62
    7
 10
1047.3064931608114
 20
71.031774751427932
 11
1447.3064931608114
 21
71.031774751427932
  0
LINE
  8
_e-0_
  6
CONTINUOUS
 62
    9
 10
1217.9103688764553
 20
176.03177475142792
 11
1277.9103688764553
 21
176.03177475142792
  0
LINE
  8
_e-0_
  6
CONTINUOUS
 62
    9
 10
1217.9103688764553
 20
146.03177475142792
 11
1277.9103688764553
 21
146.03177475142792
  0
LINE
  8
_e-0_
  6
CONTINUOUS
 62
    9
 10
1247.9103688764553
 20
191.03177475142792
 11
1247.9103688764553
 21
41.031774751427932
  0
LINE
  8
_e-0_
  6
CONTINUOUS
 62
    9
 10
1217.9103688764553
 20
56.031774751427932
 11
1277.9103688764553
 21
56.031774751427932
  0
LINE
  8
_e-0_
  6
CONTINUOUS
 62
    9
 10
1217.9103688764553
 20
86.031774751427932
 11
1277.9103688764553
 21
86.031774751427932
  0
LINE
  8
_e-0_
  6
CONTINUOUS
 62
    9
 10
1217.9103688764553
 20
116.03177475142793
 11
1277.9103688764553
 21
116.03177475142793
  0
LINE
  8
_2-0_
  6
CONTINUOUS
 62
    7
 10
911.10766878884965
 20
578.70797262347469
 11
956.96266975218862
 21
578.70797262347469
  0
LINE
  8
_2-0_
  6
CONTINUOUS
 62
    7
 10
910.70574500020302
 20
577.20797262347457
 11
956.96266975218862
 21
577.20797262347457
  0
LINE
  8
_2-0_
  6
CONTINUOUS
 62
    7
 10
839.37254721738225
 20
578.70797262347469
 11
844.77229904331125
 21
578.70797262347469
  0
LINE
  8
_2-0_
  6
CONTINUOUS
 62
    7
 10
839.50152501440334
 20
577.20797262347457
 11
845.17422283195799
 21
577.20797262347457
  0
LINE
  8
_2-0_
  6
CONTINUOUS
 62
    7
 10
767.24748529892747
 20
564.68986474069879
 11
727.15828310350298
 21
553.94892567182103
  0
LINE
  8
_2-0_
  6
CONTINUOUS
 62
    7
 10
723.75694538661196
 20
546.77193103003003
 11
724.22361505103186
 21
550.57192889733426
  0
ARC
  8
_2-0_
  6
CONTINUOUS
 62
    7
 10
728.19374001661458
 20
550.08438079172242
 40
4.0008596763154181
 50
104.99958801269531
 51
173.00027465820312
  0
ARC
  8
_2-0_
  6
CONTINUOUS
 62
    7
 10
728.19374001661458
 20
550.08438079172242
 40
5.5008596763154181
 50
104.99958801269531
 51
173.00027465820312
  0
LINE
  8
_2-0_
  6
CONTINUOUS
 62
    7
 10
722.26813035820601
 20
546.9547692404584
 11
722.7348000226259
 21
550.75476710776263
  0
LINE
  8
_2-0_
  6
CONTINUOUS
 62
    7
 10
766.92469896446437
 20
566.1562871554197
 11
726.77008590586865
 21
555.39782281646205
  0
LINE
  8
_2-0_
  6
CONTINUOUS
 62
    7
 10
723.75694538661196
 20
546.77193103003003
 11
722.26813035820601
 21
546.9547692404584
  0
LINE
  8
_2-0_
  6
CONTINUOUS
 62
    7
 10
720.37069309353922
 20
543.91044069378063
 11
723.28957962587526
 21
546.82932722611667
  0
LINE
  8
_2-0_
  6
CONTINUOUS
 62
    7
 10
718.85571198677076
 20
545.22388671175338
 11
722.50354725077477
 21
548.8717219757574
  0
LINE
  8
_2-0_
  6
CONTINUOUS
 62
    7
 10
717.82043580635991
 20
547.01703765609284
 11
723.20454775083749
 21
552.40114960057042
  0
LINE
  8
_2-0_
  6
CONTINUOUS
 62
    7
 10
715.74988344553981
 20
550.60333954476437
 11
719.83886680051398
 21
554.69232289973843
  0
LINE
  8
_2-0_
  6
CONTINUOUS
 62
    7
 10
714.71460726513124
 20
552.396490489097
 11
717.01043967577311
 21
554.69232289973866
  0
LINE
  8
_2-0_
  6
CONTINUOUS
 62
    7
 10
713.67933108471925
 20
554.18964143343533
 11
714.18201255102474
 21
554.6923228997407
  0
LINE
  8
_2-0_
  6
CONTINUOUS
 62
    7
 10
713.38910780483218
 20
554.69232289973979
 11
719.64339583749461
 21
543.85957826199842
  0
LINE
  8
_2-0_
  6
CONTINUOUS
 62
    7
 10
716.785159625951
 20
548.81018860042525
 11
723.54258113531398
 21
555.56761010978823
  0
LINE
  8
_2-0_
  6
CONTINUOUS
 62
    7
 10
546.67785420544976
 20
564.68986474069879
 11
586.76705640087425
 21
553.94892567182103
  0
LINE
  8
_2-0_
  6
CONTINUOUS
 62
    7
 10
590.16839411776539
 20
546.77193103003003
 11
589.70172445334549
 21
550.57192889733426
  0
ARC
  8
_2-0_
  6
CONTINUOUS
 62
    7
 10
585.73159948776265
 20
550.08438079172254
 40
4.0008596763154181
 50
6.9997253417968874
 51
75.000411987304688
  0
ARC
  8
_2-0_
  6
CONTINUOUS
 62
    7
 10
585.73159948776265
 20
550.08438079172254
 40
5.5008596763154181
 50
6.9997253417968874
 51
75.000411987304688
  0
LINE
  8
_2-0_
  6
CONTINUOUS
 62
    7
 10
591.65720914617123
 20
546.9547692404584
 11
591.19053948175133
 21
550.75476710776263
  0
LINE
  8
_2-0_
  6
CONTINUOUS
 62
    7
 10
547.00064053991287
 20
566.1562871554197
 11
587.15525359850858
 21
555.39782281646205
  0
LINE
  8
_2-0_
  6
CONTINUOUS
 62
    7
 10
590.16839411776539
 20
546.77193103003003
 11
591.65720914617123
 21
546.9547692404584
  0
LINE
  8
_2-0_
  6
CONTINUOUS
 62
    7
 10
593.55464641083813
 20
543.91044069378063
 11
590.63575987850209
 21
546.82932722611667
  0
LINE
  8
_2-0_
  6
CONTINUOUS
 62
    7
 10
595.06962751760648
 20
545.22388671175338
 11
591.42179225360246
 21
548.8717219757574
  0
LINE
  8
_2-0_
  6
CONTINUOUS
 62
    7
 10
596.10490369801744
 20
547.01703765609284
 11
590.72079175353986
 21
552.40114960057042
  0
LINE
  8
_2-0_
  6
CONTINUOUS
 62
    7
 10
598.17545605883743
 20
550.60333954476437
 11
594.08647270386336
 21
554.69232289973843
  0
LINE
  8
_2-0_
  6
CONTINUOUS
 62
    7
 10
599.210732239246
 20
552.396490489097
 11
596.91489982860435
 21
554.69232289973866
  0
LINE
  8
_2-0_
  6
CONTINUOUS
 62
    7
 10
600.24600841965798
 20
554.18964143343533
 11
599.74332695335261
 21
554.6923228997407
  0
LINE
  8
_2-0_
  6
CONTINUOUS
 62
    7
 10
600.53623169954506
 20
554.69232289973979
 11
594.28194366688263
 21
543.85957826199842
  0
LINE
  8
_2-0_
  6
CONTINUOUS
 62
    7
 10
597.14017987842624
 20
548.81018860042525
 11
590.38275836906325
 21
555.56761010978823
  0
LINE
  8
_2-0_
  6
CONTINUOUS
 62
    7
 10
717.5048811250191
 20
551.71008053903302
 11
769.04929235672648
 21
640.98761963857385
  0
LINE
  8
_2-0_
  6
CONTINUOUS
 62
    7
 10
769.04929235672648
 20
640.98761963857385
 11
779.04929235672648
 21
640.98761963857385
  0
LINE
  8
_2-0_
  6
CONTINUOUS
 62
    7
 10
606.9627467089191
 20
536.74982930821454
 11
599.96276367622136
 21
536.74982930821454
  0
LINE
  8
_2-0_
  6
CONTINUOUS
 62
    7
 10
706.96271666265511
 20
536.74982930821454
 11
713.96269969535297
 21
536.74982930821454
  0
LINE
  8
_2-0_
  6
CONTINUOUS
 62
    7
 10
586.96265362441466
 20
538.71238117631447
 11
586.96265362441466
 21
426.20797262347469
  0
LINE
  8
_2-0_
  6
CONTINUOUS
 62
    7
 10
591.46262502154946
 20
538.71238117631447
 11
591.46262502154946
 21
426.20797262347469
  0
LINE
  8
_2-0_
  6
CONTINUOUS
 62
    7
 10
722.46277641642655
 20
538.71238117631447
 11
722.46277641642655
 21
426.20797262347469
  0
LINE
  8
_2-0_
  6
CONTINUOUS
 62
    7
 10
726.96268587996292
 20
538.71238117631447
 11
726.96268587996292
 21
426.20797262347469
  0
LINE
  8
_2-0_
  6
CENTER1
 62
    7
 10
732.96268903187502
 20
579.94042138361692
 11
732.96268903187502
 21
558.29636286150708
  0
LINE
  8
_2-0_
  6
CONTINUOUS
 62
    7
 10
729.96268745591897
 20
565.19229744878658
 11
609.46269641088406
 21
565.19229744878658
  0
LINE
  8
_2-0_
  6
CONTINUOUS
 62
    7
 10
727.7127017573514
 20
572.20912642026633
 11
738.21267630639818
 21
572.20912642026633
  0
LINE
  8
_2-0_
  6
CONTINUOUS
 62
    7
 10
732.46269909148191
 20
573.20898243385557
 11
733.46286477306307
 21
573.20898243385557
  0
LINE
  8
_2-0_
  6
CONTINUOUS
 62
    7
 10
733.46286477306307
 20
576.09087663754224
 11
733.46286477306307
 21
573.20898243385557
  0
LINE
  8
_2-0_
  6
CONTINUOUS
 62
    7
 10
732.46269909148191
 20
576.09087663754224
 11
732.46269909148191
 21
573.20898243385557
  0
LINE
  8
_2-0_
  6
CONTINUOUS
 62
    7
 10
730.46280126350871
 20
560.20887238204864
 11
735.46263873383964
 21
560.20887238204864
  0
LINE
  8
_2-0_
  6
CONTINUOUS
 62
    7
 10
729.96268745591897
 20
560.70880038884297
 11
735.96275254142938
 21
560.70880038884297
  0
LINE
  8
_2-0_
  6
CONTINUOUS
 62
    7
 10
729.96268745591897
 20
560.70880038884297
 11
730.46280126350871
 21
560.20887238204864
  0
LINE
  8
_2-0_
  6
CONTINUOUS
 62
    7
 10
735.96275254142938
 20
560.70880038884297
 11
735.46263873383964
 21
560.20887238204864
  0
LINE
  8
_2-0_
  6
CONTINUOUS
 62
    7
 10
735.96275254142938
 20
572.20912642026633
 11
735.96275254142938
 21
560.70880038884297
  0
LINE
  8
_2-0_
  6
CONTINUOUS
 62
    7
 10
735.46263873383964
 20
572.20912642026633
 11
735.46263873383964
 21
560.20887238204864
  0
LINE
  8
_2-0_
  6
CONTINUOUS
 62
    7
 10
730.46280126350871
 20
572.20912642026633
 11
730.46280126350871
 21
560.20887238204864
  0
LINE
  8
_2-0_
  6
CONTINUOUS
 62
    7
 10
729.96268745591897
 20
572.20912642026633
 11
729.96268745591897
 21
560.70880038884297
  0
LINE
  8
_2-0_
  6
CONTINUOUS
 62
    7
 10
737.9626503694027
 20
570.69200099231352
 11
736.96273242221537
 21
565.19229744878658
  0
LINE
  8
_2-0_
  6
CONTINUOUS
 62
    7
 10
736.96273242221537
 20
571.73867880634077
 11
737.9626503694027
 21
570.69200099231352
  0
LINE
  8
_2-0_
  6
CONTINUOUS
 62
    7
 10
662.46268296370772
 20
615.14100140612697
 11
663.96277665208345
 21
620.11055334680918
  0
LINE
  8
_2-0_
  6
CONTINUOUS
 62
    7
 10
674.96274114152334
 20
619.65174924939447
 11
676.46271096270198
 21
614.54693432966849
  0
LINE
  8
_2-0_
  6
CONTINUOUS
 62
    7
 10
591.12719265227292
 20
567.41571363361345
 11
600.92496406194471
 21
603.98155790064493
  0
LINE
  8
_2-0_
  6
CONTINUOUS
 62
    7
 10
575.96268913497488
 20
570.69200099231352
 11
576.96273094935918
 21
565.19229744878658
  0
LINE
  8
_2-0_
  6
CONTINUOUS
 62
    7
 10
585.50052523189663
 20
571.12553618155516
 11
575.96268913497488
 21
570.69200099231352
  0
LINE
  8
_2-0_
  6
CONTINUOUS
 62
    7
 10
651.46271847426817
 20
615.14100140612697
 11
649.96274865308919
 21
620.11055334680918
  0
LINE
  8
_2-0_
  6
CONTINUOUS
 62
    7
 10
638.96272223005099
 20
619.65174924939447
 11
637.46275240887235
 21
614.54693432966849
  0
LINE
  8
_2-0_
  6
CONTINUOUS
 62
    7
 10
631.96267726375481
 20
618.14527640037682
 11
632.96278101173755
 21
619.2306007798453
  0
LINE
  8
_2-0_
  6
CONTINUOUS
 62
    7
 10
631.96267726375481
 20
618.14527640037682
 11
633.46277095213054
 21
614.25460774492251
  0
LINE
  8
_2-0_
  6
CONTINUOUS
 62
    7
 10
605.96270489453502
 20
614.81052372472789
 11
604.96260114655229
 21
615.30004688698057
  0
LINE
  8
_2-0_
  6
CONTINUOUS
 62
    7
 10
605.96270489453502
 20
614.81052372472789
 11
604.96260114655229
 21
609.66359395804716
  0
LINE
  8
_2-0_
  6
CONTINUOUS
 62
    7
 10
602.4372586692175
 20
607.19219564497394
 11
596.75045372473369
 21
607.19219564497394
  0
LINE
  8
_2-0_
  6
DASHED1
 62
    7
 10
711.48808083515974
 20
607.19219564497394
 11
717.17488577964355
 21
607.19219564497394
  0
LINE
  8
_2-0_
  6
CONTINUOUS
 62
    7
 10
728.4248142724806
 20
571.12553618155516
 11
729.96268745591897
 21
571.05592281688303
  0
LINE
  8
_2-0_
  6
CONTINUOUS
 62
    7
 10
735.96275254142938
 20
570.78316724925116
 11
737.9626503694027
 21
570.69200099231352
  0
LINE
  8
_2-0_
  6
CONTINUOUS
 62
    7
 10
728.15342124401525
 20
572.13926532120013
 11
729.96268745591897
 21
572.05701750244089
  0
LINE
  8
_2-0_
  6
CONTINUOUS
 62
    7
 10
735.96275254142938
 20
571.78401420041553
 11
736.96273242221537
 21
571.73867880634077
  0
LINE
  8
_2-0_
  6
CONTINUOUS
 62
    7
 10
735.96275254142938
 20
565.19229744878658
 11
736.96273242221537
 21
565.19229744878658
  0
LINE
  8
_2-0_
  6
CONTINUOUS
 62
    7
 10
585.75222337605112
 20
566.67449232720651
 11
596.09532012019054
 21
605.2757223741304
  0
LINE
  8
_2-0_
  6
CONTINUOUS
 62
    7
 10
727.4626758203558
 20
565.19229744878658
 11
728.96264564153455
 21
571.10125821095778
  0
LINE
  8
_2-0_
  6
CONTINUOUS
 62
    7
 10
722.79833265289994
 20
567.41571363361345
 11
713.00056124322793
 21
603.98155790064493
  0
LINE
  8
_2-0_
  6
CONTINUOUS
 62
    7
 10
726.58389999176222
 20
572.60599691921811
 11
717.83008131778524
 21
605.2757223741304
  0
LINE
  8
_2-0_
  6
CONTINUOUS
 62
    7
 10
594.4626265975055
 20
565.19229744878658
 11
576.96273094935918
 21
565.19229744878658
  0
LINE
  8
_2-0_
  6
CONTINUOUS
 62
    7
 10
650.7609488700823
 20
571.19192899910786
 11
663.16451450149202
 21
571.19192899910786
  0
LINE
  8
_2-0_
  6
CONTINUOUS
 62
    7
 10
674.62223021717307
 20
571.19192899910786
 11
686.04507731691911
 21
571.19192899910786
  0
LINE
  8
_2-0_
  6
CONTINUOUS
 62
    7
 10
696.22974791618981
 20
571.19192899910786
 11
705.60606118831993
 21
571.19192899910786
  0
LINE
  8
_2-0_
  6
CONTINUOUS
 62
    7
 10
651.58107358093105
 20
605.24029635580973
 11
650.61639585126932
 21
565.19229744878658
  0
LINE
  8
_2-0_
  6
CONTINUOUS
 62
    7
 10
662.34438979064316
 20
605.24029635580973
 11
663.30900558670669
 21
565.19229744878658
  0
LINE
  8
_2-0_
  6
CONTINUOUS
 62
    7
 10
672.58981725000638
 20
605.07233243677774
 11
674.98218829144071
 21
565.19229744878658
  0
LINE
  8
_2-0_
  6
CONTINUOUS
 62
    7
 10
682.66659952075486
 20
605.38868925772704
 11
686.63784378780974
 21
565.19229744878658
  0
LINE
  8
_2-0_
  6
CONTINUOUS
 62
    7
 10
691.72965265185837
 20
604.92765555076744
 11
697.03005387553048
 21
565.19229744878658
  0
LINE
  8
_2-0_
  6
CONTINUOUS
 62
    7
 10
699.87955680722109
 20
605.52122715843836
 11
706.60684620588597
 21
565.19229744878658
  0
LINE
  8
_2-0_
  6
CONTINUOUS
 62
    7
 10
706.68847468866034
 20
604.81741374550325
 11
714.24517883794351
 21
565.19229744878658
  0
LINE
  8
_2-0_
  6
CONTINUOUS
 62
    7
 10
713.1009556063367
 20
571.19192899910786
 11
719.16598903663521
 21
571.19192899910786
  0
LINE
  8
_2-0_
  6
CONTINUOUS
 62
    7
 10
712.15318574905552
 20
604.03705040486784
 11
720.44702358724658
 21
565.19229744878658
  0
LINE
  8
_2-0_
  6
CONTINUOUS
 62
    7
 10
708.84376391517753
 20
607.19219564497394
 11
709.45752587594711
 21
607.19219564497394
  0
LINE
  8
_2-0_
  6
CONTINUOUS
 62
    7
 10
705.89690136670299
 20
603.63027053016197
 11
713.26285003271948
 21
565.00501024703431
  0
LINE
  8
_2-0_
  6
CONTINUOUS
 62
    7
 10
693.8454901761545
 20
607.19219564497394
 11
697.90672396177627
 21
607.19219564497394
  0
LINE
  8
_2-0_
  6
CONTINUOUS
 62
    7
 10
690.87181037954542
 20
603.79550937086151
 11
696.03886856572672
 21
565.06000728246931
  0
LINE
  8
_2-0_
  6
CONTINUOUS
 62
    7
 10
674.6461985197783
 20
607.19219564497394
 11
680.67623946694482
 21
607.19219564497394
  0
LINE
  8
_2-0_
  6
CONTINUOUS
 62
    7
 10
671.65152323328982
 20
604.01252469987639
 11
673.9839425514117
 21
565.13234572547447
  0
LINE
  8
_2-0_
  6
CONTINUOUS
 62
    7
 10
663.36815217323874
 20
604.26447057842438
 11
664.30867579950018
 21
565.21632768499046
  0
LINE
  8
_2-0_
  6
CONTINUOUS
 62
    7
 10
653.55644570391291
 20
607.19219564497394
 11
660.36901766766141
 21
607.19219564497394
  0
LINE
  8
_2-0_
  6
CONTINUOUS
 62
    7
 10
650.55731119833558
 20
604.26447057842438
 11
649.61666370487728
 21
565.21632768499046
  0
LINE
  8
_2-0_
  6
CONTINUOUS
 62
    7
 10
639.30304735360608
 20
571.19192899910786
 11
627.88026218745836
 21
571.19192899910786
  0
LINE
  8
_2-0_
  6
CONTINUOUS
 62
    7
 10
617.69559158818765
 20
571.19192899910786
 11
608.31934024965585
 21
571.19192899910786
  0
LINE
  8
_2-0_
  6
CONTINUOUS
 62
    7
 10
641.33552225437086
 20
605.07233243677774
 11
638.9432131465353
 21
565.19229744878658
  0
LINE
  8
_2-0_
  6
CONTINUOUS
 62
    7
 10
631.25880191722104
 20
605.38868925772704
 11
627.28749571656772
 21
565.19229744878658
  0
LINE
  8
_2-0_
  6
CONTINUOUS
 62
    7
 10
622.1956868525192
 20
604.92765555076744
 11
616.89528562884675
 21
565.19229744878658
  0
LINE
  8
_2-0_
  6
CONTINUOUS
 62
    7
 10
601.77209182172362
 20
604.03705040486784
 11
593.47831591713066
 21
565.19229744878658
  0
LINE
  8
_2-0_
  6
CONTINUOUS
 62
    7
 10
597.96268004745286
 20
571.19192899910786
 11
594.75935046774225
 21
571.19192899910786
  0
LINE
  8
_2-0_
  6
CONTINUOUS
 62
    7
 10
614.04578269715614
 20
605.52122715843836
 11
607.48503274475888
 21
566.19017158722477
  0
LINE
  8
_2-0_
  6
CONTINUOUS
 62
    7
 10
639.27907905100085
 20
607.19219564497394
 11
633.24910003743275
 21
607.19219564497394
  0
LINE
  8
_2-0_
  6
CONTINUOUS
 62
    7
 10
642.27375433748898
 20
604.01252469987639
 11
639.94139695296553
 21
565.13234572547447
  0
LINE
  8
_2-0_
  6
CONTINUOUS
 62
    7
 10
620.07978739462465
 20
607.19219564497394
 11
616.01861554260097
 21
607.19219564497394
  0
LINE
  8
_2-0_
  6
CONTINUOUS
 62
    7
 10
623.05346719123372
 20
603.79550937086151
 11
617.88653287224918
 21
565.06000728246931
  0
LINE
  8
_2-0_
  6
CONTINUOUS
 62
    7
 10
605.08151365560138
 20
607.19219564497394
 11
604.46781362843012
 21
607.19219564497394
  0
LINE
  8
_2-0_
  6
CONTINUOUS
 62
    7
 10
607.23680288211881
 20
604.81741374550325
 11
602.09129758820268
 21
577.83566997344565
  0
LINE
  8
_2-0_
  6
CONTINUOUS
 62
    7
 10
608.02843813767458
 20
603.63027053016197
 11
603.10930014614109
 21
577.83566997344565
  0
LINE
  8
_2-0_
  6
CONTINUOUS
 62
    7
 10
738.21267001626734
 20
572.20912642026633
 11
738.21267001626734
 21
572.20912642026633
  0
LINE
  8
_2-0_
  6
CONTINUOUS
 62
    7
 10
738.21267001626734
 20
572.20912642026633
 11
738.13291100847118
 21
572.8862997659694
  0
LINE
  8
_2-0_
  6
CONTINUOUS
 62
    7
 10
738.13291100847118
 20
572.8862997659694
 11
737.89605742217486
 21
573.54289754222953
  0
LINE
  8
_2-0_
  6
CONTINUOUS
 62
    7
 10
737.89605742217486
 20
573.54289754222953
 11
737.50930593374403
 21
574.15896935786964
  0
LINE
  8
_2-0_
  6
CONTINUOUS
 62
    7
 10
737.50930593374403
 20
574.15896935786964
 11
736.98440779144903
 21
574.71579618251872
  0
LINE
  8
_2-0_
  6
CONTINUOUS
 62
    7
 10
736.98440779144903
 20
574.71579618251872
 11
736.3373117597323
 21
575.19645911487794
  0
LINE
  8
_2-0_
  6
CONTINUOUS
 62
    7
 10
736.3373117597323
 20
575.19645911487794
 11
735.58767952407118
 21
575.58635345497464
  0
LINE
  8
_2-0_
  6
CONTINUOUS
 62
    7
 10
735.58767952407118
 20
575.58635345497464
 11
734.7582882806139
 21
575.87363246058101
  0
LINE
  8
_2-0_
  6
CONTINUOUS
 62
    7
 10
734.7582882806139
 20
575.87363246058101
 11
733.87433866260074
 21
576.04956730448203
  0
LINE
  8
_2-0_
  6
CONTINUOUS
 62
    7
 10
733.87433866260074
 20
576.04956730448203
 11
733.46271533554898
 21
576.09108436076542
  0
LINE
  8
_2-0_
  6
CONTINUOUS
 62
    7
 10
732.46266272820105
 20
576.09108436076542
 11
732.46266272820105
 21
576.09108436076542
  0
LINE
  8
_2-0_
  6
CONTINUOUS
 62
    7
 10
732.46266272820105
 20
576.09108436076542
 11
731.56275397108698
 21
575.96761237094938
  0
LINE
  8
_2-0_
  6
CONTINUOUS
 62
    7
 10
731.56275397108698
 20
575.96761237094938
 11
730.70538153239363
 21
575.72994068740763
  0
LINE
  8
_2-0_
  6
CONTINUOUS
 62
    7
 10
730.70538153239363
 20
575.72994068740763
 11
729.91659623981934
 21
575.38529084397669
  0
LINE
  8
_2-0_
  6
CONTINUOUS
 62
    7
 10
729.91659623981934
 20
575.38529084397669
 11
729.22036493533426
 21
574.94413485174812
  0
LINE
  8
_2-0_
  6
CONTINUOUS
 62
    7
 10
729.22036493533426
 20
574.94413485174812
 11
728.63784225481527
 21
574.41987701230994
  0
LINE
  8
_2-0_
  6
CONTINUOUS
 62
    7
 10
728.63784225481527
 20
574.41987701230994
 11
728.18672785513911
 21
573.82844663482638
  0
LINE
  8
_2-0_
  6
CONTINUOUS
 62
    7
 10
728.18672785513911
 20
573.82844663482638
 11
727.88072861906517
 21
573.187814032039
  0
LINE
  8
_2-0_
  6
CONTINUOUS
 62
    7
 10
727.88072861906517
 20
573.187814032039
 11
727.72914217853838
 21
572.51744450140768
  0
LINE
  8
_2-0_
  6
CONTINUOUS
 62
    7
 10
727.72914217853838
 20
572.51744450140768
 11
727.71270804748269
 21
572.20912642026633
  0
ARC
  8
_2-0_
  6
CONTINUOUS
 62
    7
 10
703.34139722691702
 20
601.39322895367343
 40
10.000002995190933
 50
14.999969482421875
 51
80.634521484375
  0
ARC
  8
_2-0_
  6
CONTINUOUS
 62
    7
 10
703.34114949252296
 20
601.39322895367343
 40
15.000002073505209
 50
15.000030517578127
 51
80.634536743164062
  0
ARC
  8
_2-0_
  6
CONTINUOUS
 62
    7
 10
656.96273168578728
 20
320.19214810117944
 40
295.00007239087671
 50
80.634506225585937
 51
99.365493774414048
  0
ARC
  8
_2-0_
  6
CONTINUOUS
 62
    7
 10
656.96273168578728
 20
320.19214810117944
 40
300.0000646952036
 50
80.634521484375
 51
99.365478515625014
  0
ARC
  8
_2-0_
  6
CONTINUOUS
 62
    7
 10
725.69608185779316
 20
568.19236095834128
 40
3.0000003663154184
 50
194.99972534179687
 51
270
  0
ARC
  8
_2-0_
  6
CONTINUOUS
 62
    7
 10
728.24421589936208
 20
574.13699547322722
 40
2.000000284531632
 50
195.00080871582031
 51
267.39830017089844
  0
ARC
  8
_2-0_
  6
CONTINUOUS
 62
    7
 10
728.51579472862284
 20
573.12376180237038
 40
2.000000284531632
 50
194.99977111816406
 51
267.39830017089844
  0
ARC
  8
_2-0_
  6
CONTINUOUS
 62
    7
 10
610.58412807825584
 20
601.39322895367343
 40
10.000002995190933
 50
99.365478515625014
 51
165.00003051757812
  0
ARC
  8
_2-0_
  6
CONTINUOUS
 62
    7
 10
610.58419001185428
 20
601.39322895367343
 40
15.000002073505209
 50
99.365447998046875
 51
164.99996948242187
  0
ARC
  8
_2-0_
  6
CONTINUOUS
 62
    7
 10
588.22931958018273
 20
568.19236095834128
 40
3.0000003663154184
 50
270
 51
345.00027465820312
  0
ARC
  8
_2-0_
  6
CONTINUOUS
 62
    7
 10
585.40966864295137
 20
573.12376180237038
 40
2.000000284531632
 50
272.60169982910156
 51
345.00022888183594
  0
ARC
  8
_2-0_
  6
CONTINUOUS
 62
    7
 10
656.96273168578728
 20
320.19214810117944
 40
299.00005384761857
 50
94.796218872070327
 51
99.820877075195313
  0
ARC
  8
_2-0_
  6
CONTINUOUS
 62
    7
 10
583.82032863919017
 20
567.19200947596448
 40
2.000000284531632
 50
270
 51
344.99998474121094
  0
ARC
  8
_2-0_
  6
CONTINUOUS
 62
    7
 10
653.58059980731355
 20
605.19198814900847
 40
2.000000284531632
 50
90
 51
178.6197204589844
  0
ARC
  8
_2-0_
  6
CONTINUOUS
 62
    7
 10
660.34492549785909
 20
605.19198814900847
 40
2.000000284531632
 50
1.37921142578125
 51
90
  0
ARC
  8
_2-0_
  6
CONTINUOUS
 62
    7
 10
674.58624679646596
 20
605.19198814900847
 40
2.000000284531632
 50
90
 51
183.43327331542969
  0
ARC
  8
_2-0_
  6
CONTINUOUS
 62
    7
 10
680.67623946694482
 20
605.19198814900847
 40
2.000000284531632
 50
5.6424560546875
 51
90
  0
ARC
  8
_2-0_
  6
CONTINUOUS
 62
    7
 10
693.71214713866323
 20
605.19198814900847
 40
2.000000284531632
 50
90
 51
187.59822082519531
  0
ARC
  8
_2-0_
  6
CONTINUOUS
 62
    7
 10
697.90672396177627
 20
605.19198814900847
 40
2.000000284531632
 50
9.470184326171875
 51
90
  0
ARC
  8
_2-0_
  6
CONTINUOUS
 62
    7
 10
708.65307036550939
 20
605.19198814900847
 40
2.000000284531632
 50
90
 51
190.79673767089847
  0
ARC
  8
_2-0_
  6
CONTINUOUS
 62
    7
 10
709.45752587594711
 20
605.19198814900847
 40
2.000000284531632
 50
31.845108032226562
 51
90
  0
ARC
  8
_2-0_
  6
CONTINUOUS
 62
    7
 10
703.34121142612162
 20
601.39322895367343
 40
9.2000018652801803
 50
16.701278686523438
 51
31.845306396484379
  0
ARC
  8
_2-0_
  6
CONTINUOUS
 62
    7
 10
708.84376391517753
 20
604.19213213541923
 40
3.0000003663154184
 50
90
 51
190.79685974121094
  0
ARC
  8
_2-0_
  6
CONTINUOUS
 62
    7
 10
693.8454901761545
 20
604.19213213541923
 40
3.0000003663154184
 50
90
 51
187.59764099121097
  0
ARC
  8
_2-0_
  6
CONTINUOUS
 62
    7
 10
674.6461985197783
 20
604.19213213541923
 40
3.0000003663154184
 50
90
 51
183.43292236328128
  0
ARC
  8
_2-0_
  6
CONTINUOUS
 62
    7
 10
660.36901766766141
 20
604.19213213541923
 40
3.0000003663154184
 50
1.3800506591796875
 51
90.000000000000014
  0
ARC
  8
_2-0_
  6
CONTINUOUS
 62
    7
 10
653.55644570391291
 20
604.19213213541923
 40
3.0000003663154184
 50
90
 51
178.61994934082031
  0
ARC
  8
_2-0_
  6
CONTINUOUS
 62
    7
 10
639.33915464151005
 20
605.19198814900847
 40
2.000000284531632
 50
356.56672668457031
 51
90
  0
ARC
  8
_2-0_
  6
CONTINUOUS
 62
    7
 10
633.24910003743275
 20
605.19198814900847
 40
2.000000284531632
 50
90
 51
174.3575439453125
  0
ARC
  8
_2-0_
  6
CONTINUOUS
 62
    7
 10
620.21325429931267
 20
605.19198814900847
 40
2.000000284531632
 50
352.40177917480469
 51
90.000000000000028
  0
ARC
  8
_2-0_
  6
CONTINUOUS
 62
    7
 10
616.01861554260097
 20
605.19198814900847
 40
2.000000284531632
 50
90
 51
170.52981567382812
  0
ARC
  8
_2-0_
  6
CONTINUOUS
 62
    7
 10
605.27220720526941
 20
605.19198814900847
 40
2.000000284531632
 50
349.20326232910162
 51
90.000000000000043
  0
ARC
  8
_2-0_
  6
CONTINUOUS
 62
    7
 10
604.46781362843012
 20
605.19198814900847
 40
2.000000284531632
 50
90
 51
148.15489196777344
  0
ARC
  8
_2-0_
  6
CONTINUOUS
 62
    7
 10
610.58406614465753
 20
601.39322895367343
 40
9.2000018652801803
 50
148.15469360351565
 51
163.29872131347659
  0
ARC
  8
_2-0_
  6
CONTINUOUS
 62
    7
 10
639.27907905100085
 20
604.19213213541923
 40
3.0000003663154184
 50
356.56707763671875
 51
89.999999999999986
  0
ARC
  8
_2-0_
  6
CONTINUOUS
 62
    7
 10
620.07978739462465
 20
604.19213213541923
 40
3.0000003663154184
 50
352.40235900878906
 51
90.000000000000028
  0
ARC
  8
_2-0_
  6
CONTINUOUS
 62
    7
 10
605.08151365560138
 20
604.19213213541923
 40
3.0000003663154184
 50
349.20314025878912
 51
90.000000000000057
  0
LINE
  8
_2-0_
  6
CONTINUOUS
 62
    7
 10
554.46271912968905
 20
565.19229744878658
 11
554.96264713648338
 21
567.19200947596448
  0
LINE
  8
_2-0_
  6
CONTINUOUS
 62
    7
 10
560.52165210053886
 20
567.19200947596448
 11
554.96264713648338
 21
567.19200947596448
  0
LINE
  8
_2-0_
  6
CONTINUOUS
 62
    7
 10
573.96266743980482
 20
571.19217673350192
 11
570.96266586384877
 21
571.19217673350192
  0
LINE
  8
_2-0_
  6
CONTINUOUS
 62
    7
 10
570.46961248648358
 20
567.97286828538768
 11
570.96266586384877
 21
571.19217673350192
  0
LINE
  8
_2-0_
  6
CONTINUOUS
 62
    7
 10
573.96266743980482
 20
571.19217673350192
 11
575.23075786833738
 21
564.42630270299446
  0
LINE
  8
_2-0_
  6
CONTINUOUS
 62
    7
 10
759.46271327508612
 20
565.19229744878658
 11
758.96266140109469
 21
567.19200947596448
  0
LINE
  8
_2-0_
  6
CONTINUOUS
 62
    7
 10
753.40374933743703
 20
567.19200947596448
 11
758.96266140109469
 21
567.19200947596448
  0
LINE
  8
_2-0_
  6
CONTINUOUS
 62
    7
 10
595.96259641868414
 20
559.69209843647207
 11
596.96263823306845
 21
554.69232289973979
  0
LINE
  8
_2-0_
  6
CONTINUOUS
 62
    7
 10
607.96272658970508
 20
559.69209843647207
 11
606.96268477532067
 21
554.69232289973979
  0
LINE
  8
_2-0_
  6
CONTINUOUS
 62
    7
 10
588.51223225796218
 20
559.69209843647207
 11
576.6788892676027
 21
562.86285094339121
  0
LINE
  8
_2-0_
  6
CONTINUOUS
 62
    7
 10
566.72773930133701
 20
565.52921622442625
 11
560.52165210053886
 21
567.19200947596448
  0
LINE
  8
_2-0_
  6
DASHED1
 62
    7
 10
576.6788892676027
 20
562.86285094339121
 11
566.72773930133701
 21
565.52921622442625
  0
LINE
  8
_2-0_
  6
CONTINUOUS
 62
    7
 10
747.19763116983984
 20
565.52921622442625
 11
753.40374933743703
 21
567.19200947596448
  0
LINE
  8
_2-0_
  6
CONTINUOUS
 62
    7
 10
739.96273399817119
 20
571.19217673350192
 11
742.96267364052881
 21
571.19217673350192
  0
LINE
  8
_2-0_
  6
CONTINUOUS
 62
    7
 10
605.96264296093636
 20
538.51229416844149
 11
597.96268004745286
 21
538.51229416844149
  0
LINE
  8
_2-0_
  6
CONTINUOUS
 62
    7
 10
597.96268004745286
 20
538.51229416844149
 11
598.63918074346566
 21
537.83573153883026
  0
LINE
  8
_2-0_
  6
CONTINUOUS
 62
    7
 10
598.63918074346566
 20
537.83573153883026
 11
605.28614226492346
 21
537.83573153883026
  0
LINE
  8
_2-0_
  6
CONTINUOUS
 62
    7
 10
605.28614226492346
 20
537.83573153883026
 11
605.96264296093636
 21
538.51229416844149
  0
LINE
  8
_2-0_
  6
CONTINUOUS
 62
    7
 10
594.4626265975055
 20
565.47050317308299
 11
594.4626265975055
 21
559.69209843647207
  0
LINE
  8
_2-0_
  6
CONTINUOUS
 62
    7
 10
609.46269641088406
 20
565.47050317308299
 11
609.46269641088406
 21
559.69209843647207
  0
LINE
  8
_2-0_
  6
CONTINUOUS
 62
    7
 10
594.4626265975055
 20
559.69209843647207
 11
609.46269641088406
 21
559.69209843647207
  0
LINE
  8
_2-0_
  6
CONTINUOUS
 62
    7
 10
598.21543106278091
 20
565.47050317308299
 11
598.21543106278091
 21
559.69209843647207
  0
LINE
  8
_2-0_
  6
CONTINUOUS
 62
    7
 10
605.70989194560843
 20
565.47050317308299
 11
605.70989194560843
 21
559.69209843647207
  0
LINE
  8
_2-0_
  6
CONTINUOUS
 62
    7
 10
596.33909076374152
 20
566.19215346237547
 11
607.5862322446477
 21
566.19215346237547
  0
LINE
  8
_2-0_
  6
CONTINUOUS
 62
    7
 10
605.96264296093636
 20
577.15935507822849
 11
597.96268004745286
 21
577.15935507822849
  0
LINE
  8
_2-0_
  6
CONTINUOUS
 62
    7
 10
597.96268004745286
 20
554.69232289973979
 11
593.6495623168812
 21
554.69232289973979
  0
LINE
  8
_2-0_
  6
CONTINUOUS
 62
    7
 10
738.96269218378677
 20
559.18176558513574
 11
740.96265194535874
 21
559.71761507903898
  0
LINE
  8
_2-0_
  6
CONTINUOUS
 62
    7
 10
738.96269218378677
 20
559.18176558513574
 11
737.9626503694027
 21
559.43123411974534
  0
LINE
  8
_2-0_
  6
CONTINUOUS
 62
    7
 10
720.27577718749626
 20
554.69232289973979
 11
737.9626503694027
 21
559.43123411974534
  0
LINE
  8
_2-0_
  6
CONTINUOUS
 62
    7
 10
740.96265194535874
 20
559.71761507903898
 11
741.96275569334148
 21
560.50318084194544
  0
LINE
  8
_2-0_
  6
CONTINUOUS
 62
    7
 10
741.96275569334148
 20
560.50318084194544
 11
759.46271327508612
 21
565.19229744878658
  0
LINE
  8
_2-0_
  6
CONTINUOUS
 62
    7
 10
574.96270925418912
 20
559.18176558513574
 11
572.96274949261715
 21
559.71761507903898
  0
LINE
  8
_2-0_
  6
CONTINUOUS
 62
    7
 10
572.96274949261715
 20
559.71761507903898
 11
571.96264574463441
 21
560.50318084194544
  0
LINE
  8
_2-0_
  6
CONTINUOUS
 62
    7
 10
571.96264574463441
 20
560.50318084194544
 11
554.46271912968905
 21
565.19229744878658
  0
LINE
  8
_2-0_
  6
CONTINUOUS
 62
    7
 10
574.96270925418912
 20
559.18176558513574
 11
575.96268913497488
 21
559.43123411974534
  0
LINE
  8
_2-0_
  6
CONTINUOUS
 62
    7
 10
593.6495623168812
 20
554.69232289973979
 11
575.96268913497488
 21
559.43123411974534
  0
LINE
  8
_2-0_
  6
CONTINUOUS
 62
    7
 10
605.96264296093636
 20
554.69232289973979
 11
720.27577718749626
 21
554.69232289973979
  0
LINE
  8
_2-0_
  6
CONTINUOUS
 62
    7
 10
743.45572701789388
 20
567.97286828538768
 11
742.96267364052881
 21
571.19217673350192
  0
LINE
  8
_2-0_
  6
CONTINUOUS
 62
    7
 10
739.06748383238664
 20
566.41585762002455
 11
739.96273399817119
 21
571.19217673350192
  0
LINE
  8
_2-0_
  6
DASHED1
 62
    7
 10
739.06748383238664
 20
566.41585762002455
 11
738.69458163604008
 21
564.42630270299446
  0
LINE
  8
_2-0_
  6
CONTINUOUS
 62
    7
 10
725.18550127206311
 20
560.82374914759066
 11
725.74259399023902
 21
563.95486415149321
  0
LINE
  8
_2-0_
  6
CONTINUOUS
 62
    7
 10
723.7340254584808
 20
559.24221277723609
 11
719.81505314852882
 21
558.19231441608872
  0
LINE
  8
_2-0_
  6
DASHED1
 62
    7
 10
723.7340254584808
 20
559.24221277723609
 11
747.19763116983984
 21
565.52921622442625
  0
LINE
  8
_2-0_
  6
CONTINUOUS
 62
    7
 10
614.20383724043404
 20
558.48612740719796
 11
614.96264768880451
 21
554.69232289973979
  0
LINE
  8
_2-0_
  6
CONTINUOUS
 62
    7
 10
612.73297621053302
 20
559.69209843647207
 11
588.51223225796218
 21
559.69209843647207
  0
LINE
  8
_2-0_
  6
CONTINUOUS
 62
    7
 10
711.75557204692211
 20
557.46694811088844
 11
710.96276005299558
 21
554.69232289973979
  0
LINE
  8
_2-0_
  6
CONTINUOUS
 62
    7
 10
614.26267415897428
 20
558.19231441608872
 11
719.81505314852882
 21
558.19231441608872
  0
LINE
  8
_2-0_
  6
CONTINUOUS
 62
    7
 10
737.59321645456998
 20
565.19229744878658
 11
735.96275254142938
 21
565.19229744878658
  0
LINE
  8
_2-0_
  6
CONTINUOUS
 62
    7
 10
729.96268745591897
 20
565.19229744878658
 11
727.21933871199417
 21
565.19229744878658
  0
LINE
  8
_2-0_
  6
CONTINUOUS
 62
    7
 10
605.96264296093636
 20
559.69209843647207
 11
605.96264296093636
 21
538.51229416844149
  0
LINE
  8
_2-0_
  6
CONTINUOUS
 62
    7
 10
597.96268004745286
 20
559.69209843647207
 11
597.96268004745286
 21
538.51229416844149
  0
LINE
  8
_2-0_
  6
CONTINUOUS
 62
    7
 10
598.63918074346566
 20
559.69209843647207
 11
598.63918074346566
 21
537.83573153883026
  0
LINE
  8
_2-0_
  6
CONTINUOUS
 62
    7
 10
605.28614226492346
 20
559.69209843647207
 11
605.28614226492346
 21
537.83573153883026
  0
LINE
  8
_2-0_
  6
CONTINUOUS
 62
    7
 10
597.96268004745286
 20
566.19215346237547
 11
597.96268004745286
 21
577.15935507822849
  0
LINE
  8
_2-0_
  6
CONTINUOUS
 62
    7
 10
597.96268004745286
 20
577.15935507822849
 11
598.63918074346566
 21
577.83566997344565
  0
LINE
  8
_2-0_
  6
CONTINUOUS
 62
    7
 10
598.63918074346566
 20
577.83566997344565
 11
605.28614226492346
 21
577.83566997344565
  0
LINE
  8
_2-0_
  6
CONTINUOUS
 62
    7
 10
605.28614226492346
 20
577.83566997344565
 11
605.96264296093636
 21
577.15935507822849
  0
LINE
  8
_2-0_
  6
CONTINUOUS
 62
    7
 10
605.96264296093636
 20
566.19215346237547
 11
605.96264296093636
 21
577.15935507822849
  0
LINE
  8
_2-0_
  6
CONTINUOUS
 62
    7
 10
598.63918074346566
 20
566.19215346237547
 11
598.63918074346566
 21
577.83566997344565
  0
LINE
  8
_2-0_
  6
CONTINUOUS
 62
    7
 10
605.28614226492346
 20
566.19215346237547
 11
605.28614226492346
 21
577.83566997344565
  0
LINE
  8
_2-0_
  6
CENTER1
 62
    7
 10
601.96266150419456
 20
579.49945416255957
 11
601.96266150419456
 21
536.12958476836775
  0
ARC
  8
_2-0_
  6
CONTINUOUS
 62
    7
 10
577.19653028355765
 20
564.79468374665339
 40
2.000000284531632
 50
190.61488342285156
 51
255.00050354003906
  0
ARC
  8
_2-0_
  6
DASHED1
 62
    7
 10
736.72880922081981
 20
564.79468374665339
 40
2.000000284531632
 50
284.99949645996094
 51
349.38511657714844
  0
ARC
  8
_2-0_
  6
CONTINUOUS
 62
    7
 10
612.73297621053302
 20
558.19231441608872
 40
1.5000001831577092
 50
11.310211181640625
 51
90.000000000000014
  0
ARC
  8
_2-0_
  6
CONTINUOUS
 62
    7
 10
746.42116964590741
 20
568.42696542931947
 40
3.0000003663154184
 50
188.70712280273437
 51
285.00027465820312
  0
ARC
  8
_2-0_
  6
CONTINUOUS
 62
    7
 10
567.50420082526921
 20
568.42696542931947
 40
3.0000003663154184
 50
254.99972534179687
 51
351.29286193847656
  0
ARC
  8
_2-0_
  6
CONTINUOUS
 62
    7
 10
596.33909076374152
 20
563.39201160866025
 40
2.8001737882271698
 50
47.925567626953132
 51
132.07463073730469
  0
ARC
  8
_2-0_
  6
CONTINUOUS
 62
    7
 10
601.96266150419456
 20
556.1029225383362
 40
10.089411886272284
 50
68.197860717773438
 51
111.80213928222658
  0
ARC
  8
_2-0_
  6
CONTINUOUS
 62
    7
 10
607.5862322446477
 20
563.39201160866025
 40
2.8001899974111422
 50
47.925720214843743
 51
132.07427978515622
  0
ARC
  8
_2-0_
  6
CONTINUOUS
 62
    7
 10
727.21933871199417
 20
563.69201795961567
 40
1.5000001831577092
 50
90
 51
169.911865234375
  0
ARC
  8
_2-0_
  6
CONTINUOUS
 62
    7
 10
737.59321645456998
 20
566.69208146917015
 40
1.5000001831577092
 50
270
 51
349.38435363769531
  0
ARC
  8
_2-0_
  6
CONTINUOUS
 62
    7
 10
723.21638444252585
 20
561.17404558049827
 40
2.000000284531632
 50
284.99949645996094
 51
349.91256713867187
  0
ARC
  8
_2-0_
  6
CONTINUOUS
 62
    7
 10
712.71696729586552
 20
557.19196293371226
 40
1.000000142265816
 50
90
 51
164.05401611328125
  0
LINE
  8
_2-0_
  6
CONTINUOUS
 62
    7
 10
544.4626725874366
 20
555.71241075126477
 11
547.46270513019203
 21
555.71241075126477
  0
LINE
  8
_2-0_
  6
CONTINUOUS
 62
    7
 10
571.47745793427418
 20
553.90394967614111
 11
576.44800081253209
 21
552.57212957478976
  0
LINE
  8
_2-0_
  6
CONTINUOUS
 62
    7
 10
561.21614450690515
 20
559.75915207484638
 11
564.11398661219607
 21
558.98275248451239
  0
LINE
  8
_2-0_
  6
CONTINUOUS
 62
    7
 10
569.31256899999539
 20
557.58974198787951
 11
567.0116738834912
 21
558.20610515978456
  0
LINE
  8
_2-0_
  6
CONTINUOUS
 62
    7
 10
570.03335221890916
 20
556.82424271087496
 11
570.39603537150924
 21
555.05195085725381
  0
LINE
  8
_2-0_
  6
CONTINUOUS
 62
    7
 10
579.1586486164681
 20
554.37910424355016
 11
577.95856127904813
 21
553.02573124993364
  0
LINE
  8
_2-0_
  6
CONTINUOUS
 62
    7
 10
582.46664597758127
 20
554.06497703214518
 11
580.16568892747898
 21
554.68183567283813
  0
LINE
  8
_2-0_
  6
CONTINUOUS
 62
    7
 10
565.29239719015436
 20
554.52576300471105
 11
556.1046717253447
 21
556.98774741081775
  0
LINE
  8
_2-0_
  6
CONTINUOUS
 62
    7
 10
566.97296538445153
 20
551.82818319005048
 11
566.73418039557703
 21
552.99501218509602
  0
LINE
  8
_2-0_
  6
DASHED1
 62
    7
 10
577.80069253656529
 20
548.06831829455018
 11
568.05432601361815
 21
550.67993427454394
  0
LINE
  8
_2-0_
  6
DASHED1
 62
    7
 10
579.31112913588436
 20
548.52216770408813
 11
580.1012779850771
 21
549.41326831877586
  0
LINE
  8
_2-0_
  6
CONTINUOUS
 62
    7
 10
544.4626725874366
 20
555.71241075126477
 11
545.4626215014232
 21
563.71224979755152
  0
LINE
  8
_2-0_
  6
CONTINUOUS
 62
    7
 10
585.80189412201833
 20
537.90823533386924
 11
585.20380136165977
 21
534.91808120006885
  0
LINE
  8
_2-0_
  6
CONTINUOUS
 62
    7
 10
586.50806101169508
 20
552.98237773100948
 11
585.36433324887639
 21
553.28857744181141
  0
LINE
  8
_2-0_
  6
DASHED1
 62
    7
 10
582.86673702365329
 20
549.81682764636173
 11
582.11535860709864
 21
550.01823570856379
  0
LINE
  8
_2-0_
  6
DASHED1
 62
    7
 10
585.79700136773965
 20
541.34678872054258
 11
585.06785711303337
 21
547.2844866724007
  0
LINE
  8
_2-0_
  6
CONTINUOUS
 62
    7
 10
604.16935561743628
 20
538.71238117631447
 11
586.78248878648537
 21
538.71238117631447
  0
LINE
  8
_2-0_
  6
DASHED1
 62
    7
 10
604.62611590610209
 20
543.13617424733968
 11
591.94422068319886
 21
544.02306337733171
  0
LINE
  8
_2-0_
  6
CONTINUOUS
 62
    7
 10
593.46264671671952
 20
548.71242771856691
 11
591.11474399898179
 21
548.71242771856691
  0
LINE
  8
_2-0_
  6
CONTINUOUS
 62
    7
 10
608.12127660177089
 20
549.40509308377875
 11
609.9626244176784
 21
540.03528283948731
  0
LINE
  8
_2-0_
  6
CONTINUOUS
 62
    7
 10
611.1200395057574
 20
536.65197422264282
 11
613.972886851765
 21
496.71248298012745
  0
LINE
  8
_2-0_
  6
CONTINUOUS
 62
    7
 10
607.16167742718289
 20
535.9258647142608
 11
609.96268635127672
 21
496.71248298012745
  0
LINE
  8
_2-0_
  6
CONTINUOUS
 62
    7
 10
769.46275981733834
 20
555.71241075126477
 11
766.46269630778397
 21
555.71241075126477
  0
LINE
  8
_2-0_
  6
CONTINUOUS
 62
    7
 10
742.44788157010305
 20
553.90394967614111
 11
737.47740062544381
 21
552.57212957478976
  0
LINE
  8
_2-0_
  6
CONTINUOUS
 62
    7
 10
752.7092259642717
 20
559.75915207484638
 11
749.81147675937814
 21
558.98275248451239
  0
LINE
  8
_2-0_
  6
CONTINUOUS
 62
    7
 10
744.61289437157916
 20
557.58974198787951
 11
746.91366562088638
 21
558.20610515978456
  0
LINE
  8
_2-0_
  6
CONTINUOUS
 62
    7
 10
743.89211115266505
 20
556.82424271087496
 11
743.52930413286799
 21
555.05195085725381
  0
LINE
  8
_2-0_
  6
CONTINUOUS
 62
    7
 10
734.76675282150779
 20
554.37910424355016
 11
735.96684015892777
 21
553.02573124993364
  0
LINE
  8
_2-0_
  6
CONTINUOUS
 62
    7
 10
731.45869352679597
 20
554.06497703214518
 11
733.75965057689859
 21
554.68183567283813
  0
LINE
  8
_2-0_
  6
CONTINUOUS
 62
    7
 10
748.63300424782153
 20
554.52576300471105
 11
757.82072971263119
 21
556.98774741081775
  0
LINE
  8
_2-0_
  6
CONTINUOUS
 62
    7
 10
746.95237411992593
 20
551.82818319005048
 11
747.19119007559948
 21
552.99501218509602
  0
LINE
  8
_2-0_
  6
CONTINUOUS
 62
    7
 10
734.61421036849288
 20
548.52216770408813
 11
733.82412345289879
 21
549.41326831877586
  0
LINE
  8
_2-0_
  6
CONTINUOUS
 62
    7
 10
727.41727849268216
 20
552.98237773100948
 11
728.5610681890995
 21
553.28857744181141
  0
LINE
  8
_2-0_
  6
CONTINUOUS
 62
    7
 10
731.05860248072418
 20
549.81682764636173
 11
731.81010476447591
 21
550.01823570856379
  0
LINE
  8
_2-0_
  6
CONTINUOUS
 62
    7
 10
728.12840007023624
 20
541.34678872054258
 11
728.85748239134409
 21
547.2844866724007
  0
LINE
  8
_2-0_
  6
CONTINUOUS
 62
    7
 10
769.46275981733834
 20
555.71241075126477
 11
768.46271800295426
 21
563.71224979755152
  0
LINE
  8
_2-0_
  6
CONTINUOUS
 62
    7
 10
736.12464696781217
 20
548.06831829455018
 11
745.87107542435774
 21
550.67993427454394
  0
LINE
  8
_2-0_
  6
CONTINUOUS
 62
    7
 10
709.29922359827538
 20
543.13617424733968
 11
721.98111882117871
 21
544.02306337733171
  0
LINE
  8
_2-0_
  6
CONTINUOUS
 62
    7
 10
724.74948873888252
 20
546.65003888974445
 11
725.21615840330242
 21
550.45003675704868
  0
LINE
  8
_2-0_
  6
CONTINUOUS
 62
    7
 10
709.75598388694129
 20
538.71238117631447
 11
726.96268587996292
 21
538.71238117631447
  0
LINE
  8
_2-0_
  6
CONTINUOUS
 62
    7
 10
570.77290131815744
 20
534.9924015182246
 11
568.63439609682382
 21
549.41252511559424
  0
LINE
  8
_2-0_
  6
CONTINUOUS
 62
    7
 10
562.96276488396325
 20
516.71257606463212
 11
562.96276488396325
 21
510.71244904552304
  0
LINE
  8
_2-0_
  6
CONTINUOUS
 62
    7
 10
579.1377150601877
 20
540.91226259372525
 11
572.78778707695892
 21
540.91226259372525
  0
LINE
  8
_2-0_
  6
CONTINUOUS
 62
    7
 10
579.1377150601877
 20
540.91226259372525
 11
578.32260697081438
 21
541.71244468586917
  0
LINE
  8
_2-0_
  6
CONTINUOUS
 62
    7
 10
573.60264743193852
 20
541.71244468586917
 11
572.78778707695892
 21
540.91226259372525
  0
LINE
  8
_2-0_
  6
CONTINUOUS
 62
    7
 10
578.32260697081438
 20
541.71244468586917
 11
573.60264743193852
 21
541.71244468586917
  0
LINE
  8
_2-0_
  6
CONTINUOUS
 62
    7
 10
570.96278973104575
 20
516.71257606463212
 11
562.96276488396325
 21
516.71257606463212
  0
LINE
  8
_2-0_
  6
CONTINUOUS
 62
    7
 10
578.9628145781279
 20
518.71228809180968
 11
578.9628145781279
 21
531.71239814361661
  0
LINE
  8
_2-0_
  6
CONTINUOUS
 62
    7
 10
570.96278973104575
 20
510.71244904552304
 11
562.96276488396325
 21
510.71244904552304
  0
LINE
  8
_2-0_
  6
CONTINUOUS
 62
    7
 10
572.96274949261715
 20
518.71228809180968
 11
572.96274949261715
 21
531.71239814361661
  0
LINE
  8
_2-0_
  6
CONTINUOUS
 62
    7
 10
573.60264743193852
 20
531.71239814361661
 11
573.60264743193852
 21
541.71244468586917
  0
LINE
  8
_2-0_
  6
CONTINUOUS
 62
    7
 10
578.32260697081438
 20
531.71239814361661
 11
578.32260697081438
 21
541.71244468586917
  0
LINE
  8
_2-0_
  6
CONTINUOUS
 62
    7
 10
579.1377150601877
 20
531.71239814361661
 11
579.1377150601877
 21
540.91226259372525
  0
LINE
  8
_2-0_
  6
CONTINUOUS
 62
    7
 10
572.78778707695892
 20
531.71239814361661
 11
572.78778707695892
 21
540.91226259372525
  0
LINE
  8
_2-0_
  6
CONTINUOUS
 62
    7
 10
579.1377150601877
 20
531.71239814361661
 11
572.78778707695892
 21
531.71239814361661
  0
LINE
  8
_2-0_
  6
CONTINUOUS
 62
    7
 10
572.25664453653906
 20
533.71235790518836
 11
572.78778707695892
 21
533.71235790518836
  0
LINE
  8
_2-0_
  6
CONTINUOUS
 62
    7
 10
579.1377150601877
 20
533.71235790518836
 11
583.73294033175875
 21
533.71235790518836
  0
LINE
  8
_2-0_
  6
CONTINUOUS
 62
    7
 10
702.80542386581692
 20
536.65197422264282
 11
699.95245265261246
 21
496.71248298012745
  0
LINE
  8
_2-0_
  6
CONTINUOUS
 62
    7
 10
706.76372401079311
 20
535.9258647142608
 11
703.96271508669906
 21
496.71248298012745
  0
LINE
  8
_2-0_
  6
DASHED1
 62
    7
 10
589.17585076549472
 20
546.65003888974445
 11
588.70924303467348
 21
550.45003675704868
  0
LINE
  8
_2-0_
  6
CONTINUOUS
 62
    7
 10
607.14006260131919
 20
550.21221173895026
 11
605.96264296093636
 21
550.21221173895026
  0
LINE
  8
_2-0_
  6
CONTINUOUS
 62
    7
 10
597.96268004745286
 20
550.21221173895026
 11
595.75394212546166
 21
550.21221173895026
  0
LINE
  8
_2-0_
  6
CONTINUOUS
 62
    7
 10
546.46272524940605
 20
563.71224979755152
 11
558.31836433521266
 21
560.53579939957399
  0
LINE
  8
_2-0_
  6
CONTINUOUS
 62
    7
 10
767.46267618856962
 20
563.71224979755152
 11
768.46271800295426
 21
563.71224979755152
  0
ARC
  8
_2-0_
  6
CONTINUOUS
 62
    7
 10
553.25761517079343
 20
546.36241925848151
 40
11.000001262513827
 50
74.999969482421875
 51
121.79020690917967
  0
ARC
  8
_2-0_
  6
CONTINUOUS
 62
    7
 10
576.83613867410031
 20
554.02088031003962
 40
1.5000001831577092
 50
254.99990844726562
 51
318.43557739257812
  0
ARC
  8
_2-0_
  6
CONTINUOUS
 62
    7
 10
571.86571966303973
 20
555.35270041139097
 40
1.5000001831577092
 50
191.56489562988281
 51
254.99990844726562
  0
ARC
  8
_2-0_
  6
CONTINUOUS
 62
    7
 10
565.72456984023006
 20
559.19828140716402
 40
1.6250079502009975
 50
187.62059020996097
 51
322.37890625
  0
ARC
  8
_2-0_
  6
CONTINUOUS
 62
    7
 10
569.05381042561635
 20
556.62382558624824
 40
1.000000142265816
 50
11.56640625
 51
75.000778198242187
  0
ARC
  8
_2-0_
  6
CONTINUOUS
 62
    7
 10
579.90693035309982
 20
553.71567153681303
 40
1.000000142265816
 50
75.000228881835938
 51
138.43498229980469
  0
ARC
  8
_2-0_
  6
CONTINUOUS
 62
    7
 10
559.92894756324654
 20
560.75108058783178
 40
1.6250079502009975
 50
187.61929321289062
 51
322.37969970703125
  0
ARC
  8
_2-0_
  6
CONTINUOUS
 62
    7
 10
584.07722920561525
 20
554.28050595479715
 40
1.6250079502009975
 50
187.62059020996097
 51
322.38073730468756
  0
ARC
  8
_2-0_
  6
CONTINUOUS
 62
    7
 10
564.77475617419941
 20
552.59393020144876
 40
2.000000284531632
 50
11.566207885742188
 51
75.000503540039063
  0
ARC
  8
_2-0_
  6
DASHED1
 62
    7
 10
581.5975937239466
 20
548.08615517090755
 40
2.000000284531632
 50
74.999755859375
 51
138.43507385253906
  0
ARC
  8
_2-0_
  6
DASHED1
 62
    7
 10
578.18883039813386
 20
549.51731676419377
 40
1.5000001831577092
 50
255.00128173828125
 51
318.43650817871094
  0
ARC
  8
_2-0_
  6
CONTINUOUS
 62
    7
 10
566.6561130947141
 20
549.11920759327279
 40
2.000000284531632
 50
8.43475341796875
 51
59.30958557128907
  0
ARC
  8
_2-0_
  6
DASHED1
 62
    7
 10
568.44249484198576
 20
552.1286850097938
 40
1.5000001831577092
 50
239.30831909179687
 51
255.00128173828125
  0
ARC
  8
_2-0_
  6
CONTINUOUS
 62
    7
 10
568.44249484198576
 20
552.1286850097938
 40
1.5000001831577092
 50
191.5662841796875
 51
239.30831909179687
  0
ARC
  8
_2-0_
  6
CONTINUOUS
 62
    7
 10
583.73294033175875
 20
535.21238965996565
 40
1.5000001831577092
 50
270
 51
348.68978881835937
  0
ARC
  8
_2-0_
  6
CONTINUOUS
 62
    7
 10
586.78248878648537
 20
537.71227742833173
 40
1.000000142265816
 50
90
 51
168.69006347656253
  0
ARC
  8
_2-0_
  6
DASHED1
 62
    7
 10
582.09027549972097
 20
546.91907844146817
 40
3.0000003663154184
 50
7.0000762939453134
 51
74.999908447265639
  0
ARC
  8
_2-0_
  6
DASHED1
 62
    7
 10
588.77464491465048
 20
541.71244468586917
 40
3.0000003663154184
 50
187.00007629394534
 51
270
  0
ARC
  8
_2-0_
  6
CONTINUOUS
 62
    7
 10
604.16935561743628
 20
535.71231766675999
 40
3.0000003663154184
 50
4.0854644775390634
 51
90.000000000000014
  0
ARC
  8
_2-0_
  6
DASHED1
 62
    7
 10
592.15349431240554
 20
547.01569485507071
 40
3.0000003663154184
 50
187.00007629394534
 51
266.00016784667969
  0
ARC
  8
_2-0_
  6
CONTINUOUS
 62
    7
 10
593.46264671671952
 20
551.21231548693299
 40
2.5000002649414954
 50
270
 51
336.42221069335938
  0
ARC
  8
_2-0_
  6
CONTINUOUS
 62
    7
 10
591.11474399898179
 20
551.21231548693299
 40
2.5000002649414954
 50
191.83293151855469
 51
270
  0
ARC
  8
_2-0_
  6
CONTINUOUS
 62
    7
 10
585.73159948776265
 20
550.08438079172242
 40
3.0000003663154184
 50
11.832656860351564
 51
75.000411987304688
  0
ARC
  8
_2-0_
  6
DASHED1
 62
    7
 10
585.73159948776265
 20
550.08438079172242
 40
3.0000003663154184
 50
6.9997253417968759
 51
11.832656860351562
  0
ARC
  8
_2-0_
  6
DASHED1
 62
    7
 10
604.13776948221994
 20
536.15328488781768
 40
7.000000935378683
 50
33.6829833984375
 51
85.999984741210937
  0
ARC
  8
_2-0_
  6
CONTINUOUS
 62
    7
 10
604.13776948221994
 20
536.15328488781768
 40
7.000000935378683
 50
4.085601806640625
 51
33.6829833984375
  0
ARC
  8
_2-0_
  6
CONTINUOUS
 62
    7
 10
607.14006260131919
 20
549.21235572536125
 40
1.000000142265816
 50
11.119338989257813
 51
90
  0
ARC
  8
_2-0_
  6
CONTINUOUS
 62
    7
 10
760.66775530038342
 20
546.36241925848151
 40
11.000001262513827
 50
58.20979309082032
 51
105.00003051757814
  0
ARC
  8
_2-0_
  6
CONTINUOUS
 62
    7
 10
737.08920083027692
 20
554.02088031003962
 40
1.5000001831577092
 50
221.5644226074219
 51
285.00009155273438
  0
ARC
  8
_2-0_
  6
CONTINUOUS
 62
    7
 10
742.05961984133774
 20
555.35270041139097
 40
1.5000001831577092
 50
285.00009155273438
 51
348.43510437011719
  0
ARC
  8
_2-0_
  6
CONTINUOUS
 62
    7
 10
748.20083159774583
 20
559.19828140716402
 40
1.6250079502009975
 50
217.62109375
 51
352.37940979003906
  0
ARC
  8
_2-0_
  6
CONTINUOUS
 62
    7
 10
744.87152907876123
 20
556.62382558624824
 40
1.000000142265816
 50
104.99922180175781
 51
168.43357849121094
  0
ARC
  8
_2-0_
  6
CONTINUOUS
 62
    7
 10
734.01847108487596
 20
553.71567153681303
 40
1.000000142265816
 50
41.56501770019532
 51
104.99977111816406
  0
ARC
  8
_2-0_
  6
CONTINUOUS
 62
    7
 10
753.99639194113092
 20
560.75108058783178
 40
1.6250079502009975
 50
217.62030029296878
 51
352.38070678710943
  0
ARC
  8
_2-0_
  6
CONTINUOUS
 62
    7
 10
729.84811029876198
 20
554.28050595479715
 40
1.6250079502009975
 50
217.6192626953125
 51
352.37940979003906
  0
ARC
  8
_2-0_
  6
CONTINUOUS
 62
    7
 10
749.15064526377648
 20
552.59393020144876
 40
2.000000284531632
 50
104.99949645996094
 51
168.43379211425784
  0
ARC
  8
_2-0_
  6
CONTINUOUS
 62
    7
 10
732.32774578043063
 20
548.08615517090755
 40
2.000000284531632
 50
41.564926147460938
 51
105.000244140625
  0
ARC
  8
_2-0_
  6
CONTINUOUS
 62
    7
 10
735.73657103984203
 20
549.51731676419377
 40
1.5000001831577092
 50
221.56349182128906
 51
284.99871826171875
  0
ARC
  8
_2-0_
  6
CONTINUOUS
 62
    7
 10
731.8350640046566
 20
546.91907844146817
 40
3.0000003663154184
 50
105.00009155273439
 51
172.99992370605469
  0
ARC
  8
_2-0_
  6
CONTINUOUS
 62
    7
 10
725.15075652332541
 20
541.71244468586917
 40
3.0000003663154184
 50
270
 51
352.99992370605469
  0
ARC
  8
_2-0_
  6
CONTINUOUS
 62
    7
 10
709.75598388694129
 20
535.71231766675999
 40
3.0000003663154184
 50
90
 51
175.91453552246097
  0
ARC
  8
_2-0_
  6
CONTINUOUS
 62
    7
 10
721.77190712557035
 20
547.01569485507071
 40
3.0000003663154184
 50
273.99983215332031
 51
352.99992370605474
  0
ARC
  8
_2-0_
  6
CONTINUOUS
 62
    7
 10
745.48287562919086
 20
552.1286850097938
 40
1.5000001831577092
 50
285.00009155273438
 51
348.4337158203125
  0
ARC
  8
_2-0_
  6
CONTINUOUS
 62
    7
 10
728.19374001661458
 20
550.08438079172242
 40
3.0000003663154184
 50
104.99958801269531
 51
173.00027465820312
  0
ARC
  8
_2-0_
  6
CONTINUOUS
 62
    7
 10
709.7875700221573
 20
536.15328488781768
 40
7.000000935378683
 50
94.000015258789063
 51
175.9143981933594
  0
ARC
  8
_2-0_
  6
CONTINUOUS
 62
    7
 10
572.25664453653906
 20
535.21238965996565
 40
1.5000001831577092
 50
188.43515014648437
 51
270
  0
ARC
  8
_2-0_
  6
CONTINUOUS
 62
    7
 10
570.96278973104575
 20
518.71228809180968
 40
2.000000284531632
 50
270
 51
0
  0
ARC
  8
_2-0_
  6
CONTINUOUS
 62
    7
 10
570.96278973104575
 20
518.71228809180968
 40
8.0000011381265281
 50
270
 51
0
  0
LINE
  8
_2-0_
  6
CONTINUOUS
 62
    7
 10
609.96268635127672
 20
496.71248298012745
 11
613.972886851765
 21
496.71248298012745
  0
LINE
  8
_2-0_
  6
CONTINUOUS
 62
    7
 10
699.95245265261246
 20
496.71248298012745
 11
703.96271508669906
 21
496.71248298012745
  0
CIRCLE
  8
_2-0_
  6
CONTINUOUS
 62
    7
 10
717.5048811250191
 20
551.71008053903302
 40
2
  0
ARC
  8
_2-0_
  6
CONTINUOUS
 62
    7
 10
628.46271671420493
 20
187.68883403837373
 40
42.953138803339002
 50
48.431675397416676
 51
131.56832460258332
  0
ARC
  8
_2-0_
  6
CONTINUOUS
 62
    7
 10
628.46271671420493
 20
251.9609060414337
 40
42.953138803339002
 50
228.43167539741668
 51
311.56832460258335
  0
ARC
  8
_2-0_
  6
CONTINUOUS
 62
    7
 10
685.4626227901723
 20
251.9609060414337
 40
42.953138803339002
 50
228.43167539741668
 51
311.56832460258329
  0
LINE
  8
_2-0_
  6
CONTINUOUS
 62
    7
 10
713.96269969535297
 20
536.74982930821454
 11
713.96269969535297
 21
219.82487003990371
  0
LINE
  8
_2-0_
  6
CONTINUOUS
 62
    7
 10
599.96276367622136
 20
536.74982930821454
 11
599.96276367622136
 21
219.82487003990371
  0
LINE
  8
_2-0_
  6
CONTINUOUS
 62
    7
 10
606.9627467089191
 20
536.74982930821454
 11
606.9627467089191
 21
224.8738232521776
  0
LINE
  8
_2-0_
  6
CONTINUOUS
 62
    7
 10
706.96271666265511
 20
536.74982930821454
 11
706.96271666265511
 21
214.77598844661671
  0
LINE
  8
_2-0_
  6
CONTINUOUS
 62
    7
 10
710.56950450311592
 20
410.39508848475265
 11
757.66252775892985
 21
328.82757952366023
  0
LINE
  8
_2-0_
  6
CONTINUOUS
 62
    7
 10
757.66252775892985
 20
328.82757952366023
 11
767.66252775892985
 21
328.82757952366023
  0
CIRCLE
  8
_2-0_
  6
CONTINUOUS
 62
    7
 10
710.56950450311592
 20
410.39508848475265
 40
2
  0
LINE
  8
_2-0_
  6
CONTINUOUS
 62
    7
 10
489.19765962382246
 20
578.70797262347469
 11
356.96266975218873
 21
578.70797262347469
  0
LINE
  8
_2-0_
  6
CONTINUOUS
 62
    7
 10
489.06868182680125
 20
577.20797262347457
 11
356.96266975218873
 21
577.20797262347457
  0
LINE
  8
_2-0_
  6
CONTINUOUS
 62
    7
 10
487.17992204949678
 20
576.52030570216129
 11
547.00064053991287
 21
566.1562871554197
  0
LINE
  8
_2-0_
  6
CONTINUOUS
 62
    7
 10
487.17992204949678
 20
576.52030570216129
 11
486.92036521709656
 21
575.04292869263406
  0
LINE
  8
_2-0_
  6
CONTINUOUS
 62
    7
 10
486.92036521709656
 20
575.04292869263406
 11
546.67785420544976
 21
564.68986474069879
  0
ARC
  8
_2-0_
  6
CONTINUOUS
 62
    7
 10
525.60361880822916
 20
570.83207629575259
 40
2.8749394402558455
 50
40.738300027588927
 51
137.65235980034592
  0
LINE
  8
_2-0_
  6
CONTINUOUS
 62
    7
 10
489.19765962382246
 20
578.70797262347469
 11
527.02549154559892
 21
572.15425074393681
  0
LINE
  8
_2-0_
  6
CONTINUOUS
 62
    7
 10
527.02549154559892
 20
572.15425074393681
 11
526.76593471319859
 21
570.67687373440958
  0
LINE
  8
_2-0_
  6
CONTINUOUS
 62
    7
 10
489.06868182680125
 20
577.20797262347457
 11
526.76593471319859
 21
570.67687373440958
  0
LINE
  8
_2-0_
  6
CONTINUOUS
 62
    7
 10
527.78195543154607
 20
572.70827626927735
 11
530.34975766977493
 21
569.04107462104309
  0
ARC
  8
_2-0_
  6
CONTINUOUS
 62
    7
 10
788.32184456334517
 20
570.83207629575259
 40
2.8749394402558446
 50
42.347640199654094
 51
139.26169997241109
  0
LINE
  8
_2-0_
  6
CONTINUOUS
 62
    7
 10
824.72780374775198
 20
578.70797262347469
 11
786.8999718259754
 21
572.15425074393681
  0
LINE
  8
_2-0_
  6
CONTINUOUS
 62
    7
 10
786.8999718259754
 20
572.15425074393681
 11
787.15952865837562
 21
570.67687373440958
  0
LINE
  8
_2-0_
  6
CONTINUOUS
 62
    7
 10
824.85678154477296
 20
577.20797262347457
 11
787.15952865837562
 21
570.67687373440958
  0
LINE
  8
_2-0_
  6
CONTINUOUS
 62
    7
 10
786.14350794002814
 20
572.70827626927735
 11
783.57570570179951
 21
569.04107462104309
  0
LINE
  8
_2-0_
  6
CONTINUOUS
 62
    7
 10
824.72780374775198
 20
578.70797262347469
 11
956.96279361938559
 21
578.70797262347469
  0
LINE
  8
_2-0_
  6
CONTINUOUS
 62
    7
 10
824.85678154477296
 20
577.20797262347457
 11
956.96279361938559
 21
577.20797262347457
  0
LINE
  8
_2-0_
  6
CONTINUOUS
 62
    7
 10
826.74553766316444
 20
576.52032652840535
 11
766.92469896446437
 21
566.1562871554197
  0
LINE
  8
_2-0_
  6
CONTINUOUS
 62
    7
 10
826.74553766316444
 20
576.52032652840535
 11
827.00509449556478
 21
575.04294951887823
  0
LINE
  8
_2-0_
  6
CONTINUOUS
 62
    7
 10
827.00509449556478
 20
575.04294951887823
 11
767.24748529892747
 21
564.68986474069879
  0
TEXT
  8
_2-0_
 62
    7
 10
225.38125727590221
 20
115.28521536670546
 40
20.000000000000018
 41
0.9999999999999988
 50
0
  1
●防水性能の向上のため、顎の広いドレンの採用を推奨します。
  0
LINE
  8
_0-0_
  6
CONTINUOUS
 62
    7
 10
599.96276367622136
 20
426.20797262347469
 11
356.96266975218862
 21
426.20797262347469
  0
LINE
  8
_0-0_
  6
CONTINUOUS
 62
    7
 10
956.96266975218862
 20
426.20797262347469
 11
713.96269969535297
 21
426.20797262347469
  0
LINE
  8
_0-0_
  6
CONTINUOUS
 62
    7
 10
938.77081852427352
 20
576.20797262347469
 11
788.77081852427352
 21
426.20797262347469
  0
LINE
  8
_0-0_
  6
CONTINUOUS
 62
    7
 10
924.62868290054257
 20
576.20797262347469
 11
774.62868290054257
 21
426.20797262347457
  0
LINE
  8
_0-0_
  6
CONTINUOUS
 62
    7
 10
952.91295414800447
 20
576.20797262347457
 11
802.91295414800447
 21
426.20797262347469
  0
LINE
  8
_0-0_
  6
CONTINUOUS
 62
    7
 10
532.9687573769171
 20
565.90726689588496
 11
393.26946310450671
 21
426.20797262347469
  0
LINE
  8
_0-0_
  6
CONTINUOUS
 62
    7
 10
520.9399365135215
 20
568.02058165622043
 11
379.12732748077565
 21
426.20797262347457
  0
LINE
  8
_0-0_
  6
CONTINUOUS
 62
    7
 10
508.91111565012602
 20
570.13389641655579
 11
364.98519185704481
 21
426.20797262347469
  0
LINE
  8
_0-0_
  6
CONTINUOUS
 62
    7
 10
474.33795315915688
 20
576.20797262347469
 11
545.4626215014232
 21
563.71224979755152
  0
LINE
  8
_0-0_
  6
CONTINUOUS
 62
    7
 10
545.4626215014232
 20
563.71224979755152
 11
585.93375075314634
 21
553.14687336852762
  0
LINE
  8
_0-0_
  6
CONTINUOUS
 62
    7
 10
474.33795315915688
 20
576.20797262347469
 11
435.25445955918383
 21
576.20797262347469
  0
LINE
  8
_0-0_
  6
CONTINUOUS
 62
    7
 10
435.25445955918383
 20
576.20797262347469
 11
356.96266975218862
 21
576.20797262347469
  0
LINE
  8
_0-0_
  6
CONTINUOUS
 62
    7
 10
878.67087994519352
 20
576.20797262347469
 11
956.96266975218862
 21
576.20797262347469
  0
LINE
  8
_0-0_
  6
CONTINUOUS
 62
    7
 10
839.58751021241733
 20
576.20797262347469
 11
872.87087994519334
 21
576.20797262347469
  0
LINE
  8
_0-0_
  6
CONTINUOUS
 62
    7
 10
839.58751021241733
 20
576.20797262347469
 11
767.46267618856962
 21
563.71224979755152
  0
LINE
  8
_0-0_
  6
CONTINUOUS
 62
    7
 10
767.46267618856962
 20
563.71224979755152
 11
755.60697516916491
 21
560.53579939957399
  0
LINE
  8
_0-0_
  6
CONTINUOUS
 62
    7
 10
839.58751021241733
 20
576.20797262347469
 11
878.67100381239061
 21
576.20797262347469
  0
TEXT
  8
_0-0_
 62
    7
 10
772.86198266378778
 20
319.74212142490626
 40
20.000000000000107
 41
0.9999999999999962
 50
0
  1
排水管
  0
LINE
  8
_2-0_
  6
CONTINUOUS
 62
    7
 10
600.0280252241962
 20
762.07196660347199
 11
610.0280252241962
 21
762.07196660347199
  0
TEXT
  8
_0-0_
 62
    7
 10
614.19410647661709
 20
752.33671118710402
 40
20.000000000000107
 41
0.9999999999999962
 50
0
  1
ＡＹボンド５８０ＮＦ
  0
LINE
  8
_2-0_
  6
CONTINUOUS
 62
    7
 10
492.03066338386134
 20
575.01504881261189
 11
600.0280252241962
 21
762.07196660347199
  0
CIRCLE
  8
_2-0_
  6
CONTINUOUS
 62
    7
 10
492.03066338386134
 20
575.01504881261189
 40
2
  0
LINE
  8
_2-0_
  6
CONTINUOUS
 62
    7
 10
600.33788497310741
 20
821.0586474810292
 11
610.33788497310741
 21
821.0586474810292
  0
TEXT
  8
_0-0_
 62
    7
 10
615.80162583770971
 20
811.27649108943092
 40
20.000000000000107
 41
0.9999999999999935
 50
0
  1
リベットルーフ
  0
LINE
  8
_2-0_
  6
CONTINUOUS
 62
    7
 10
459.96436837100021
 20
577.92458468906648
 11
600.33788497310741
 21
821.0586474810292
  0
CIRCLE
  8
_2-0_
  6
CONTINUOUS
 62
    7
 10
459.96436837100021
 20
577.92458468906648
 40
2
  0
LINE
  8
_2-0_
  6
CONTINUOUS
 62
    7
 10
576.32787539615106
 20
656.1454704608617
 11
586.32787539615106
 21
656.1454704608617
  0
LINE
  8
_2-0_
  6
CONTINUOUS
 62
    7
 10
527.44120172135774
 20
571.47126784307966
 11
576.32787539615106
 21
656.1454704608617
  0
CIRCLE
  8
_2-0_
  6
CONTINUOUS
 62
    7
 10
527.44120172135774
 20
571.47126784307966
 40
2
  0
TEXT
  8
_0-0_
 62
    7
 10
592.18748142408367
 20
644.6888665862125
 40
20.000000000000107
 41
0.9999999999999962
 50
0
  1
ＦＬシール
  0
CIRCLE
  8
_2-0_
  6
CONTINUOUS
 62
    7
 10
676.02055103884368
 20
610.2502665368836
 40
2
  0
LINE
  8
_2-0_
  6
CONTINUOUS
 62
    7
 10
676.02055103884368
 20
610.2502665368836
 11
724.90722471363711
 21
694.92446915466553
  0
LINE
  8
_2-0_
  6
CONTINUOUS
 62
    7
 10
724.90722471363711
 20
694.92446915466553
 11
734.90722471363711
 21
694.92446915466553
  0
TEXT
  8
_0-0_
 62
    7
 10
740.76683074156972
 20
683.46786528001633
 40
20.000000000000107
 41
0.9999999999999962
 50
0
  1
ストレーナー
  0
LINE
  8
_2-0_
  6
CONTINUOUS
 62
    7
 10
810.6772996606619
 20
612.30192314391468
 11
821.38282091227109
 21
612.30192314391468
  0
CIRCLE
  8
_2-0_
  6
CONTINUOUS
 62
    7
 10
787.63030713640478
 20
571.40000501856878
 40
2
  0
LINE
  8
_2-0_
  6
CONTINUOUS
 62
    7
 10
786.84253145398452
 20
571.01889362332201
 11
810.6772996606619
 21
612.30192314391468
  0
TEXT
  8
_0-0_
 62
    7
 10
823.44241192411926
 20
601.04137809896622
 40
20.000000000000107
 41
0.9999999999999962
 50
0
  1
ＦＬシール
  0
TEXT
  8
_0-0_
 62
    7
 10
781.32046070460706
 20
630.28528053799062
 40
20.000000000000107
 41
0.9999999999999962
 50
0
  1
エフレックス又はＡＹシールＭＳ-１
  0
TEXT
  8
_2-0_
 62
    7
 10
225.38125727590221
 20
89.353899883585584
 40
20.000000000000018
 41
0.9999999999999988
 50
0
  1
(カネソウ社製ＷＨＰ、第一機材社製ＲＶＷＰＣ-Ｋなど)
  0
ENDSEC
  0
EOF
