  0
SECTION
  2
HEADER
  9
$ACADVER
  1
AC1009
  9
$INSBASE
 10
0
 20
0
 30
0
  9
$EXTMIN
 10
0
 20
0
  9
$EXTMAX
 10
1485
 20
1050
  9
$LIMMIN
 10
0
 20
0
  9
$LIMMAX
 10
1485
 20
1050
  9
$LTSCALE
 40
5
  0
ENDSEC
  0
SECTION
  2
TABLES
  0
TABLE
  2
LTYPE
 70
     9
  0
LTYPE
  2
CONTINUOUS
 70
    64
  3
実線
 72
    65
 73
     0
 40
0.0
  0
LTYPE
  2
DASHED1
 70
    64
  3
--  --  --  --  --  --  --  --  
 72
    65
 73
     2
 40
2.5
 49
1.25
 49
-1.25
  0
LTYPE
  2
DASHED2
 70
    64
  3
----    ----    ----    ----    
 72
    65
 73
     2
 40
5.0
 49
2.5
 49
-2.5
  0
LTYPE
  2
DASHED3
 70
    64
  3
------  ------  ------  ------  
 72
    65
 73
     2
 40
5.0
 49
3.75
 49
-1.25
  0
LTYPE
  2
CENTER1
 70
    64
  3
----- - ----- - ----- - ----- - 
 72
    65
 73
     4
 40
10.0
 49
6.25
 49
-1.25
 49
1.25
 49
-1.25
  0
LTYPE
  2
CENTER2
 70
    64
  3
----------  --  ----------  --  
 72
    65
 73
     4
 40
20.0
 49
12.5
 49
-2.5
 49
2.5
 49
-2.5
  0
LTYPE
  2
PHANTOM1
 70
    64
  3
--- - - --- - - --- - - --- - - 
 72
    65
 73
     6
 40
10.0
 49
3.25
 49
-1.25
 49
1.25
 49
-1.25
 49
1.25
 49
-1.25
  0
LTYPE
  2
PHANTOM2
 70
    64
  3
--------  -  -  --------  -  -  
 72
    65
 73
     6
 40
20.0
 49
10.0
 49
-2.5
 49
1.25
 49
-2.5
 49
1.25
 49
-2.5
  0
LTYPE
  2
DOT
 70
    64
  3
-   -   -   -   -   -   -   -   
 72
    65
 73
     2
 40
2.5
 49
0.625
 49
-1.875
  0
LTYPE
  2
DUMMY
 70
    64
  3
ダミー
 72
    65
 73
     0
 40
0.0
  0
LTYPE
  2
RAND1
 70
    64
  3
ランダム線1
 72
    65
 73
     4
 40
10.0
 49
1.0
 49
-2.0
 49
3.0
 49
-4.0
  0
LTYPE
  2
RAND2
 70
    64
  3
ランダム線2
 72
    65
 73
     4
 40
14.0
 49
2.0
 49
-3.0
 49
4.0
 49
-5.0
  0
LTYPE
  2
RAND3
 70
    64
  3
ランダム線3
 72
    65
 73
     4
 40
18.0
 49
3.0
 49
-4.0
 49
5.0
 49
-6.0
  0
LTYPE
  2
RAND4
 70
    64
  3
ランダム線4
 72
    65
 73
     4
 40
22.0
 49
4.0
 49
-5.0
 49
6.0
 49
-7.0
  0
LTYPE
  2
RAND5
 70
    64
  3
ランダム線5
 72
    65
 73
     4
 40
26.0
 49
5.0
 49
-6.0
 49
7.0
 49
-8.0
  0
LTYPE
  2
LONG1
 70
    64
  3
----------  --  ----------  --  
 72
    65
 73
     4
 40
40.0
 49
32.5
 49
-2.5
 49
2.5
 49
-2.5
  0
LTYPE
  2
LONG2
 70
    64
  3
--------  -  -  --------  -  -  
 72
    65
 73
     6
 40
40.0
 49
30.0
 49
-2.5
 49
1.25
 49
-2.5
 49
1.25
 49
-2.5
  0
LTYPE
  2
LONG3
 70
    64
  3
+++++++++++++++..+++++++++++++++
 72
    65
 73
     2
 40
40.0
 49
37.5
 49
-2.5
  0
LTYPE
  2
LONG4
 70
    64
  3
+++++++++++++++..+++++++++++++++
 72
    65
 73
     2
 40
80.0
 49
75.0
 49
-5.0
  0
LTYPE
  2
LONG5
 70
    64
  3
----------  --  ----------  --  
 72
    65
 73
     4
 40
60.0
 49
37.5
 49
-7.5
 49
7.5
 49
-7.5
  0
LTYPE
  2
dashed
 70
   64
  3
-------   -------------   ------
 72
   65
 73
    2
 40
7.5
 49
6
 49
-1.5
  0
LTYPE
  2
dashed_spaced
 70
   64
  3
----        --------        ----
 72
   65
 73
    2
 40
12
 49
6
 49
-6
  0
LTYPE
  2
long_dashed_dotted
 70
   64
  3
------------- --- --------------
 72
   65
 73
    4
 40
15.25
 49
12
 49
-1.5
 49
0.25
 49
-1.5
  0
LTYPE
  2
long_dashed_double-dotted
 70
   64
  3
----------- --- --- ------------
 72
   65
 73
    6
 40
17
 49
12
 49
-1.5
 49
0.25
 49
-1.5
 49
0.25
 49
-1.5
  0
LTYPE
  2
long_dashed_triplicate-dotted
 70
   64
  3
--------- --- --- --- ----------
 72
   65
 73
    8
 40
18.75
 49
12
 49
-1.5
 49
0.25
 49
-1.5
 49
0.25
 49
-1.5
 49
0.25
 49
-1.5
  0
LTYPE
  2
dotted
 70
   64
  3
   -       -       -       -    
 72
   65
 73
    2
 40
1.75
 49
0.25
 49
-1.5
  0
LTYPE
  2
chain
 70
   64
  3
-------------- -- --------------
 72
   65
 73
    4
 40
18.5
 49
12
 49
-1.5
 49
3.5
 49
-1.5
  0
LTYPE
  2
chain_double_dash
 70
   64
  3
------------ -- -- -------------
 72
   65
 73
    6
 40
23.5
 49
12
 49
-1.5
 49
3.5
 49
-1.5
 49
3.5
 49
-1.5
  0
LTYPE
  2
dashed_dotted
 70
   64
  3
-----------     -     ----------
 72
   65
 73
    4
 40
9.25
 49
6
 49
-1.5
 49
0.25
 49
-1.5
  0
LTYPE
  2
double-dashed_dotted
 70
   64
  3
------   -----------   -   -----
 72
   65
 73
    6
 40
16.75
 49
6
 49
-1.5
 49
6
 49
-1.5
 49
0.25
 49
-1.5
  0
LTYPE
  2
dashed_double-dotted
 70
   64
  3
---------    -    -    ---------
 72
   65
 73
    6
 40
11
 49
6
 49
-1.5
 49
0.25
 49
-1.5
 49
0.25
 49
-1.5
  0
LTYPE
  2
double-dashed_double-dotted
 70
   64
  3
-----   ---------   -   -   ----
 72
   65
 73
    8
 40
18.5
 49
6
 49
-1.5
 49
6
 49
-1.5
 49
0.25
 49
-1.5
 49
0.25
 49
-1.5
  0
LTYPE
  2
dashed_triplicate-dotted
 70
   64
  3
-------    -    -    -    ------
 72
   65
 73
    8
 40
12.75
 49
6
 49
-1.5
 49
0.25
 49
-1.5
 49
0.25
 49
-1.5
 49
0.25
 49
-1.5
  0
LTYPE
  2
double-dashed_triplicate-dotted
 70
   64
  3
-----  ---------  -  -  -  -----
 72
   65
 73
   10
 40
20.25
 49
6
 49
-1.5
 49
6
 49
-1.5
 49
0.25
 49
-1.5
 49
0.25
 49
-1.5
 49
0.25
 49
-1.5
  0
LTYPE
  2
undefined
 70
   64
  3
--------------------------------
 72
   65
 73
    0
 40
0
  0
ENDTAB
  0
TABLE
  2
STYLE
  5
3
100
AcDbSymbolTable
 70
     1
  0
STYLE
  5
10
100
AcDbSymbolTableRecord
100
AcDbTextStyleTableRecord
  2
STANDARD
 70
     0
 40
0.0
 41
1.0
 50
0.0
 71
     0
 42
0.2
  3
txt
  4
bigfont.shx
  0
STYLE
  5
26
100
AcDbSymbolTableRecord
100
AcDbTextStyleTableRecord
  2
TATEGAKI
 70
    68
 40
0.0
 41
1.0
 50
0.0
 71
     0
 42
1.0
  3
txt
  4
bigfont.shx
  0
ENDTAB
  0
TABLE
  2
LAYER
 70
    9
  0
LAYER
  2
_0-0_
 70
   64
 62
    7
  6
CONTINUOUS
  0
LAYER
  2
_1-0_
 70
   64
 62
    7
  6
CONTINUOUS
  0
LAYER
  2
_2-0_
 70
   64
 62
    7
  6
CONTINUOUS
  0
LAYER
  2
_3-0_
 70
   64
 62
    7
  6
CONTINUOUS
  0
LAYER
  2
_6-0_
 70
   64
 62
    7
  6
CONTINUOUS
  0
LAYER
  2
_7-0_
 70
   64
 62
    7
  6
CONTINUOUS
  0
LAYER
  2
_e-0_
 70
   64
 62
    7
  6
CONTINUOUS
  0
LAYER
  2
_f-0_
 70
   64
 62
    7
  6
CONTINUOUS
  0
LAYER
  2
ADD_LINE
 70
   64
 62
    7
  6
CONTINUOUS
  0
ENDTAB
  0
ENDSEC
  0
SECTION
  2
BLOCKS
  0
ENDSEC
  0
SECTION
  2
ENTITIES
  0
LINE
  8
_0-0_
  6
CONTINUOUS
 62
    7
 10
295.01865671641787
 20
714.12313432835822
 11
295.01865671641787
 21
414.12313432835816
  0
LINE
  8
_0-0_
  6
CONTINUOUS
 62
    7
 10
295.01865671641787
 20
414.12313432835816
 11
1343.8992537313434
 21
414.12313432835816
  0
LINE
  8
_0-0_
  6
CONTINUOUS
 62
    7
 10
155.01865671641787
 20
824.74727924622186
 11
145.01865671641787
 21
824.74727924622186
  0
LINE
  8
_0-0_
  6
CONTINUOUS
 62
    7
 10
155.01865671641781
 20
834.74727924622186
 11
155.01865671641781
 21
824.74727924622186
  0
LINE
  8
_0-0_
  6
DASHED1
 62
    7
 10
160.01865671641781
 20
819.74727924622186
 11
145.01865671641787
 21
819.74727924622186
  0
LINE
  8
_0-0_
  6
DASHED1
 62
    7
 10
160.01865671641781
 20
829.29073674087545
 11
160.01865671641781
 21
819.74727924622186
  0
LINE
  8
_0-0_
  6
CONTINUOUS
 62
    7
 10
345.01865671641787
 20
264.12313432835816
 11
1343.8992537313434
 21
264.12313432835816
  0
LINE
  8
_0-0_
  6
CONTINUOUS
 62
    7
 10
145.01865671641787
 20
328.98380753805077
 11
295.01865671641781
 21
478.98380753805071
  0
LINE
  8
_0-0_
  6
CONTINUOUS
 62
    7
 10
145.01865671641795
 20
324.74116685093168
 11
295.01865671641792
 21
474.74116685093156
  0
LINE
  8
_0-0_
  6
CONTINUOUS
 62
    7
 10
145.01865671641787
 20
333.2264482251702
 11
295.01865671641781
 21
483.22644822517009
  0
LINE
  8
_0-0_
  6
CONTINUOUS
 62
    7
 10
145.01865671641787
 20
629.76846185185468
 11
334.31139229509927
 21
819.06119743053614
  0
LINE
  8
_0-0_
  6
CONTINUOUS
 62
    7
 10
145.01865671641787
 20
625.52582116473548
 11
338.21271175654874
 21
818.71987620486618
  0
LINE
  8
_0-0_
  6
CONTINUOUS
 62
    7
 10
145.01865671641787
 20
621.28318047761616
 11
342.11403121799805
 21
818.37855497919634
  0
LINE
  8
_0-0_
  6
CONTINUOUS
 62
    7
 10
388.17409507849618
 20
264.12313432835816
 11
538.17409507849618
 21
414.12313432835816
  0
LINE
  8
_0-0_
  6
CONTINUOUS
 62
    7
 10
392.4167357656155
 20
264.12313432835816
 11
542.4167357656155
 21
414.12313432835816
  0
LINE
  8
_0-0_
  6
CONTINUOUS
 62
    7
 10
396.6593764527347
 20
264.12313432835816
 11
546.6593764527347
 21
414.12313432835816
  0
LINE
  8
_0-0_
  6
CONTINUOUS
 62
    7
 10
888.17409507849618
 20
264.12313432835816
 11
1038.1740950784961
 21
414.12313432835816
  0
LINE
  8
_0-0_
  6
CONTINUOUS
 62
    7
 10
892.4167357656155
 20
264.12313432835816
 11
1042.4167357656156
 21
414.12313432835816
  0
LINE
  8
_0-0_
  6
CONTINUOUS
 62
    7
 10
896.6593764527347
 20
264.12313432835816
 11
1046.6593764527347
 21
414.12313432835816
  0
LINE
  8
_0-0_
  6
DASHED1
 62
    7
 10
383.26275464026128
 20
809.75940897346788
 11
160.01865671641781
 21
829.29073674087545
  0
LINE
  8
_0-0_
  6
DASHED1
 62
    7
 10
390.01865671641787
 20
802.38663560536668
 11
390.01865671641787
 21
714.12313432835822
  0
LINE
  8
_0-0_
  6
DASHED1
 62
    7
 10
383.26275464026128
 20
809.75940897346788
 11
390.01865671641787
 21
802.38663560536668
  0
LINE
  8
_0-0_
  6
CONTINUOUS
 62
    7
 10
388.26275464026128
 20
814.34106484355493
 11
155.01865671641781
 21
834.74727924622186
  0
LINE
  8
_0-0_
  6
CONTINUOUS
 62
    7
 10
395.01865671641787
 20
806.96829147545373
 11
395.01865671641787
 21
714.12313432835822
  0
LINE
  8
_0-0_
  6
CONTINUOUS
 62
    7
 10
388.26275464026128
 20
814.34106484355493
 11
395.01865671641787
 21
806.96829147545373
  0
LINE
  8
_0-0_
  6
CONTINUOUS
 62
    7
 10
145.01865671641787
 20
824.74727924622186
 11
145.01865671641787
 21
134.14073536637824
  0
LINE
  8
_0-0_
  6
CONTINUOUS
 62
    7
 10
345.01865671641787
 20
264.12313432835816
 11
345.01865671641787
 21
134.14073536637824
  0
LINE
  8
_0-0_
  6
CONTINUOUS
 62
    7
 10
360.01865671641787
 20
729.12313432835822
 11
375.01865671641787
 21
729.12313432835822
  0
LINE
  8
_0-0_
  6
CONTINUOUS
 62
    7
 10
375.01865671641787
 20
729.12313432835822
 11
375.01865671641787
 21
714.12313432835822
  0
LINE
  8
_0-0_
  6
CONTINUOUS
 62
    7
 10
375.01865671641787
 20
714.12313432835822
 11
395.01865671641787
 21
714.12313432835822
  0
LINE
  8
_0-0_
  6
CONTINUOUS
 62
    7
 10
295.01865671641787
 20
714.12313432835822
 11
355.01865671641787
 21
714.12313432835822
  0
LINE
  8
_0-0_
  6
CONTINUOUS
 62
    7
 10
360.01865671641787
 20
729.12313432835822
 11
355.01865671641787
 21
714.12313432835822
  0
LINE
  8
_f-0_
  6
CONTINUOUS
 62
    7
 10
153.01865671641778
 20
826.74727924622175
 11
145.01865671641787
 21
826.74727924622175
  0
LINE
  8
_f-0_
  6
CONTINUOUS
 62
    7
 10
153.01865671641778
 20
836.92989624836036
 11
153.01865671641778
 21
826.74727924622175
  0
LINE
  8
_f-0_
  6
CONTINUOUS
 62
    7
 10
389.21186398750166
 20
816.26566821031156
 11
153.01865671641778
 21
836.92989624836036
  0
LINE
  8
_f-0_
  6
CONTINUOUS
 62
    7
 10
389.21186398750166
 20
816.26566821031156
 11
397.01865671641792
 21
807.74604893915966
  0
LINE
  8
_f-0_
  6
CONTINUOUS
 62
    7
 10
397.01865671641792
 20
807.74604893915966
 11
397.01865671641792
 21
714.12313432835822
  0
LINE
  8
_f-0_
  6
CONTINUOUS
 62
    7
 10
395.01865671641787
 20
714.12313432835822
 11
397.01865671641792
 21
714.12313432835822
  0
LINE
  8
_f-0_
  6
CONTINUOUS
 62
    7
 10
145.01865671641787
 20
826.74727924622175
 11
145.01865671641787
 21
824.74727924622186
  0
LINE
  8
_e-0_
  6
CONTINUOUS
 62
    7
 10
435.02165100423809
 20
902.24304239712728
 11
455.02165100423809
 21
902.24304239712728
  0
TEXT
  8
_e-0_
 62
    7
 10
461.94812972176152
 20
891.32872755765538
 40
20
 41
1
 50
0
  1
アクシスコート
  0
TEXT
  8
_e-0_
 62
    7
 10
462.64464713469692
 20
870.43320516959557
 40
20
 41
1
 50
0
  1
ＡＸ仕様
  0
LINE
  8
_e-0_
  6
CONTINUOUS
 62
    7
 10
385.02165100423809
 20
815.64050201868338
 11
435.02165100423809
 21
902.24304239712728
  0
LINE
  8
_e-0_
  6
CONTINUOUS
 62
    7
 10
1459.8567583957526
 20
214.20677759536716
 11
1459.8567583957526
 21
34.206777595367157
  0
TEXT
  8
_e-0_
 62
    7
 10
1079.8567583957526
 20
159.20677759536716
 40
20
 41
1
 50
0
  1
ﾘﾍﾞｯﾄﾙｰﾌ ﾅｲﾝ
  0
TEXT
  8
_e-0_
 62
    7
 10
1079.8567583957526
 20
129.20677759536716
 40
20
 41
1
 50
0
  1
ﾘﾍﾞｯﾄﾙｰﾌ SGM
  0
TEXT
  8
_e-0_
 62
    7
 10
1079.8567583957526
 20
99.206777595367157
 40
20
 41
1
 50
0
  1
ﾘﾍﾞｯﾄﾙｰﾌ COOL
  0
TEXT
  8
_e-0_
 62
    7
 10
1079.8567583957526
 20
69.206777595367157
 40
20
 41
1
 50
0
  1
ﾘﾍﾞｯﾄﾙｰﾌ SW
  0
TEXT
  8
_e-0_
 62
    7
 10
1079.8567583957526
 20
39.206777595367157
 40
20
 41
1
 50
0
  1
ﾘﾍﾞｯﾄﾙｰﾌ HP
  0
LINE
  8
_e-0_
  6
CONTINUOUS
 62
    7
 10
1059.8567583957526
 20
214.20677759536716
 11
1059.8567583957526
 21
34.206777595367157
  0
TEXT
  8
_e-0_
 62
    7
 10
1079.8567583957526
 20
189.20677759536716
 40
20
 41
1
 50
0
  1
シート名称
  0
LINE
  8
_e-0_
  6
CONTINUOUS
 62
    7
 10
1230.4606341113965
 20
214.20677759536716
 11
1230.4606341113965
 21
34.206777595367157
  0
LINE
  8
_e-0_
  6
CONTINUOUS
 62
    9
 10
1290.4606341113963
 20
214.20677759536716
 11
1290.4606341113963
 21
34.206777595367157
  0
TEXT
  8
_e-0_
 62
    7
 10
1250.4606341113965
 20
159.20677759536716
 40
20
 41
1
 50
0
  1
○
  0
TEXT
  8
_e-0_
 62
    7
 10
1250.4606341113965
 20
129.20677759536716
 40
20
 41
1
 50
0
  1
○
  0
TEXT
  8
_e-0_
 62
    7
 10
1250.4606341113965
 20
99.206777595367157
 40
20
 41
1
 50
0
  1
○
  0
TEXT
  8
_e-0_
 62
    7
 10
1250.4606341113965
 20
69.206777595367157
 40
20
 41
1
 50
0
  1
○
  0
TEXT
  8
_e-0_
 62
    7
 10
1250.4606341113965
 20
39.206777595367157
 40
20
 41
1
 50
0
  1
○
  0
LINE
  8
_e-0_
  6
CONTINUOUS
 62
    7
 10
1290.4606341113963
 20
34.206777595367157
 11
1290.4606341113963
 21
214.20677759536716
  0
TEXT
  8
_e-0_
 62
    7
 10
1240.4606341113965
 20
189.20677759536716
 40
20
 41
1
 50
0
  1
対応
  0
TEXT
  8
_e-0_
 62
    7
 10
1311.5866968365826
 20
188.2695574149237
 40
20
 41
1
 50
0
  1
シート厚み
  0
TEXT
  8
_e-0_
 62
    7
 10
1301.2320582019042
 20
159.20677759536716
 40
20
 41
1
 50
0
  1
1.5㎜、2.0㎜
  0
TEXT
  8
_e-0_
 62
    7
 10
1301.2320582019042
 20
129.20677759536716
 40
20
 41
1
 50
0
  1
1.5㎜、2.0㎜
  0
TEXT
  8
_e-0_
 62
    7
 10
1301.2320582019042
 20
99.206777595367157
 40
20
 41
1
 50
0
  1
1.5㎜、2.0㎜
  0
TEXT
  8
_e-0_
 62
    7
 10
1301.2320582019042
 20
69.206777595367157
 40
20
 41
1
 50
0
  1
1.5㎜、2.0㎜
  0
TEXT
  8
_e-0_
 62
    7
 10
1336.2320582019042
 20
39.206777595367157
 40
20
 41
1
 50
0
  1
2.0㎜
  0
TEXT
  8
_e-0_
 62
    7
 10
1421.4345851400694
 20
109.59108882369073
 40
10
 41
1
 50
0
  1
※
  0
TEXT
  8
_e-0_
 62
    7
 10
1421.6803541824297
 20
79.951342315048777
 40
10
 41
1
 50
0
  1
※
  0
TEXT
  8
_e-0_
 62
    7
 10
1364.0614099838781
 20
19.410234880315684
 40
10
 41
1
 50
0
  1
※印は受注生産品
  0
LINE
  8
_e-0_
  6
CONTINUOUS
 62
    7
 10
1059.8567583957526
 20
214.20677759536716
 11
1459.8567583957526
 21
214.20677759536716
  0
LINE
  8
_e-0_
  6
CONTINUOUS
 62
    7
 10
1059.8567583957526
 20
34.206777595367157
 11
1459.8567583957526
 21
34.206777595367157
  0
LINE
  8
_e-0_
  6
CONTINUOUS
 62
    7
 10
1059.8567583957526
 20
184.20677759536716
 11
1459.8567583957526
 21
184.20677759536716
  0
LINE
  8
_e-0_
  6
CONTINUOUS
 62
    7
 10
1059.8567583957526
 20
154.20677759536716
 11
1459.8567583957526
 21
154.20677759536716
  0
LINE
  8
_e-0_
  6
CONTINUOUS
 62
    7
 10
1059.8567583957526
 20
124.20677759536716
 11
1459.8567583957526
 21
124.20677759536716
  0
LINE
  8
_e-0_
  6
CONTINUOUS
 62
    7
 10
1059.8567583957526
 20
94.206777595367157
 11
1459.8567583957526
 21
94.206777595367157
  0
LINE
  8
_e-0_
  6
CONTINUOUS
 62
    7
 10
1059.8567583957526
 20
64.206777595367157
 11
1459.8567583957526
 21
64.206777595367157
  0
LINE
  8
_e-0_
  6
CONTINUOUS
 62
    9
 10
1230.4606341113965
 20
169.20677759536716
 11
1290.4606341113963
 21
169.20677759536716
  0
LINE
  8
_e-0_
  6
CONTINUOUS
 62
    9
 10
1230.4606341113965
 20
139.20677759536716
 11
1290.4606341113963
 21
139.20677759536716
  0
LINE
  8
_e-0_
  6
CONTINUOUS
 62
    9
 10
1260.4606341113965
 20
184.20677759536716
 11
1260.4606341113965
 21
34.206777595367157
  0
LINE
  8
_e-0_
  6
CONTINUOUS
 62
    9
 10
1230.4606341113965
 20
49.206777595367157
 11
1290.4606341113963
 21
49.206777595367157
  0
LINE
  8
_e-0_
  6
CONTINUOUS
 62
    9
 10
1230.4606341113965
 20
79.206777595367157
 11
1290.4606341113963
 21
79.206777595367157
  0
LINE
  8
_e-0_
  6
CONTINUOUS
 62
    9
 10
1230.4606341113965
 20
109.20677759536716
 11
1290.4606341113963
 21
109.20677759536716
  0
LINE
  8
_3-0_
  6
CONTINUOUS
 62
    7
 10
338.85183004206101
 20
417.74026352074634
 11
337.51359274521849
 21
418.9964941825869
  0
ARC
  8
_3-0_
  6
CONTINUOUS
 62
    7
 10
336.14476363810911
 20
417.53830802316486
 40
2
 50
46.810417517358779
 51
90.219207292547381
  0
LINE
  8
_1-0_
  6
CONTINUOUS
 62
    7
 10
296.01774415031713
 20
416.12313516113574
 11
295.01865671641787
 21
416.12313516113574
  0
LINE
  8
_1-0_
  6
CONTINUOUS
 62
    7
 10
298.01865671641792
 20
418.12313432835816
 11
335.01865671641787
 21
418.12313432835816
  0
ARC
  8
_1-0_
  6
CONTINUOUS
 62
    7
 10
298.01865671641792
 20
419.12313432835816
 40
1
 50
180
 51
270
  0
LINE
  8
_1-0_
  6
CONTINUOUS
 62
    7
 10
295.01865671641787
 20
417.12313432835811
 11
295.01865671641787
 21
418.99761455932355
  0
LINE
  8
_1-0_
  6
CONTINUOUS
 62
    7
 10
296.01865671641792
 20
416.12313432835822
 11
1343.8992537313436
 21
416.12313432835822
  0
ARC
  8
_1-0_
  6
CONTINUOUS
 62
    7
 10
296.01865671641792
 20
417.12313432835811
 40
1
 50
180
 51
270
  0
LINE
  8
_1-0_
  6
CONTINUOUS
 62
    7
 10
335.01865671641787
 20
416.12313432835822
 11
335.01865671641787
 21
418.12313432835816
  0
LINE
  8
_3-0_
  6
CONTINUOUS
 62
    7
 10
333.41235322621037
 20
419.15369259561891
 11
331.98542639461857
 21
418.12313432835816
  0
ARC
  8
_3-0_
  6
CONTINUOUS
 62
    7
 10
334.58333433389907
 20
417.53233413881912
 40
2
 50
90.21920729254758
 51
125.83765295427852
  0
LINE
  8
_3-0_
  6
CONTINUOUS
 62
    7
 10
336.13711187877743
 20
419.53829338575599
 11
334.57568257456751
 21
419.53231950141037
  0
LINE
  8
_3-0_
  6
CONTINUOUS
 62
    7
 10
339.28159438813168
 20
417.15675535360344
 11
339.78425693343377
 21
416.12313432835822
  0
ARC
  8
_3-0_
  6
CONTINUOUS
 62
    7
 10
337.48300093495152
 20
416.2820773613243
 40
2
 50
25.934221485997547
 51
46.810417517359113
  0
LINE
  8
_3-0_
  6
CONTINUOUS
 62
    7
 10
331.98542639461857
 20
418.12313432835816
 11
335.01865671641787
 21
418.12313432835816
  0
LINE
  8
_3-0_
  6
CONTINUOUS
 62
    7
 10
335.01865671641787
 20
418.12313432835816
 11
335.01865671641787
 21
416.12313432835822
  0
LINE
  8
_3-0_
  6
CONTINUOUS
 62
    7
 10
335.01865671641787
 20
416.12313432835822
 11
339.78425693343377
 21
416.12313432835822
  0
LINE
  8
_e-0_
  6
CONTINUOUS
 62
    7
 10
670.24938727840458
 20
500.30354982122304
 11
693.34339804598949
 21
500.30354982122304
  0
LINE
  8
_e-0_
  6
CONTINUOUS
 62
    7
 10
652.92887920271573
 20
470.30354982122304
 11
676.02288997030087
 21
470.30354982122304
  0
TEXT
  8
_e-0_
 62
    7
 10
682.93403716489013
 20
460.19011698540214
 40
20.000000000000018
 41
0.9999999999999991
 50
0
  1
ＡＹボンド５８０ＮＦ
  0
LINE
  8
_e-0_
  6
CONTINUOUS
 62
    7
 10
620.35414164250199
 20
413.88244932371066
 11
670.24938727840458
 21
500.30354982122304
  0
LINE
  8
_e-0_
  6
CONTINUOUS
 62
    7
 10
376.35428122732975
 20
483.48567977518286
 11
396.35428122732975
 21
483.48567977518286
  0
TEXT
  8
_e-0_
 62
    7
 10
403.49693953185908
 20
475.32329751249222
 40
20.000000000000018
 41
0.9999999999999991
 50
0
  1
ＦＬシール
  0
LINE
  8
_e-0_
  6
CONTINUOUS
 62
    7
 10
337.88924917518989
 20
416.86228994611128
 11
376.35428122732975
 21
483.48567977518286
  0
TEXT
  8
_e-0_
 62
    7
 10
696.41861427931781
 20
489.968558113097
 40
20.000000000000018
 41
0.999999999999998
 50
0
  1
リベットルーフ
  0
LINE
  8
_2-0_
  6
CONTINUOUS
 62
    7
 10
295.51865671641787
 20
416.2571089245738
 11
295.51865671641787
 21
414.12313432835816
  0
LINE
  8
_2-0_
  6
CONTINUOUS
 62
    7
 10
295.01865671641787
 20
704.12313432835822
 11
297.01865671641792
 21
704.12313432835822
  0
LINE
  8
_2-0_
  6
CONTINUOUS
 62
    7
 10
295.51865671641787
 20
704.12313432835822
 11
295.51865671641787
 21
674.12313432835822
  0
LINE
  8
_2-0_
  6
CONTINUOUS
 62
    7
 10
295.01865671641787
 20
674.12313432835822
 11
295.51865671641787
 21
674.12313432835822
  0
LINE
  8
_2-0_
  6
CONTINUOUS
 62
    7
 10
295.01865671641866
 20
676.63048853685223
 11
295.51865671641804
 21
677.13048853685166
  0
LINE
  8
_2-0_
  6
CONTINUOUS
 62
    7
 10
295.01865671641843
 20
680.16602244278533
 11
295.51865671641781
 21
680.66602244278465
  0
LINE
  8
_2-0_
  6
CONTINUOUS
 62
    7
 10
295.01865671641826
 20
683.70155634871844
 11
295.51865671641747
 21
684.20155634871776
  0
LINE
  8
_2-0_
  6
CONTINUOUS
 62
    7
 10
295.01865671641787
 20
687.23709025465143
 11
295.51865671641724
 21
687.73709025465087
  0
LINE
  8
_2-0_
  6
CONTINUOUS
 62
    7
 10
295.01865671641809
 20
690.77262416057579
 11
295.51865671641735
 21
691.27262416057511
  0
LINE
  8
_2-0_
  6
CONTINUOUS
 62
    7
 10
295.0186567164219
 20
694.3081580665131
 11
295.5186567164186
 21
694.8081580665098
  0
LINE
  8
_2-0_
  6
CONTINUOUS
 62
    7
 10
295.01865671642167
 20
697.84369197244609
 11
295.51865671641838
 21
698.34369197244291
  0
LINE
  8
_2-0_
  6
CONTINUOUS
 62
    7
 10
295.01865671642133
 20
701.3792258783792
 11
295.51865671641804
 21
701.87922587837591
  0
LINE
  8
_1-0_
  6
CONTINUOUS
 62
    7
 10
297.01865671641792
 20
419.12313432835816
 11
297.01865671641792
 21
704.12313432835822
  0
ARC
  8
_7-0_
  6
CONTINUOUS
 62
    7
 10
295.52572408618016
 20
713.70800791185843
 40
0.3
 50
90
 51
180
  0
LINE
  8
_7-0_
  6
CONTINUOUS
 62
    7
 10
296.42572408618105
 20
714.00800791185816
 11
295.52572408618016
 21
714.00800791185816
  0
ARC
  8
_7-0_
  6
CONTINUOUS
 62
    7
 10
296.42572408618105
 20
713.70800791185843
 40
0.3
 50
0
 51
90
  0
LINE
  8
_7-0_
  6
CONTINUOUS
 62
    7
 10
297.22572408618032
 20
684.36695465200489
 11
300.72572408618055
 21
687.68274412568894
  0
LINE
  8
_7-0_
  6
CONTINUOUS
 62
    7
 10
299.02572408618039
 20
684.00596744227289
 11
302.22572408618089
 21
687.03754638964142
  0
LINE
  8
_7-0_
  6
CONTINUOUS
 62
    7
 10
301.92572408618116
 20
692.00800791185861
 11
302.22572408618089
 21
692.30800791185834
  0
LINE
  8
_7-0_
  6
CONTINUOUS
 62
    7
 10
302.22572408618089
 20
691.70800791185843
 11
302.22572408618089
 21
687.03754638964142
  0
LINE
  8
_7-0_
  6
CONTINUOUS
 62
    7
 10
301.92572408618116
 20
692.00800791185861
 11
302.22572408618089
 21
691.70800791185843
  0
LINE
  8
_7-0_
  6
CONTINUOUS
 62
    7
 10
296.72572408618078
 20
713.70800791185843
 11
296.72572408618078
 21
709.00255658835874
  0
LINE
  8
_7-0_
  6
CONTINUOUS
 62
    7
 10
302.22572408618089
 20
705.005202556418
 11
296.72572408618078
 21
709.00255658835874
  0
LINE
  8
_7-0_
  6
CONTINUOUS
 62
    7
 10
302.22572408618089
 20
692.30800791185834
 11
302.22572408618089
 21
705.005202556418
  0
LINE
  8
_7-0_
  6
CONTINUOUS
 62
    7
 10
300.72572408618055
 20
687.68274412568894
 11
300.72572408618055
 21
704.24106839033334
  0
LINE
  8
_7-0_
  6
CONTINUOUS
 62
    7
 10
300.72572408618055
 20
704.24106839033334
 11
295.22572408618043
 21
708.23842242227443
  0
LINE
  8
_7-0_
  6
CONTINUOUS
 62
    7
 10
295.22572408618043
 20
713.70800791185843
 11
295.22572408618043
 21
708.23842242227443
  0
LINE
  8
_7-0_
  6
CONTINUOUS
 62
    7
 10
299.02572408618039
 20
679.30800791185811
 11
299.02572408618039
 21
684.00596744227289
  0
ARC
  8
_7-0_
  6
CONTINUOUS
 62
    7
 10
298.72572408618066
 20
679.30800791185811
 40
0.3
 50
270
 51
0
  0
LINE
  8
_7-0_
  6
CONTINUOUS
 62
    7
 10
297.48901662318826
 20
679.00800791185839
 11
298.72572408618066
 21
679.00800791185839
  0
ARC
  8
_7-0_
  6
CONTINUOUS
 62
    7
 10
297.48901662318826
 20
679.15800791185825
 40
0.15
 50
149.08092433709547
 51
270
  0
LINE
  8
_7-0_
  6
CONTINUOUS
 62
    7
 10
297.47959859986065
 20
679.43421052968893
 11
297.3603325406965
 21
679.23508194713179
  0
ARC
  8
_7-0_
  6
CONTINUOUS
 62
    7
 10
297.35091451736889
 20
679.51128456496144
 40
0.15
 50
329.08092433709504
 51
30.963756532071837
  0
LINE
  8
_7-0_
  6
CONTINUOUS
 62
    7
 10
297.27246082390718
 20
679.93358831547437
 11
297.47953845622658
 21
679.58845892827617
  0
ARC
  8
_7-0_
  6
CONTINUOUS
 62
    7
 10
297.40108476276407
 20
680.01076267878852
 40
0.15
 50
149.08092433709638
 51
210.96375653207213
  0
LINE
  8
_7-0_
  6
CONTINUOUS
 62
    7
 10
297.47959859986065
 20
680.43377778334525
 11
297.27240068027311
 21
680.08783671406161
  0
ARC
  8
_7-0_
  6
CONTINUOUS
 62
    7
 10
297.35091451736889
 20
680.51085181861833
 40
0.15
 50
329.08092433709612
 51
30.963756532071837
  0
LINE
  8
_7-0_
  6
CONTINUOUS
 62
    7
 10
297.27246082390718
 20
680.9331555691308
 11
297.47953845622658
 21
680.58802618193249
  0
ARC
  8
_7-0_
  6
CONTINUOUS
 62
    7
 10
297.40108476276407
 20
681.01032993244507
 40
0.15
 50
149.08092433709638
 51
210.96375653207213
  0
LINE
  8
_7-0_
  6
CONTINUOUS
 62
    7
 10
297.47959859986065
 20
681.4333450370018
 11
297.27240068027311
 21
681.0874039677185
  0
ARC
  8
_7-0_
  6
CONTINUOUS
 62
    7
 10
297.35091451736889
 20
681.51041907227477
 40
0.15
 50
329.08092433709612
 51
30.963756532071837
  0
LINE
  8
_7-0_
  6
CONTINUOUS
 62
    7
 10
297.27246082390718
 20
681.9327228227877
 11
297.47953845622658
 21
681.58759343558904
  0
ARC
  8
_7-0_
  6
CONTINUOUS
 62
    7
 10
297.40108476276407
 20
682.0098971861014
 40
0.15
 50
149.08092433709638
 51
210.96375653207213
  0
LINE
  8
_7-0_
  6
CONTINUOUS
 62
    7
 10
297.47959859986065
 20
682.43291229065812
 11
297.27240068027311
 21
682.08697122137494
  0
ARC
  8
_7-0_
  6
CONTINUOUS
 62
    7
 10
297.35091451736889
 20
682.50998632593166
 40
0.15
 50
329.08092433709612
 51
30.963756532072424
  0
LINE
  8
_7-0_
  6
CONTINUOUS
 62
    7
 10
297.27319514998339
 20
682.93106619965113
 11
297.47953845622658
 21
682.58716068924537
  0
ARC
  8
_7-0_
  6
CONTINUOUS
 62
    7
 10
297.40181908883937
 20
683.00824056296528
 40
0.15
 50
149.08092433709584
 51
210.96375653207278
  0
LINE
  8
_7-0_
  6
CONTINUOUS
 62
    7
 10
297.47959859986065
 20
683.43002962457535
 11
297.27313500634762
 21
683.08531459823837
  0
ARC
  8
_7-0_
  6
CONTINUOUS
 62
    7
 10
297.35091451736889
 20
683.50710365984833
 40
0.15
 50
329.08092433709555
 51
30.963756532072448
  0
LINE
  8
_7-0_
  6
CONTINUOUS
 62
    7
 10
297.2471001473242
 20
683.97167520466701
 11
297.47953845622658
 21
683.5842780231626
  0
LINE
  8
_7-0_
  6
CONTINUOUS
 62
    7
 10
297.22572408618032
 20
684.04884956798071
 11
297.22572408618032
 21
684.36695465200489
  0
ARC
  8
_7-0_
  6
CONTINUOUS
 62
    7
 10
297.37572408618018
 20
684.04884956798071
 40
0.15
 50
180
 51
210.96375653207281
  0
LINE
  8
_6-0_
  6
CONTINUOUS
 62
    7
 10
300.12572408618087
 20
690.43300791185857
 11
300.65072408618084
 21
690.43300791185857
  0
LINE
  8
_6-0_
  6
CONTINUOUS
 62
    7
 10
295.72572408618089
 20
690.43300791185857
 11
298.72572408618089
 21
690.43300791185857
  0
LINE
  8
_6-0_
  6
CONTINUOUS
 62
    7
 10
298.72572408618089
 20
693.58300791185854
 11
295.72572408618089
 21
693.58300791185854
  0
LINE
  8
_6-0_
  6
CONTINUOUS
 62
    7
 10
300.65072408618084
 20
693.58300791185854
 11
300.12572408618087
 21
693.58300791185854
  0
LINE
  8
_6-0_
  6
CONTINUOUS
 62
    7
 10
295.72572408618089
 20
693.5830079118582
 11
295.72572408618089
 21
694.50589946601383
  0
LINE
  8
_6-0_
  6
CONTINUOUS
 62
    7
 10
295.72572408618089
 20
689.5101153176156
 11
295.72572408618089
 21
690.43300791185834
  0
LINE
  8
_6-0_
  6
CONTINUOUS
 62
    7
 10
296.42572408618094
 20
693.58300791185854
 11
296.42572408618094
 21
694.50589946601372
  0
LINE
  8
_6-0_
  6
CONTINUOUS
 62
    7
 10
296.42572408618088
 20
689.5101153176156
 11
296.42572408618088
 21
690.43300791185857
  0
LINE
  8
_6-0_
  6
CONTINUOUS
 62
    7
 10
296.92572408618094
 20
693.58300791185854
 11
296.92572408618094
 21
694.50589946601372
  0
LINE
  8
_6-0_
  6
CONTINUOUS
 62
    7
 10
296.92572408618082
 20
689.5101153176156
 11
296.92572408618082
 21
690.43300791185857
  0
LINE
  8
_6-0_
  6
CONTINUOUS
 62
    7
 10
297.42572408618088
 20
693.58300791185854
 11
297.42572408618088
 21
694.50589946601372
  0
LINE
  8
_6-0_
  6
CONTINUOUS
 62
    7
 10
297.42572408618088
 20
689.5101153176156
 11
297.42572408618088
 21
690.43300791185857
  0
LINE
  8
_6-0_
  6
CONTINUOUS
 62
    7
 10
297.92572408618082
 20
693.58300791185854
 11
297.92572408618082
 21
694.50589946601372
  0
LINE
  8
_6-0_
  6
CONTINUOUS
 62
    7
 10
297.92572408618082
 20
689.5101153176156
 11
297.92572408618082
 21
690.43300791185857
  0
LINE
  8
_6-0_
  6
CONTINUOUS
 62
    7
 10
298.42572408618088
 20
693.58300791185854
 11
298.42572408618088
 21
694.50589946601372
  0
LINE
  8
_6-0_
  6
CONTINUOUS
 62
    7
 10
298.42572408618088
 20
689.5101153176156
 11
298.42572408618088
 21
690.43300791185857
  0
LINE
  8
_6-0_
  6
CONTINUOUS
 62
    7
 10
298.72572408618089
 20
690.43300791185857
 11
298.72572408618089
 21
689.5101153176156
  0
LINE
  8
_6-0_
  6
CONTINUOUS
 62
    7
 10
298.72572408618089
 20
694.50589946601372
 11
298.72572408618089
 21
693.58300791185854
  0
LINE
  8
_6-0_
  6
CONTINUOUS
 62
    7
 10
300.62572408618087
 20
693.58300791185854
 11
300.62572408618087
 21
694.50589946601372
  0
LINE
  8
_6-0_
  6
CONTINUOUS
 62
    7
 10
300.62572408618087
 20
689.5101153176156
 11
300.62572408618087
 21
690.43300791185857
  0
LINE
  8
_6-0_
  6
CONTINUOUS
 62
    7
 10
301.12572408618087
 20
693.50967365362658
 11
301.12572408618087
 21
694.50589946601372
  0
LINE
  8
_6-0_
  6
CONTINUOUS
 62
    7
 10
301.12572408618087
 20
689.5101153176156
 11
301.12572408618087
 21
690.50634217009042
  0
LINE
  8
_6-0_
  6
CONTINUOUS
 62
    7
 10
301.62572408618081
 20
693.24493959954361
 11
301.62572408618081
 21
694.50589946601372
  0
LINE
  8
_6-0_
  6
CONTINUOUS
 62
    7
 10
301.62572408618081
 20
689.5101153176156
 11
301.62572408618081
 21
690.77107622417316
  0
LINE
  8
_6-0_
  6
CONTINUOUS
 62
    7
 10
298.72572408618089
 20
690.43300791185857
 11
298.72572408618089
 21
689.5101153176156
  0
LINE
  8
_6-0_
  6
CONTINUOUS
 62
    7
 10
298.72572408618089
 20
694.50589946601372
 11
298.72572408618089
 21
693.5830079118582
  0
LINE
  8
_6-0_
  6
CONTINUOUS
 62
    7
 10
300.12572408618087
 20
690.43300791185834
 11
300.12572408618087
 21
689.5101153176156
  0
LINE
  8
_6-0_
  6
CONTINUOUS
 62
    7
 10
300.12572408618087
 20
694.50589946601372
 11
300.12572408618087
 21
693.5830079118582
  0
ARC
  8
_6-0_
  6
CONTINUOUS
 62
    7
 10
299.42572408618094
 20
689.84166175801215
 40
0.9163461538461776
 50
40.19046238381177
 51
139.80953761619008
  0
ARC
  8
_6-0_
  6
CONTINUOUS
 62
    7
 10
299.42572408618094
 20
694.17435406570462
 40
0.9163461538461765
 50
220.19046238380903
 51
319.80953761618855
  0
ARC
  8
_6-0_
  6
CONTINUOUS
 62
    7
 10
300.65072408618084
 20
692.00800791185861
 40
1.5749999999999891
 50
270
 51
90
  0
ARC
  8
_6-0_
  6
CONTINUOUS
 62
    7
 10
295.72572408618089
 20
692.00800791185861
 40
1.5749999999999891
 50
90
 51
270
  0
LINE
  8
_6-0_
  6
CONTINUOUS
 62
    7
 10
298.72572408618089
 20
689.5101153176156
 11
302.22572408618089
 21
689.5101153176156
  0
LINE
  8
_6-0_
  6
CONTINUOUS
 62
    7
 10
298.72572408618089
 20
694.50589946601372
 11
302.22572408618089
 21
694.50589946601372
  0
LINE
  8
_6-0_
  6
CONTINUOUS
 62
    7
 10
298.72572408618089
 20
689.5101153176156
 11
296.42572408618094
 21
689.5101153176156
  0
LINE
  8
_6-0_
  6
CONTINUOUS
 62
    7
 10
298.72572408618089
 20
694.50589946601372
 11
296.42572408618094
 21
694.50589946601372
  0
LINE
  8
_6-0_
  6
CONTINUOUS
 62
    7
 10
288.83955202496747
 20
694.50589551766416
 11
288.83810777249573
 21
694.50564258110853
  0
LINE
  8
_6-0_
  6
CONTINUOUS
 62
    7
 10
285.7409010974801
 20
694.50589570454804
 11
285.73945684500836
 21
694.50564276799241
  0
LINE
  8
_6-0_
  6
CONTINUOUS
 62
    7
 10
282.64225016999274
 20
694.50589589143192
 11
282.64080591752099
 21
694.50564295487652
  0
LINE
  8
_6-0_
  6
CONTINUOUS
 62
    7
 10
279.54359924250537
 20
694.50589607831603
 11
279.54215510192205
 21
694.50564290156183
  0
LINE
  8
_6-0_
  6
CONTINUOUS
 62
    7
 10
276.50818608904842
 20
694.50589634483458
 11
276.5067272181999
 21
694.50564074872148
  0
LINE
  8
_6-0_
  6
CONTINUOUS
 62
    7
 10
276.50818608904842
 20
689.5101194788823
 11
276.5067272181999
 21
689.51037507499564
  0
LINE
  8
_6-0_
  6
CONTINUOUS
 62
    7
 10
276.50818608904842
 20
689.5101194788823
 11
276.50818608904842
 21
690.58449127363906
  0
LINE
  8
_6-0_
  6
CONTINUOUS
 62
    7
 10
279.54359924250537
 20
689.51011974540108
 11
279.54215510192205
 21
689.51037292215517
  0
LINE
  8
_6-0_
  6
CONTINUOUS
 62
    7
 10
279.54359924250537
 20
689.51011974540108
 11
279.54359924250537
 21
690.584593140577
  0
LINE
  8
_6-0_
  6
CONTINUOUS
 62
    7
 10
282.64225016999274
 20
689.51011993228485
 11
282.64080591752099
 21
689.51037286884059
  0
LINE
  8
_6-0_
  6
CONTINUOUS
 62
    7
 10
282.64225016999274
 20
689.51011993228485
 11
282.64225016999274
 21
690.58459280876832
  0
LINE
  8
_6-0_
  6
CONTINUOUS
 62
    7
 10
285.7409010974801
 20
689.51012011916896
 11
285.73945684500836
 21
689.51037305572436
  0
LINE
  8
_6-0_
  6
CONTINUOUS
 62
    7
 10
285.7409010974801
 20
689.51012011916896
 11
285.7409010974801
 21
690.58459262188444
  0
LINE
  8
_6-0_
  6
CONTINUOUS
 62
    7
 10
288.83955202496747
 20
689.51012030605284
 11
288.83810777249573
 21
689.51037324260847
  0
LINE
  8
_6-0_
  6
CONTINUOUS
 62
    7
 10
284.1058120348298
 20
690.13300791185861
 11
282.64225016999274
 21
690.13300791185861
  0
LINE
  8
_6-0_
  6
CONTINUOUS
 62
    7
 10
284.10581238169368
 20
693.88300791185861
 11
282.64225016999274
 21
693.88300791185861
  0
LINE
  8
_6-0_
  6
CONTINUOUS
 62
    7
 10
281.00716120462801
 20
690.13300791185861
 11
279.54359924250537
 21
690.13300791185861
  0
LINE
  8
_6-0_
  6
CONTINUOUS
 62
    7
 10
281.00716135692073
 20
693.88300791185861
 11
279.54359924250537
 21
693.88300791185861
  0
LINE
  8
_6-0_
  6
CONTINUOUS
 62
    7
 10
277.97174805117106
 20
690.13300791185861
 11
276.50818608904842
 21
690.13300791185861
  0
LINE
  8
_6-0_
  6
CONTINUOUS
 62
    7
 10
277.97174820346379
 20
693.88300791185861
 11
276.50818608904842
 21
693.88300791185861
  0
LINE
  8
_6-0_
  6
CONTINUOUS
 62
    7
 10
283.42164543857973
 20
693.01471826323018
 11
283.77638419361813
 21
693.25018225044471
  0
LINE
  8
_6-0_
  6
CONTINUOUS
 62
    7
 10
283.77638419361813
 20
693.25018225044471
 11
283.7705961254415
 21
693.23939195272203
  0
LINE
  8
_6-0_
  6
CONTINUOUS
 62
    7
 10
283.7705961254415
 20
693.23939195272203
 11
283.76438768934548
 21
693.22852555005795
  0
LINE
  8
_6-0_
  6
CONTINUOUS
 62
    7
 10
283.76438768934548
 20
693.22852555005795
 11
283.75762242301369
 21
693.21743258887579
  0
LINE
  8
_6-0_
  6
CONTINUOUS
 62
    7
 10
283.75762242301369
 20
693.21743258887579
 11
283.75016386412972
 21
693.20596261559922
  0
LINE
  8
_6-0_
  6
CONTINUOUS
 62
    7
 10
283.75016386412972
 20
693.20596261559922
 11
283.74187555037724
 21
693.19396517665211
  0
LINE
  8
_6-0_
  6
CONTINUOUS
 62
    7
 10
283.74187555037724
 20
693.19396517665211
 11
283.73262101943976
 21
693.1812898184578
  0
LINE
  8
_6-0_
  6
CONTINUOUS
 62
    7
 10
283.73262101943976
 20
693.1812898184578
 11
283.72226380900111
 21
693.16778608744016
  0
LINE
  8
_6-0_
  6
CONTINUOUS
 62
    7
 10
283.72226380900111
 20
693.16778608744016
 11
283.71066745674466
 21
693.15330353002253
  0
LINE
  8
_6-0_
  6
CONTINUOUS
 62
    7
 10
283.71066745674466
 20
693.15330353002253
 11
283.70561392372394
 21
693.14789936385478
  0
LINE
  8
_6-0_
  6
CONTINUOUS
 62
    7
 10
283.70561392372394
 20
693.14789936385478
 11
283.69954418561116
 21
693.14165213256001
  0
LINE
  8
_6-0_
  6
CONTINUOUS
 62
    7
 10
283.69954418561116
 20
693.14165213256001
 11
283.69276402481745
 21
693.134858739744
  0
LINE
  8
_6-0_
  6
CONTINUOUS
 62
    7
 10
283.69276402481745
 20
693.134858739744
 11
283.68557922375396
 21
693.12781608901321
  0
LINE
  8
_6-0_
  6
CONTINUOUS
 62
    7
 10
283.68557922375396
 20
693.12781608901321
 11
283.67829556483167
 21
693.12082108397317
  0
LINE
  8
_6-0_
  6
CONTINUOUS
 62
    7
 10
283.67829556483167
 20
693.12082108397317
 11
283.6712188304619
 21
693.11417062823011
  0
LINE
  8
_6-0_
  6
CONTINUOUS
 62
    7
 10
283.6712188304619
 20
693.11417062823011
 11
283.66465480305556
 21
693.10816162539004
  0
LINE
  8
_6-0_
  6
CONTINUOUS
 62
    7
 10
283.66465480305556
 20
693.10816162539004
 11
283.65890926502391
 21
693.10309097905872
  0
LINE
  8
_6-0_
  6
CONTINUOUS
 62
    7
 10
283.65890926502391
 20
693.10309097905872
 11
283.6483305896266
 21
693.09524074716876
  0
LINE
  8
_6-0_
  6
CONTINUOUS
 62
    7
 10
283.6483305896266
 20
693.09524074716876
 11
283.63868033434363
 21
693.08827288240877
  0
LINE
  8
_6-0_
  6
CONTINUOUS
 62
    7
 10
283.63868033434363
 20
693.08827288240877
 11
283.62958235565657
 21
693.08194871838566
  0
LINE
  8
_6-0_
  6
CONTINUOUS
 62
    7
 10
283.62958235565657
 20
693.08194871838566
 11
283.62066051004717
 21
693.07602958870632
  0
LINE
  8
_6-0_
  6
CONTINUOUS
 62
    7
 10
283.62066051004717
 20
693.07602958870632
 11
283.61153865399706
 21
693.07027682697753
  0
LINE
  8
_6-0_
  6
CONTINUOUS
 62
    7
 10
283.61153865399706
 20
693.07027682697753
 11
283.601840643988
 21
693.06445176680631
  0
LINE
  8
_6-0_
  6
CONTINUOUS
 62
    7
 10
283.601840643988
 20
693.06445176680631
 11
283.5911903365016
 21
693.05831574179933
  0
LINE
  8
_6-0_
  6
CONTINUOUS
 62
    7
 10
283.5911903365016
 20
693.05831574179933
 11
283.57921158801958
 21
693.05163008556394
  0
LINE
  8
_6-0_
  6
CONTINUOUS
 62
    7
 10
283.57921158801958
 20
693.05163008556394
 11
283.57159800906254
 21
693.04828678784111
  0
LINE
  8
_6-0_
  6
CONTINUOUS
 62
    7
 10
283.57159800906254
 20
693.04828678784111
 11
283.56260151644608
 21
693.04459947551993
  0
LINE
  8
_6-0_
  6
CONTINUOUS
 62
    7
 10
283.56260151644608
 20
693.04459947551993
 11
283.5526585946107
 21
693.04072731454289
  0
LINE
  8
_6-0_
  6
CONTINUOUS
 62
    7
 10
283.5526585946107
 20
693.04072731454289
 11
283.54220572799693
 21
693.03682947085213
  0
LINE
  8
_6-0_
  6
CONTINUOUS
 62
    7
 10
283.54220572799693
 20
693.03682947085213
 11
283.53167940104504
 21
693.03306511038977
  0
LINE
  8
_6-0_
  6
CONTINUOUS
 62
    7
 10
283.53167940104504
 20
693.03306511038977
 11
283.52151609819566
 21
693.0295933990983
  0
LINE
  8
_6-0_
  6
CONTINUOUS
 62
    7
 10
283.52151609819566
 20
693.0295933990983
 11
283.51215230388902
 21
693.02657350291975
  0
LINE
  8
_6-0_
  6
CONTINUOUS
 62
    7
 10
283.51215230388902
 20
693.02657350291975
 11
283.50402450256581
 21
693.0241645877968
  0
LINE
  8
_6-0_
  6
CONTINUOUS
 62
    7
 10
283.50402450256581
 20
693.0241645877968
 11
283.48964947693338
 21
693.021608298091
  0
LINE
  8
_6-0_
  6
CONTINUOUS
 62
    7
 10
283.48964947693338
 20
693.021608298091
 11
283.47691760465204
 21
693.01952883851811
  0
LINE
  8
_6-0_
  6
CONTINUOUS
 62
    7
 10
283.47691760465204
 20
693.01952883851811
 11
283.46558982942236
 21
693.0178842938883
  0
LINE
  8
_6-0_
  6
CONTINUOUS
 62
    7
 10
283.46558982942236
 20
693.0178842938883
 11
283.45542709494532
 21
693.01663274901125
  0
LINE
  8
_6-0_
  6
CONTINUOUS
 62
    7
 10
283.45542709494532
 20
693.01663274901125
 11
283.44619034492166
 21
693.015732288697
  0
LINE
  8
_6-0_
  6
CONTINUOUS
 62
    7
 10
283.44619034492166
 20
693.015732288697
 11
283.43764052305238
 21
693.01514099775545
  0
LINE
  8
_6-0_
  6
CONTINUOUS
 62
    7
 10
283.43764052305238
 20
693.01514099775545
 11
283.42953857303814
 21
693.01481696099643
  0
LINE
  8
_6-0_
  6
CONTINUOUS
 62
    7
 10
283.42953857303814
 20
693.01481696099643
 11
283.42164543857973
 21
693.01471826323018
  0
LINE
  8
_6-0_
  6
CONTINUOUS
 62
    7
 10
283.77638419361813
 20
690.76583290695248
 11
283.42164543857973
 21
691.00129689416713
  0
LINE
  8
_6-0_
  6
CONTINUOUS
 62
    7
 10
283.42164543857973
 20
691.00129689416713
 11
283.42953202318392
 21
691.00119857936261
  0
LINE
  8
_6-0_
  6
CONTINUOUS
 62
    7
 10
283.42953202318392
 20
691.00119857936261
 11
283.43760897781988
 21
691.00087691772967
  0
LINE
  8
_6-0_
  6
CONTINUOUS
 62
    7
 10
283.43760897781988
 20
691.00087691772967
 11
283.44611236555971
 21
691.00029183343906
  0
LINE
  8
_6-0_
  6
CONTINUOUS
 62
    7
 10
283.44611236555971
 20
691.00029183343906
 11
283.45527824947521
 21
690.99940325066098
  0
LINE
  8
_6-0_
  6
CONTINUOUS
 62
    7
 10
283.45527824947521
 20
690.99940325066098
 11
283.4653426926385
 21
690.9981710935665
  0
LINE
  8
_6-0_
  6
CONTINUOUS
 62
    7
 10
283.4653426926385
 20
690.9981710935665
 11
283.47654175812136
 21
690.99655528632616
  0
LINE
  8
_6-0_
  6
CONTINUOUS
 62
    7
 10
283.47654175812136
 20
690.99655528632616
 11
283.4891115089959
 21
690.99451575311048
  0
LINE
  8
_6-0_
  6
CONTINUOUS
 62
    7
 10
283.4891115089959
 20
690.99451575311048
 11
283.50328800833404
 21
690.99201241809033
  0
LINE
  8
_6-0_
  6
CONTINUOUS
 62
    7
 10
283.50328800833404
 20
690.99201241809033
 11
283.51149874368537
 21
690.98960260090735
  0
LINE
  8
_6-0_
  6
CONTINUOUS
 62
    7
 10
283.51149874368537
 20
690.98960260090735
 11
283.5209407849951
 21
690.98658057946875
  0
LINE
  8
_6-0_
  6
CONTINUOUS
 62
    7
 10
283.5209407849951
 20
690.98658057946875
 11
283.5311724262142
 21
690.98310766264319
  0
LINE
  8
_6-0_
  6
CONTINUOUS
 62
    7
 10
283.5311724262142
 20
690.98310766264319
 11
283.54175196129347
 21
690.97934515929865
  0
LINE
  8
_6-0_
  6
CONTINUOUS
 62
    7
 10
283.54175196129347
 20
690.97934515929865
 11
283.55223768418398
 21
690.97545437830331
  0
LINE
  8
_6-0_
  6
CONTINUOUS
 62
    7
 10
283.55223768418398
 20
690.97545437830331
 11
283.56218788883655
 21
690.97159662852528
  0
LINE
  8
_6-0_
  6
CONTINUOUS
 62
    7
 10
283.56218788883655
 20
690.97159662852528
 11
283.57116086920212
 21
690.9679332188332
  0
LINE
  8
_6-0_
  6
CONTINUOUS
 62
    7
 10
283.57116086920212
 20
690.9679332188332
 11
283.57871491923174
 21
690.96462545809516
  0
LINE
  8
_6-0_
  6
CONTINUOUS
 62
    7
 10
283.57871491923174
 20
690.96462545809516
 11
283.59069142748399
 21
690.95796300410211
  0
LINE
  8
_6-0_
  6
CONTINUOUS
 62
    7
 10
283.59069142748399
 20
690.95796300410211
 11
283.60136152765517
 21
690.95183326110543
  0
LINE
  8
_6-0_
  6
CONTINUOUS
 62
    7
 10
283.60136152765517
 20
690.95183326110543
 11
283.61109487082416
 21
690.94600223943075
  0
LINE
  8
_6-0_
  6
CONTINUOUS
 62
    7
 10
283.61109487082416
 20
690.94600223943075
 11
283.62026110806931
 21
690.94023594940381
  0
LINE
  8
_6-0_
  6
CONTINUOUS
 62
    7
 10
283.62026110806931
 20
690.94023594940381
 11
283.62922989046945
 21
690.93430040135013
  0
LINE
  8
_6-0_
  6
CONTINUOUS
 62
    7
 10
283.62922989046945
 20
690.93430040135013
 11
283.63837086910308
 21
690.92796160559578
  0
LINE
  8
_6-0_
  6
CONTINUOUS
 62
    7
 10
283.63837086910308
 20
690.92796160559578
 11
283.64805369504887
 21
690.92098557246595
  0
LINE
  8
_6-0_
  6
CONTINUOUS
 62
    7
 10
283.64805369504887
 20
690.92098557246595
 11
283.6586480193854
 21
690.91313831228661
  0
LINE
  8
_6-0_
  6
CONTINUOUS
 62
    7
 10
283.6586480193854
 20
690.91313831228661
 11
283.66433805992807
 21
690.90812478827479
  0
LINE
  8
_6-0_
  6
CONTINUOUS
 62
    7
 10
283.66433805992807
 20
690.90812478827479
 11
283.67084627073615
 21
690.90217935201417
  0
LINE
  8
_6-0_
  6
CONTINUOUS
 62
    7
 10
283.67084627073615
 20
690.90217935201417
 11
283.67787128140088
 21
690.89559335013269
  0
LINE
  8
_6-0_
  6
CONTINUOUS
 62
    7
 10
283.67787128140088
 20
690.89559335013269
 11
283.68511172151335
 21
690.8886581292586
  0
LINE
  8
_6-0_
  6
CONTINUOUS
 62
    7
 10
283.68511172151335
 20
690.8886581292586
 11
283.69226622066458
 21
690.88166503601985
  0
LINE
  8
_6-0_
  6
CONTINUOUS
 62
    7
 10
283.69226622066458
 20
690.88166503601985
 11
283.69903340844581
 21
690.87490541704437
  0
LINE
  8
_6-0_
  6
CONTINUOUS
 62
    7
 10
283.69903340844581
 20
690.87490541704437
 11
283.70511191444797
 21
690.86867061896044
  0
LINE
  8
_6-0_
  6
CONTINUOUS
 62
    7
 10
283.70511191444797
 20
690.86867061896044
 11
283.71020036826235
 21
690.86325198839609
  0
LINE
  8
_6-0_
  6
CONTINUOUS
 62
    7
 10
283.71020036826235
 20
690.86325198839609
 11
283.72192776292451
 21
690.84863759239533
  0
LINE
  8
_6-0_
  6
CONTINUOUS
 62
    7
 10
283.72192776292451
 20
690.84863759239533
 11
283.73238918322164
 21
690.83502318418937
  0
LINE
  8
_6-0_
  6
CONTINUOUS
 62
    7
 10
283.73238918322164
 20
690.83502318418937
 11
283.74172412826596
 21
690.82225691428357
  0
LINE
  8
_6-0_
  6
CONTINUOUS
 62
    7
 10
283.74172412826596
 20
690.82225691428357
 11
283.75007209716961
 21
690.81018693318367
  0
LINE
  8
_6-0_
  6
CONTINUOUS
 62
    7
 10
283.75007209716961
 20
690.81018693318367
 11
283.75757258904451
 21
690.79866139139517
  0
LINE
  8
_6-0_
  6
CONTINUOUS
 62
    7
 10
283.75757258904451
 20
690.79866139139517
 11
283.76436510300289
 21
690.78752843942334
  0
LINE
  8
_6-0_
  6
CONTINUOUS
 62
    7
 10
283.76436510300289
 20
690.78752843942334
 11
283.77058913815677
 21
690.77663622777413
  0
LINE
  8
_6-0_
  6
CONTINUOUS
 62
    7
 10
283.77058913815677
 20
690.77663622777413
 11
283.77638419361813
 21
690.76583290695248
  0
LINE
  8
_6-0_
  6
CONTINUOUS
 62
    7
 10
283.42164535515229
 20
693.01471830676201
 11
283.021676868643
 21
693.01471830676201
  0
LINE
  8
_6-0_
  6
CONTINUOUS
 62
    7
 10
283.021676868643
 20
691.00129682699821
 11
283.42164535515229
 21
691.00129682699821
  0
LINE
  8
_6-0_
  6
CONTINUOUS
 62
    7
 10
285.7409010974801
 20
694.50589570454804
 11
285.7409010974801
 21
694.5057664910878
  0
LINE
  8
_6-0_
  6
CONTINUOUS
 62
    7
 10
285.7409010974801
 20
694.5057664910878
 11
285.7409010974801
 21
694.50542583742003
  0
LINE
  8
_6-0_
  6
CONTINUOUS
 62
    7
 10
285.7409010974801
 20
694.50542583742003
 11
285.7409010974801
 21
694.50494422361407
  0
LINE
  8
_6-0_
  6
CONTINUOUS
 62
    7
 10
285.7409010974801
 20
694.50494422361407
 11
285.7409010974801
 21
694.5043921297389
  0
LINE
  8
_6-0_
  6
CONTINUOUS
 62
    7
 10
285.7409010974801
 20
694.5043921297389
 11
285.7409010974801
 21
694.5038400358635
  0
LINE
  8
_6-0_
  6
CONTINUOUS
 62
    7
 10
285.7409010974801
 20
694.5038400358635
 11
285.7409010974801
 21
694.50335842205743
  0
LINE
  8
_6-0_
  6
CONTINUOUS
 62
    7
 10
285.7409010974801
 20
694.50335842205743
 11
285.7409010974801
 21
694.50301776838978
  0
LINE
  8
_6-0_
  6
CONTINUOUS
 62
    7
 10
285.7409010974801
 20
694.50301776838978
 11
285.7409010974801
 21
694.50288855492977
  0
LINE
  8
_6-0_
  6
CONTINUOUS
 62
    7
 10
285.7409010974801
 20
694.50288855492977
 11
285.7409010974801
 21
694.45862324605071
  0
LINE
  8
_6-0_
  6
CONTINUOUS
 62
    7
 10
285.7409010974801
 20
694.45862324605071
 11
285.7409010974801
 21
694.34192379536967
  0
LINE
  8
_6-0_
  6
CONTINUOUS
 62
    7
 10
285.7409010974801
 20
694.34192379536967
 11
285.7409010974801
 21
694.1769349168203
  0
LINE
  8
_6-0_
  6
CONTINUOUS
 62
    7
 10
285.7409010974801
 20
694.1769349168203
 11
285.7409010974801
 21
693.98780132433728
  0
LINE
  8
_6-0_
  6
CONTINUOUS
 62
    7
 10
285.7409010974801
 20
693.98780132433728
 11
285.7409010974801
 21
693.79866773185427
  0
LINE
  8
_6-0_
  6
CONTINUOUS
 62
    7
 10
285.7409010974801
 20
693.79866773185427
 11
285.7409010974801
 21
693.6336788533049
  0
LINE
  8
_6-0_
  6
CONTINUOUS
 62
    7
 10
285.7409010974801
 20
693.6336788533049
 11
285.7409010974801
 21
693.51697940262397
  0
LINE
  8
_6-0_
  6
CONTINUOUS
 62
    7
 10
285.7409010974801
 20
693.51697940262397
 11
285.7409010974801
 21
693.4727140937448
  0
LINE
  8
_6-0_
  6
CONTINUOUS
 62
    7
 10
285.7409010974801
 20
693.4727140937448
 11
285.7409010974801
 21
693.47093985131085
  0
LINE
  8
_6-0_
  6
CONTINUOUS
 62
    7
 10
285.7409010974801
 20
693.47093985131085
 11
285.7409010974801
 21
693.46626230307561
  0
LINE
  8
_6-0_
  6
CONTINUOUS
 62
    7
 10
285.7409010974801
 20
693.46626230307561
 11
285.7409010974801
 21
693.45964921763948
  0
LINE
  8
_6-0_
  6
CONTINUOUS
 62
    7
 10
285.7409010974801
 20
693.45964921763948
 11
285.7409010974801
 21
693.45206836360285
  0
LINE
  8
_6-0_
  6
CONTINUOUS
 62
    7
 10
285.7409010974801
 20
693.45206836360285
 11
285.7409010974801
 21
693.44448750956644
  0
LINE
  8
_6-0_
  6
CONTINUOUS
 62
    7
 10
285.7409010974801
 20
693.44448750956644
 11
285.7409010974801
 21
693.43787442413031
  0
LINE
  8
_6-0_
  6
CONTINUOUS
 62
    7
 10
285.7409010974801
 20
693.43787442413031
 11
285.7409010974801
 21
693.43319687589519
  0
LINE
  8
_6-0_
  6
CONTINUOUS
 62
    7
 10
285.7409010974801
 20
693.43319687589519
 11
285.7409010974801
 21
693.4314226334609
  0
LINE
  8
_6-0_
  6
CONTINUOUS
 62
    7
 10
284.29757736195245
 20
694.25138501151423
 11
284.29613646123107
 21
694.24861706698175
  0
LINE
  8
_6-0_
  6
CONTINUOUS
 62
    7
 10
284.29613646123107
 20
694.24861706698175
 11
284.29421408200602
 21
694.24492421084904
  0
LINE
  8
_6-0_
  6
CONTINUOUS
 62
    7
 10
284.29421408200602
 20
694.24492421084904
 11
284.29195462385178
 21
694.24058383211832
  0
LINE
  8
_6-0_
  6
CONTINUOUS
 62
    7
 10
284.29195462385178
 20
694.24058383211832
 11
284.28950248634305
 21
694.23587331979115
  0
LINE
  8
_6-0_
  6
CONTINUOUS
 62
    7
 10
284.28950248634305
 20
694.23587331979115
 11
284.28700206905444
 21
694.23107006286966
  0
LINE
  8
_6-0_
  6
CONTINUOUS
 62
    7
 10
284.28700206905444
 20
694.23107006286966
 11
284.28459777156058
 21
694.22645145035608
  0
LINE
  8
_6-0_
  6
CONTINUOUS
 62
    7
 10
284.28459777156058
 20
694.22645145035608
 11
284.28243399343592
 21
694.22229487125173
  0
LINE
  8
_6-0_
  6
CONTINUOUS
 62
    7
 10
284.28243399343592
 20
694.22229487125173
 11
284.2806551342552
 21
694.21887771455943
  0
LINE
  8
_6-0_
  6
CONTINUOUS
 62
    7
 10
284.2806551342552
 20
694.21887771455943
 11
284.27716294944003
 21
694.21216928994545
  0
LINE
  8
_6-0_
  6
CONTINUOUS
 62
    7
 10
284.27716294944003
 20
694.21216928994545
 11
284.27384861205655
 21
694.20580250706871
  0
LINE
  8
_6-0_
  6
CONTINUOUS
 62
    7
 10
284.27384861205655
 20
694.20580250706871
 11
284.27050603530375
 21
694.19938147686878
  0
LINE
  8
_6-0_
  6
CONTINUOUS
 62
    7
 10
284.27050603530375
 20
694.19938147686878
 11
284.26692913238105
 21
694.19251031028443
  0
LINE
  8
_6-0_
  6
CONTINUOUS
 62
    7
 10
284.26692913238105
 20
694.19251031028443
 11
284.26291181648764
 21
694.18479311825445
  0
LINE
  8
_6-0_
  6
CONTINUOUS
 62
    7
 10
284.26291181648764
 20
694.18479311825445
 11
284.25824800082268
 21
694.17583401171873
  0
LINE
  8
_6-0_
  6
CONTINUOUS
 62
    7
 10
284.25824800082268
 20
694.17583401171873
 11
284.25273159858534
 21
694.1652371016155
  0
LINE
  8
_6-0_
  6
CONTINUOUS
 62
    7
 10
284.25273159858534
 20
694.1652371016155
 11
284.2461565229749
 21
694.15260649888467
  0
LINE
  8
_6-0_
  6
CONTINUOUS
 62
    7
 10
284.2461565229749
 20
694.15260649888467
 11
284.23976327979148
 21
694.14032519299576
  0
LINE
  8
_6-0_
  6
CONTINUOUS
 62
    7
 10
284.23976327979148
 20
694.14032519299576
 11
284.23259444637944
 21
694.12655399214009
  0
LINE
  8
_6-0_
  6
CONTINUOUS
 62
    7
 10
284.23259444637944
 20
694.12655399214009
 11
284.22499885637876
 21
694.11196299950484
  0
LINE
  8
_6-0_
  6
CONTINUOUS
 62
    7
 10
284.22499885637876
 20
694.11196299950484
 11
284.21732534342925
 21
694.09722231827777
  0
LINE
  8
_6-0_
  6
CONTINUOUS
 62
    7
 10
284.21732534342925
 20
694.09722231827777
 11
284.20992274117089
 21
694.08300205164642
  0
LINE
  8
_6-0_
  6
CONTINUOUS
 62
    7
 10
284.20992274117089
 20
694.08300205164642
 11
284.20313988324352
 21
694.06997230279808
  0
LINE
  8
_6-0_
  6
CONTINUOUS
 62
    7
 10
284.20313988324352
 20
694.06997230279808
 11
284.1973256032872
 21
694.05880317492097
  0
LINE
  8
_6-0_
  6
CONTINUOUS
 62
    7
 10
284.1973256032872
 20
694.05880317492097
 11
284.19282873494171
 21
694.05016477120193
  0
LINE
  8
_6-0_
  6
CONTINUOUS
 62
    7
 10
284.19282873494171
 20
694.05016477120193
 11
284.18522940404523
 21
694.03556659237267
  0
LINE
  8
_6-0_
  6
CONTINUOUS
 62
    7
 10
284.18522940404523
 20
694.03556659237267
 11
284.17788616256541
 21
694.02146035673593
  0
LINE
  8
_6-0_
  6
CONTINUOUS
 62
    7
 10
284.17788616256541
 20
694.02146035673593
 11
284.17012434201024
 21
694.0065500381769
  0
LINE
  8
_6-0_
  6
CONTINUOUS
 62
    7
 10
284.17012434201024
 20
694.0065500381769
 11
284.16126927388768
 21
693.98953961058032
  0
LINE
  8
_6-0_
  6
CONTINUOUS
 62
    7
 10
284.16126927388768
 20
693.98953961058032
 11
284.15064628970549
 21
693.96913304783106
  0
LINE
  8
_6-0_
  6
CONTINUOUS
 62
    7
 10
284.15064628970549
 20
693.96913304783106
 11
284.13758072097158
 21
693.94403432381466
  0
LINE
  8
_6-0_
  6
CONTINUOUS
 62
    7
 10
284.13758072097158
 20
693.94403432381466
 11
284.12139789919388
 21
693.91294741241563
  0
LINE
  8
_6-0_
  6
CONTINUOUS
 62
    7
 10
284.12139789919388
 20
693.91294741241563
 11
284.10142315588018
 21
693.87457628751929
  0
LINE
  8
_6-0_
  6
CONTINUOUS
 62
    7
 10
284.10142315588018
 20
693.87457628751929
 11
284.07894819116956
 21
693.83140228200591
  0
LINE
  8
_6-0_
  6
CONTINUOUS
 62
    7
 10
284.07894819116956
 20
693.83140228200591
 11
284.0540510726168
 21
693.7835753622528
  0
LINE
  8
_6-0_
  6
CONTINUOUS
 62
    7
 10
284.0540510726168
 20
693.7835753622528
 11
284.0278920573889
 21
693.73332436154101
  0
LINE
  8
_6-0_
  6
CONTINUOUS
 62
    7
 10
284.0278920573889
 20
693.73332436154101
 11
284.00163140265306
 21
693.68287811315099
  0
LINE
  8
_6-0_
  6
CONTINUOUS
 62
    7
 10
284.00163140265306
 20
693.68287811315099
 11
283.97642936557639
 21
693.63446545036311
  0
LINE
  8
_6-0_
  6
CONTINUOUS
 62
    7
 10
283.97642936557639
 20
693.63446545036311
 11
283.95344620332588
 21
693.59031520645885
  0
LINE
  8
_6-0_
  6
CONTINUOUS
 62
    7
 10
283.95344620332588
 20
693.59031520645885
 11
283.93384217306874
 21
693.55265621471835
  0
LINE
  8
_6-0_
  6
CONTINUOUS
 62
    7
 10
283.93384217306874
 20
693.55265621471835
 11
283.91877753197201
 21
693.52371730842219
  0
LINE
  8
_6-0_
  6
CONTINUOUS
 62
    7
 10
283.91877753197201
 20
693.52371730842219
 11
283.89429836962609
 21
693.47669327507242
  0
LINE
  8
_6-0_
  6
CONTINUOUS
 62
    7
 10
283.89429836962609
 20
693.47669327507242
 11
283.87253670737664
 21
693.43488951083816
  0
LINE
  8
_6-0_
  6
CONTINUOUS
 62
    7
 10
283.87253670737664
 20
693.43488951083816
 11
283.85308808021716
 21
693.39752904567081
  0
LINE
  8
_6-0_
  6
CONTINUOUS
 62
    7
 10
283.85308808021716
 20
693.39752904567081
 11
283.83554802314131
 21
693.36383490952187
  0
LINE
  8
_6-0_
  6
CONTINUOUS
 62
    7
 10
283.83554802314131
 20
693.36383490952187
 11
283.81951207114236
 21
693.33303013234286
  0
LINE
  8
_6-0_
  6
CONTINUOUS
 62
    7
 10
283.81951207114236
 20
693.33303013234286
 11
283.80457575921389
 21
693.3043377440855
  0
LINE
  8
_6-0_
  6
CONTINUOUS
 62
    7
 10
283.80457575921389
 20
693.3043377440855
 11
283.79033462234941
 21
693.27698077470109
  0
LINE
  8
_6-0_
  6
CONTINUOUS
 62
    7
 10
283.79033462234941
 20
693.27698077470109
 11
283.77638419554239
 21
693.25018225414112
  0
LINE
  8
_6-0_
  6
CONTINUOUS
 62
    7
 10
283.77638419554239
 20
690.76583290325607
 11
283.80397359300412
 21
690.71283416383824
  0
LINE
  8
_6-0_
  6
CONTINUOUS
 62
    7
 10
283.80397359300412
 20
690.71283416383824
 11
283.83139816321466
 21
690.66015205462372
  0
LINE
  8
_6-0_
  6
CONTINUOUS
 62
    7
 10
283.83139816321466
 20
690.66015205462372
 11
283.85901221602671
 21
690.60710595271871
  0
LINE
  8
_6-0_
  6
CONTINUOUS
 62
    7
 10
283.85901221602671
 20
690.60710595271871
 11
283.88717006129264
 21
690.55301523522894
  0
LINE
  8
_6-0_
  6
CONTINUOUS
 62
    7
 10
283.88717006129264
 20
690.55301523522894
 11
283.91622600886484
 21
690.49719927926026
  0
LINE
  8
_6-0_
  6
CONTINUOUS
 62
    7
 10
283.91622600886484
 20
690.49719927926026
 11
283.94653436859608
 21
690.43897746191897
  0
LINE
  8
_6-0_
  6
CONTINUOUS
 62
    7
 10
283.94653436859608
 20
690.43897746191897
 11
283.97844945033853
 21
690.37766916031069
  0
LINE
  8
_6-0_
  6
CONTINUOUS
 62
    7
 10
283.97844945033853
 20
690.37766916031069
 11
284.0123255639449
 21
690.31259375154173
  0
LINE
  8
_6-0_
  6
CONTINUOUS
 62
    7
 10
284.0123255639449
 20
690.31259375154173
 11
284.0244859696943
 21
690.28923382944049
  0
LINE
  8
_6-0_
  6
CONTINUOUS
 62
    7
 10
284.0244859696943
 20
690.28923382944049
 11
284.03842483255607
 21
690.26245752301281
  0
LINE
  8
_6-0_
  6
CONTINUOUS
 62
    7
 10
284.03842483255607
 20
690.26245752301281
 11
284.05349347167612
 21
690.23351093658516
  0
LINE
  8
_6-0_
  6
CONTINUOUS
 62
    7
 10
284.05349347167612
 20
690.23351093658516
 11
284.06904320620072
 21
690.20364017448446
  0
LINE
  8
_6-0_
  6
CONTINUOUS
 62
    7
 10
284.06904320620072
 20
690.20364017448446
 11
284.0844253552757
 21
690.17409134103696
  0
LINE
  8
_6-0_
  6
CONTINUOUS
 62
    7
 10
284.0844253552757
 20
690.17409134103696
 11
284.09899123804712
 21
690.14611054056957
  0
LINE
  8
_6-0_
  6
CONTINUOUS
 62
    7
 10
284.09899123804712
 20
690.14611054056957
 11
284.11209217366104
 21
690.12094387740854
  0
LINE
  8
_6-0_
  6
CONTINUOUS
 62
    7
 10
284.11209217366104
 20
690.12094387740854
 11
284.12307948126352
 21
690.09983745588079
  0
LINE
  8
_6-0_
  6
CONTINUOUS
 62
    7
 10
284.12307948126352
 20
690.09983745588079
 11
284.14832701937684
 21
690.05133738641518
  0
LINE
  8
_6-0_
  6
CONTINUOUS
 62
    7
 10
284.14832701937684
 20
690.05133738641518
 11
284.17072717532096
 21
690.00830708720514
  0
LINE
  8
_6-0_
  6
CONTINUOUS
 62
    7
 10
284.17072717532096
 20
690.00830708720514
 11
284.19061822154856
 21
689.97009674291485
  0
LINE
  8
_6-0_
  6
CONTINUOUS
 62
    7
 10
284.19061822154856
 20
689.97009674291485
 11
284.20833843051253
 21
689.93605653820907
  0
LINE
  8
_6-0_
  6
CONTINUOUS
 62
    7
 10
284.20833843051253
 20
689.93605653820907
 11
284.22422607466552
 21
689.90553665775155
  0
LINE
  8
_6-0_
  6
CONTINUOUS
 62
    7
 10
284.22422607466552
 20
689.90553665775155
 11
284.23861942646022
 21
689.87788728620671
  0
LINE
  8
_6-0_
  6
CONTINUOUS
 62
    7
 10
284.23861942646022
 20
689.87788728620671
 11
284.25185675834933
 21
689.85245860823909
  0
LINE
  8
_6-0_
  6
CONTINUOUS
 62
    7
 10
284.25185675834933
 20
689.85245860823909
 11
284.26427634278554
 21
689.82860080851253
  0
LINE
  8
_6-0_
  6
CONTINUOUS
 62
    7
 10
284.26427634278554
 20
689.82860080851253
 11
284.26660455909155
 21
689.8241283466009
  0
LINE
  8
_6-0_
  6
CONTINUOUS
 62
    7
 10
284.26660455909155
 20
689.8241283466009
 11
284.26920978006626
 21
689.81912376367177
  0
LINE
  8
_6-0_
  6
CONTINUOUS
 62
    7
 10
284.26920978006626
 20
689.81912376367177
 11
284.27197527560759
 21
689.81381129616477
  0
LINE
  8
_6-0_
  6
CONTINUOUS
 62
    7
 10
284.27197527560759
 20
689.81381129616477
 11
284.2747843156136
 21
689.80841518051921
  0
LINE
  8
_6-0_
  6
CONTINUOUS
 62
    7
 10
284.2747843156136
 20
689.80841518051921
 11
284.27752016998238
 21
689.80315965317482
  0
LINE
  8
_6-0_
  6
CONTINUOUS
 62
    7
 10
284.27752016998238
 20
689.80315965317482
 11
284.28006610861189
 21
689.79826895057101
  0
LINE
  8
_6-0_
  6
CONTINUOUS
 62
    7
 10
284.28006610861189
 20
689.79826895057101
 11
284.28230540140027
 21
689.79396730914755
  0
LINE
  8
_6-0_
  6
CONTINUOUS
 62
    7
 10
284.28230540140027
 20
689.79396730914755
 11
284.28412131824541
 21
689.79047896534382
  0
LINE
  8
_6-0_
  6
CONTINUOUS
 62
    7
 10
284.28412131824541
 20
689.79047896534382
 11
284.2875520361207
 21
689.78388861762301
  0
LINE
  8
_6-0_
  6
CONTINUOUS
 62
    7
 10
284.2875520361207
 20
689.78388861762301
 11
284.29038791555053
 21
689.7784409439239
  0
LINE
  8
_6-0_
  6
CONTINUOUS
 62
    7
 10
284.29038791555053
 20
689.7784409439239
 11
284.29268165976464
 21
689.77403470228467
  0
LINE
  8
_6-0_
  6
CONTINUOUS
 62
    7
 10
284.29268165976464
 20
689.77403470228467
 11
284.29448597199297
 21
689.77056865074269
  0
LINE
  8
_6-0_
  6
CONTINUOUS
 62
    7
 10
284.29448597199297
 20
689.77056865074269
 11
284.29585355546516
 21
689.76794154733568
  0
LINE
  8
_6-0_
  6
CONTINUOUS
 62
    7
 10
284.29585355546516
 20
689.76794154733568
 11
284.2968371134109
 21
689.76605215010079
  0
LINE
  8
_6-0_
  6
CONTINUOUS
 62
    7
 10
284.2968371134109
 20
689.76605215010079
 11
284.29748934906007
 21
689.76479921707619
  0
LINE
  8
_6-0_
  6
CONTINUOUS
 62
    7
 10
284.29748934906007
 20
689.76479921707619
 11
284.29786296564248
 21
689.76408150629914
  0
ARC
  8
_6-0_
  6
CONTINUOUS
 62
    7
 10
293.22572408618089
 20
692.00800791185861
 40
0.5000000000000008
 50
210.39126022424182
 51
149.60873977574363
  0
LINE
  8
_6-0_
  6
CONTINUOUS
 62
    7
 10
275.30666843693973
 20
691.75505681573713
 11
292.79442866194017
 21
691.75505681573713
  0
LINE
  8
_6-0_
  6
CONTINUOUS
 62
    7
 10
275.30666843693973
 20
692.26095900797998
 11
292.79442866194023
 21
692.26095900797998
  0
LINE
  8
_6-0_
  6
CONTINUOUS
 62
    7
 10
273.72572408618089
 20
692.26095900797998
 11
273.72572408618089
 21
691.75505666946128
  0
LINE
  8
_6-0_
  6
CONTINUOUS
 62
    7
 10
273.72572403171273
 20
692.26095886170413
 11
273.92314356050338
 21
692.26095886170413
  0
LINE
  8
_6-0_
  6
CONTINUOUS
 62
    7
 10
273.92314356050338
 20
692.26095886170413
 11
274.12063629018968
 21
692.26095886170413
  0
LINE
  8
_6-0_
  6
CONTINUOUS
 62
    7
 10
274.12063629018968
 20
692.26095886170413
 11
274.31819397961738
 21
692.26095886170413
  0
LINE
  8
_6-0_
  6
CONTINUOUS
 62
    7
 10
274.31819397961738
 20
692.26095886170413
 11
274.51580838763198
 21
692.26095886170413
  0
LINE
  8
_6-0_
  6
CONTINUOUS
 62
    7
 10
274.51580838763198
 20
692.26095886170413
 11
274.71347127307922
 21
692.26095886170413
  0
LINE
  8
_6-0_
  6
CONTINUOUS
 62
    7
 10
274.71347127307922
 20
692.26095886170413
 11
274.91117439480445
 21
692.26095886170413
  0
LINE
  8
_6-0_
  6
CONTINUOUS
 62
    7
 10
274.91117439480445
 20
692.26095886170413
 11
275.10890951165345
 21
692.26095886170413
  0
LINE
  8
_6-0_
  6
CONTINUOUS
 62
    7
 10
275.10890951165345
 20
692.26095886170413
 11
275.30666838247168
 21
692.26095886170413
  0
LINE
  8
_6-0_
  6
CONTINUOUS
 62
    7
 10
275.30666838247282
 20
693.01471845011429
 11
275.30660142725378
 21
694.29349722705501
  0
LINE
  8
_6-0_
  6
CONTINUOUS
 62
    7
 10
275.30660142725378
 20
694.29349722705501
 11
275.30660302778921
 21
694.29354036496511
  0
LINE
  8
_6-0_
  6
CONTINUOUS
 62
    7
 10
275.30660302778921
 20
694.29354036496511
 11
275.30660724738254
 21
694.29365409218235
  0
LINE
  8
_6-0_
  6
CONTINUOUS
 62
    7
 10
275.30660724738254
 20
694.29365409218235
 11
275.30661321301437
 21
694.29381487893784
  0
LINE
  8
_6-0_
  6
CONTINUOUS
 62
    7
 10
275.30661321301437
 20
694.29381487893784
 11
275.30662005166562
 21
694.29399919546222
  0
LINE
  8
_6-0_
  6
CONTINUOUS
 62
    7
 10
275.30662005166562
 20
694.29399919546222
 11
275.30662689031681
 21
694.29418351198683
  0
LINE
  8
_6-0_
  6
CONTINUOUS
 62
    7
 10
275.30662689031681
 20
694.29418351198683
 11
275.30663285594869
 21
694.2943442987422
  0
LINE
  8
_6-0_
  6
CONTINUOUS
 62
    7
 10
275.30663285594869
 20
694.2943442987422
 11
275.30663707554197
 21
694.29445802595956
  0
LINE
  8
_6-0_
  6
CONTINUOUS
 62
    7
 10
275.30663707554197
 20
694.29445802595956
 11
275.30663867607734
 21
694.29450116386965
  0
LINE
  8
_6-0_
  6
CONTINUOUS
 62
    7
 10
275.30663867607734
 20
694.29450116386965
 11
275.30590912732259
 21
694.28421518441291
  0
LINE
  8
_6-0_
  6
CONTINUOUS
 62
    7
 10
275.30590912732259
 20
694.28421518441291
 11
275.30359024964781
 21
694.23380432617648
  0
LINE
  8
_6-0_
  6
CONTINUOUS
 62
    7
 10
275.30359024964781
 20
694.23380432617648
 11
275.30055807591521
 21
694.14281523010936
  0
LINE
  8
_6-0_
  6
CONTINUOUS
 62
    7
 10
275.30055807591521
 20
694.14281523010936
 11
275.29768863898698
 21
694.01079453716102
  0
LINE
  8
_6-0_
  6
CONTINUOUS
 62
    7
 10
275.29768863898698
 20
694.01079453716102
 11
275.29585797172513
 21
693.83728888828045
  0
LINE
  8
_6-0_
  6
CONTINUOUS
 62
    7
 10
275.29585797172513
 20
693.83728888828045
 11
275.29594210699196
 21
693.62184492441713
  0
LINE
  8
_6-0_
  6
CONTINUOUS
 62
    7
 10
275.29594210699196
 20
693.62184492441713
 11
275.29881707764963
 21
693.36400928652029
  0
LINE
  8
_6-0_
  6
CONTINUOUS
 62
    7
 10
275.29881707764963
 20
693.36400928652029
 11
275.30535891656024
 21
693.06332861553926
  0
LINE
  8
_6-0_
  6
CONTINUOUS
 62
    7
 10
275.30535891656024
 20
693.06332861553926
 11
275.3054151826737
 21
693.06123989749358
  0
LINE
  8
_6-0_
  6
CONTINUOUS
 62
    7
 10
275.3054151826737
 20
693.06123989749358
 11
275.3055635206091
 21
693.05573327719162
  0
LINE
  8
_6-0_
  6
CONTINUOUS
 62
    7
 10
275.3055635206091
 20
693.05573327719162
 11
275.30577323975922
 21
693.04794805538518
  0
LINE
  8
_6-0_
  6
CONTINUOUS
 62
    7
 10
275.30577323975922
 20
693.04794805538518
 11
275.30601364951656
 21
693.0390235328266
  0
LINE
  8
_6-0_
  6
CONTINUOUS
 62
    7
 10
275.30601364951656
 20
693.0390235328266
 11
275.30625405927395
 21
693.03009901026826
  0
LINE
  8
_6-0_
  6
CONTINUOUS
 62
    7
 10
275.30625405927395
 20
693.03009901026826
 11
275.30646377842402
 21
693.02231378846182
  0
LINE
  8
_6-0_
  6
CONTINUOUS
 62
    7
 10
275.30646377842402
 20
693.02231378846182
 11
275.30661211635947
 21
693.01680716815986
  0
LINE
  8
_6-0_
  6
CONTINUOUS
 62
    7
 10
275.30661211635947
 20
693.01680716815986
 11
275.30666838247282
 21
693.01471845011429
  0
LINE
  8
_6-0_
  6
CONTINUOUS
 62
    7
 10
279.54359924250537
 20
693.4314223905883
 11
279.66471222506846
 21
693.12446868869415
  0
LINE
  8
_6-0_
  6
CONTINUOUS
 62
    7
 10
279.66471222506846
 20
693.12446868869415
 11
279.66425334234248
 21
693.12493275706913
  0
LINE
  8
_6-0_
  6
CONTINUOUS
 62
    7
 10
279.66425334234248
 20
693.12493275706913
 11
279.66304356061016
 21
693.12615621005739
  0
LINE
  8
_6-0_
  6
CONTINUOUS
 62
    7
 10
279.66304356061016
 20
693.12615621005739
 11
279.66133317954046
 21
693.12788591945468
  0
LINE
  8
_6-0_
  6
CONTINUOUS
 62
    7
 10
279.66133317954046
 20
693.12788591945468
 11
279.65937249880199
 21
693.12986875705633
  0
LINE
  8
_6-0_
  6
CONTINUOUS
 62
    7
 10
279.65937249880199
 20
693.12986875705633
 11
279.65741181806351
 21
693.13185159465797
  0
LINE
  8
_6-0_
  6
CONTINUOUS
 62
    7
 10
279.65741181806351
 20
693.13185159465797
 11
279.65570143699381
 21
693.13358130405516
  0
LINE
  8
_6-0_
  6
CONTINUOUS
 62
    7
 10
279.65570143699381
 20
693.13358130405516
 11
279.65449165526161
 21
693.13480475704353
  0
LINE
  8
_6-0_
  6
CONTINUOUS
 62
    7
 10
279.65449165526161
 20
693.13480475704353
 11
279.65403277253557
 21
693.13526882541828
  0
LINE
  8
_6-0_
  6
CONTINUOUS
 62
    7
 10
279.65403277253557
 20
693.13526882541828
 11
279.64389118372867
 21
693.14650957140634
  0
LINE
  8
_6-0_
  6
CONTINUOUS
 62
    7
 10
279.64389118372867
 20
693.14650957140634
 11
279.63368650015531
 21
693.15949910005338
  0
LINE
  8
_6-0_
  6
CONTINUOUS
 62
    7
 10
279.63368650015531
 20
693.15949910005338
 11
279.62372723228566
 21
693.17349922334972
  0
LINE
  8
_6-0_
  6
CONTINUOUS
 62
    7
 10
279.62372723228566
 20
693.17349922334972
 11
279.61432189058968
 21
693.1877717532858
  0
LINE
  8
_6-0_
  6
CONTINUOUS
 62
    7
 10
279.61432189058968
 20
693.1877717532858
 11
279.60577898553743
 21
693.20157850185183
  0
LINE
  8
_6-0_
  6
CONTINUOUS
 62
    7
 10
279.60577898553743
 20
693.20157850185183
 11
279.59840702759902
 21
693.21418128103801
  0
LINE
  8
_6-0_
  6
CONTINUOUS
 62
    7
 10
279.59840702759902
 20
693.21418128103801
 11
279.59251452724448
 21
693.22484190283467
  0
LINE
  8
_6-0_
  6
CONTINUOUS
 62
    7
 10
279.59251452724448
 20
693.22484190283467
 11
279.58840999494379
 21
693.23282217923202
  0
LINE
  8
_6-0_
  6
CONTINUOUS
 62
    7
 10
279.58840999494379
 20
693.23282217923202
 11
279.58534424251866
 21
693.2391257497095
  0
LINE
  8
_6-0_
  6
CONTINUOUS
 62
    7
 10
279.58534424251866
 20
693.2391257497095
 11
279.58296266645965
 21
693.24407325799621
  0
LINE
  8
_6-0_
  6
CONTINUOUS
 62
    7
 10
279.58296266645965
 20
693.24407325799621
 11
279.58101836490391
 21
693.24826254247569
  0
LINE
  8
_6-0_
  6
CONTINUOUS
 62
    7
 10
279.58101836490391
 20
693.24826254247569
 11
279.57926443598865
 21
693.2522914415307
  0
LINE
  8
_6-0_
  6
CONTINUOUS
 62
    7
 10
279.57926443598865
 20
693.2522914415307
 11
279.57745397785089
 21
693.25675779354526
  0
LINE
  8
_6-0_
  6
CONTINUOUS
 62
    7
 10
279.57745397785089
 20
693.25675779354526
 11
279.57534008862785
 21
693.26225943690224
  0
LINE
  8
_6-0_
  6
CONTINUOUS
 62
    7
 10
279.57534008862785
 20
693.26225943690224
 11
279.57267586645673
 21
693.26939420998485
  0
LINE
  8
_6-0_
  6
CONTINUOUS
 62
    7
 10
279.57267586645673
 20
693.26939420998485
 11
279.56921440947445
 21
693.27875995117677
  0
LINE
  8
_6-0_
  6
CONTINUOUS
 62
    7
 10
279.56921440947445
 20
693.27875995117677
 11
279.56416823676392
 21
693.29435307363485
  0
LINE
  8
_6-0_
  6
CONTINUOUS
 62
    7
 10
279.56416823676392
 20
693.29435307363485
 11
279.55941453938357
 21
693.31252465502018
  0
LINE
  8
_6-0_
  6
CONTINUOUS
 62
    7
 10
279.55941453938357
 20
693.31252465502018
 11
279.5550705477882
 21
693.33224655345361
  0
LINE
  8
_6-0_
  6
CONTINUOUS
 62
    7
 10
279.5550705477882
 20
693.33224655345361
 11
279.55125349243269
 21
693.35249062705589
  0
LINE
  8
_6-0_
  6
CONTINUOUS
 62
    7
 10
279.55125349243269
 20
693.35249062705589
 11
279.54808060377172
 21
693.37222873394785
  0
LINE
  8
_6-0_
  6
CONTINUOUS
 62
    7
 10
279.54808060377172
 20
693.37222873394785
 11
279.54566911226033
 21
693.39043273224956
  0
LINE
  8
_6-0_
  6
CONTINUOUS
 62
    7
 10
279.54566911226033
 20
693.39043273224956
 11
279.54413624835325
 21
693.40607448008257
  0
LINE
  8
_6-0_
  6
CONTINUOUS
 62
    7
 10
279.54413624835325
 20
693.40607448008257
 11
279.54359924250537
 21
693.41812583556703
  0
LINE
  8
_6-0_
  6
CONTINUOUS
 62
    7
 10
279.54359924250537
 20
693.41812583556703
 11
279.54359924250537
 21
693.4186971719156
  0
LINE
  8
_6-0_
  6
CONTINUOUS
 62
    7
 10
279.54359924250537
 20
693.4186971719156
 11
279.54359924250537
 21
693.42020342228909
  0
LINE
  8
_6-0_
  6
CONTINUOUS
 62
    7
 10
279.54359924250537
 20
693.42020342228909
 11
279.54359924250537
 21
693.42233294867924
  0
LINE
  8
_6-0_
  6
CONTINUOUS
 62
    7
 10
279.54359924250537
 20
693.42233294867924
 11
279.54359924250537
 21
693.42477411307766
  0
LINE
  8
_6-0_
  6
CONTINUOUS
 62
    7
 10
279.54359924250537
 20
693.42477411307766
 11
279.54359924250537
 21
693.42721527747608
  0
LINE
  8
_6-0_
  6
CONTINUOUS
 62
    7
 10
279.54359924250537
 20
693.42721527747608
 11
279.54359924250537
 21
693.42934480386612
  0
LINE
  8
_6-0_
  6
CONTINUOUS
 62
    7
 10
279.54359924250537
 20
693.42934480386612
 11
279.54359924250537
 21
693.43085105423961
  0
LINE
  8
_6-0_
  6
CONTINUOUS
 62
    7
 10
279.54359924250537
 20
693.43085105423961
 11
279.54359924250537
 21
693.4314223905883
  0
LINE
  8
_6-0_
  6
CONTINUOUS
 62
    7
 10
282.64225016999274
 20
693.43142272239675
 11
282.76337697386941
 21
693.12445473706475
  0
LINE
  8
_6-0_
  6
CONTINUOUS
 62
    7
 10
282.76337697386941
 20
693.12445473706475
 11
282.76291803886801
 21
693.12491881160577
  0
LINE
  8
_6-0_
  6
CONTINUOUS
 62
    7
 10
282.76291803886801
 20
693.12491881160577
 11
282.761708119319
 21
693.12614228085079
  0
LINE
  8
_6-0_
  6
CONTINUOUS
 62
    7
 10
282.761708119319
 20
693.12614228085079
 11
282.75999754340478
 21
693.12787201323135
  0
LINE
  8
_6-0_
  6
CONTINUOUS
 62
    7
 10
282.75999754340478
 20
693.12787201323135
 11
282.75803663930799
 21
693.12985487717981
  0
LINE
  8
_6-0_
  6
CONTINUOUS
 62
    7
 10
282.75803663930799
 20
693.12985487717981
 11
282.75607573521131
 21
693.13183774112827
  0
LINE
  8
_6-0_
  6
CONTINUOUS
 62
    7
 10
282.75607573521131
 20
693.13183774112827
 11
282.75436515929709
 21
693.13356747350895
  0
LINE
  8
_6-0_
  6
CONTINUOUS
 62
    7
 10
282.75436515929709
 20
693.13356747350895
 11
282.75315523974803
 21
693.13479094275385
  0
LINE
  8
_6-0_
  6
CONTINUOUS
 62
    7
 10
282.75315523974803
 20
693.13479094275385
 11
282.75269630474668
 21
693.13525501729487
  0
LINE
  8
_6-0_
  6
CONTINUOUS
 62
    7
 10
282.75269630474668
 20
693.13525501729487
 11
282.74255352652028
 21
693.14649601910844
  0
LINE
  8
_6-0_
  6
CONTINUOUS
 62
    7
 10
282.74255352652028
 20
693.14649601910844
 11
282.73234765162829
 21
693.15948594400209
  0
LINE
  8
_6-0_
  6
CONTINUOUS
 62
    7
 10
282.73234765162829
 20
693.15948594400209
 11
282.72238722564703
 21
693.1734865620507
  0
LINE
  8
_6-0_
  6
CONTINUOUS
 62
    7
 10
282.72238722564703
 20
693.1734865620507
 11
282.71298079415288
 21
693.18775964332985
  0
LINE
  8
_6-0_
  6
CONTINUOUS
 62
    7
 10
282.71298079415288
 20
693.18775964332985
 11
282.70443690272231
 21
693.20156695791502
  0
LINE
  8
_6-0_
  6
CONTINUOUS
 62
    7
 10
282.70443690272231
 20
693.20156695791502
 11
282.69706409693151
 21
693.21417027588132
  0
LINE
  8
_6-0_
  6
CONTINUOUS
 62
    7
 10
282.69706409693151
 20
693.21417027588132
 11
282.69117092235695
 21
693.2248313673042
  0
LINE
  8
_6-0_
  6
CONTINUOUS
 62
    7
 10
282.69117092235695
 20
693.2248313673042
 11
282.68706592457499
 21
693.23281200225949
  0
LINE
  8
_6-0_
  6
CONTINUOUS
 62
    7
 10
282.68706592457499
 20
693.23281200225949
 11
282.68399982641512
 21
693.23911585941528
  0
LINE
  8
_6-0_
  6
CONTINUOUS
 62
    7
 10
282.68399982641512
 20
693.23911585941528
 11
282.68161798269495
 21
693.24406359149737
  0
LINE
  8
_6-0_
  6
CONTINUOUS
 62
    7
 10
282.68161798269495
 20
693.24406359149737
 11
282.67967346303351
 21
693.24825306793537
  0
LINE
  8
_6-0_
  6
CONTINUOUS
 62
    7
 10
282.67967346303351
 20
693.24825306793537
 11
282.67791933704984
 21
693.25228215815991
  0
LINE
  8
_6-0_
  6
CONTINUOUS
 62
    7
 10
282.67791933704984
 20
693.25228215815991
 11
282.67610867436309
 21
693.2567487316004
  0
LINE
  8
_6-0_
  6
CONTINUOUS
 62
    7
 10
282.67610867436309
 20
693.2567487316004
 11
282.67399454459229
 21
693.26225065768665
  0
LINE
  8
_6-0_
  6
CONTINUOUS
 62
    7
 10
282.67399454459229
 20
693.26225065768665
 11
282.67133001735647
 21
693.26938580584908
  0
LINE
  8
_6-0_
  6
CONTINUOUS
 62
    7
 10
282.67133001735647
 20
693.26938580584908
 11
282.66786816227471
 21
693.27875204551697
  0
LINE
  8
_6-0_
  6
CONTINUOUS
 62
    7
 10
282.66786816227471
 20
693.27875204551697
 11
282.6628213925764
 21
693.29434605370784
  0
LINE
  8
_6-0_
  6
CONTINUOUS
 62
    7
 10
282.6628213925764
 20
693.29434605370784
 11
282.65806715190604
 21
693.31251862258796
  0
LINE
  8
_6-0_
  6
CONTINUOUS
 62
    7
 10
282.65806715190604
 20
693.31251862258796
 11
282.65372267870146
 21
693.33224156702522
  0
LINE
  8
_6-0_
  6
CONTINUOUS
 62
    7
 10
282.65372267870146
 20
693.33224156702522
 11
282.64990521140072
 21
693.35248670188753
  0
LINE
  8
_6-0_
  6
CONTINUOUS
 62
    7
 10
282.64990521140072
 20
693.35248670188753
 11
282.64673198844156
 21
693.37222584204198
  0
LINE
  8
_6-0_
  6
CONTINUOUS
 62
    7
 10
282.64673198844156
 20
693.37222584204198
 11
282.64432024826198
 21
693.3904308023566
  0
LINE
  8
_6-0_
  6
CONTINUOUS
 62
    7
 10
282.64432024826198
 20
693.3904308023566
 11
282.64278722929976
 21
693.40607339769906
  0
LINE
  8
_6-0_
  6
CONTINUOUS
 62
    7
 10
282.64278722929976
 20
693.40607339769906
 11
282.64225016999274
 21
693.4181254429368
  0
LINE
  8
_6-0_
  6
CONTINUOUS
 62
    7
 10
282.64225016999274
 20
693.4181254429368
 11
282.64225016999274
 21
693.41869681041339
  0
LINE
  8
_6-0_
  6
CONTINUOUS
 62
    7
 10
282.64225016999274
 20
693.41869681041339
 11
282.64225016999274
 21
693.42020314285242
  0
LINE
  8
_6-0_
  6
CONTINUOUS
 62
    7
 10
282.64225016999274
 20
693.42020314285242
 11
282.64225016999274
 21
693.42233278526589
  0
LINE
  8
_6-0_
  6
CONTINUOUS
 62
    7
 10
282.64225016999274
 20
693.42233278526589
 11
282.64225016999274
 21
693.42477408266654
  0
LINE
  8
_6-0_
  6
CONTINUOUS
 62
    7
 10
282.64225016999274
 20
693.42477408266654
 11
282.64225016999274
 21
693.42721538006754
  0
LINE
  8
_6-0_
  6
CONTINUOUS
 62
    7
 10
282.64225016999274
 20
693.42721538006754
 11
282.64225016999274
 21
693.42934502248113
  0
LINE
  8
_6-0_
  6
CONTINUOUS
 62
    7
 10
282.64225016999274
 20
693.42934502248113
 11
282.64225016999274
 21
693.43085135491992
  0
LINE
  8
_6-0_
  6
CONTINUOUS
 62
    7
 10
282.64225016999274
 20
693.43085135491992
 11
282.64225016999274
 21
693.43142272239675
  0
LINE
  8
_6-0_
  6
CONTINUOUS
 62
    7
 10
280.32299451109236
 20
693.01471845011417
 11
280.67773326613076
 21
693.2501824373287
  0
LINE
  8
_6-0_
  6
CONTINUOUS
 62
    7
 10
280.67773326613076
 20
693.2501824373287
 11
280.67194519795413
 21
693.23939213960614
  0
LINE
  8
_6-0_
  6
CONTINUOUS
 62
    7
 10
280.67194519795413
 20
693.23939213960614
 11
280.66573676185811
 21
693.22852573694195
  0
LINE
  8
_6-0_
  6
CONTINUOUS
 62
    7
 10
280.66573676185811
 20
693.22852573694195
 11
280.65897149552632
 21
693.21743277575979
  0
LINE
  8
_6-0_
  6
CONTINUOUS
 62
    7
 10
280.65897149552632
 20
693.21743277575979
 11
280.65151293664235
 21
693.20596280248333
  0
LINE
  8
_6-0_
  6
CONTINUOUS
 62
    7
 10
280.65151293664235
 20
693.20596280248333
 11
280.64322462288987
 21
693.19396536353611
  0
LINE
  8
_6-0_
  6
CONTINUOUS
 62
    7
 10
280.64322462288987
 20
693.19396536353611
 11
280.63397009195239
 21
693.18129000534191
  0
LINE
  8
_6-0_
  6
CONTINUOUS
 62
    7
 10
280.63397009195239
 20
693.18129000534191
 11
280.62361288151374
 21
693.16778627432416
  0
LINE
  8
_6-0_
  6
CONTINUOUS
 62
    7
 10
280.62361288151374
 20
693.16778627432416
 11
280.61201652925729
 21
693.15330371690652
  0
LINE
  8
_6-0_
  6
CONTINUOUS
 62
    7
 10
280.61201652925729
 20
693.15330371690652
 11
280.60696299623658
 21
693.14789955073877
  0
LINE
  8
_6-0_
  6
CONTINUOUS
 62
    7
 10
280.60696299623658
 20
693.14789955073877
 11
280.60089325812379
 21
693.14165231944401
  0
LINE
  8
_6-0_
  6
CONTINUOUS
 62
    7
 10
280.60089325812379
 20
693.14165231944401
 11
280.59411309733008
 21
693.13485892662811
  0
LINE
  8
_6-0_
  6
CONTINUOUS
 62
    7
 10
280.59411309733008
 20
693.13485892662811
 11
280.58692829626659
 21
693.1278162758972
  0
LINE
  8
_6-0_
  6
CONTINUOUS
 62
    7
 10
280.58692829626659
 20
693.1278162758972
 11
280.5796446373443
 21
693.12082127085716
  0
LINE
  8
_6-0_
  6
CONTINUOUS
 62
    7
 10
280.5796446373443
 20
693.12082127085716
 11
280.57256790297453
 21
693.11417081511411
  0
LINE
  8
_6-0_
  6
CONTINUOUS
 62
    7
 10
280.57256790297453
 20
693.11417081511411
 11
280.56600387556819
 21
693.10816181227381
  0
LINE
  8
_6-0_
  6
CONTINUOUS
 62
    7
 10
280.56600387556819
 20
693.10816181227381
 11
280.56025833753654
 21
693.10309116594283
  0
LINE
  8
_6-0_
  6
CONTINUOUS
 62
    7
 10
280.56025833753654
 20
693.10309116594283
 11
280.54967966213923
 21
693.09524093405287
  0
LINE
  8
_6-0_
  6
CONTINUOUS
 62
    7
 10
280.54967966213923
 20
693.09524093405287
 11
280.54002940685626
 21
693.08827306929288
  0
LINE
  8
_6-0_
  6
CONTINUOUS
 62
    7
 10
280.54002940685626
 20
693.08827306929288
 11
280.5309314281692
 21
693.08194890526966
  0
LINE
  8
_6-0_
  6
CONTINUOUS
 62
    7
 10
280.5309314281692
 20
693.08194890526966
 11
280.5220095825598
 21
693.07602977559031
  0
LINE
  8
_6-0_
  6
CONTINUOUS
 62
    7
 10
280.5220095825598
 20
693.07602977559031
 11
280.51288772650969
 21
693.07027701386141
  0
LINE
  8
_6-0_
  6
CONTINUOUS
 62
    7
 10
280.51288772650969
 20
693.07027701386141
 11
280.50318971650063
 21
693.06445195369042
  0
LINE
  8
_6-0_
  6
CONTINUOUS
 62
    7
 10
280.50318971650063
 20
693.06445195369042
 11
280.49253940901423
 21
693.05831592868344
  0
LINE
  8
_6-0_
  6
CONTINUOUS
 62
    7
 10
280.49253940901423
 20
693.05831592868344
 11
280.48056066053221
 21
693.05163027244794
  0
LINE
  8
_6-0_
  6
CONTINUOUS
 62
    7
 10
280.48056066053221
 20
693.05163027244794
 11
280.47294708157517
 21
693.04828697472499
  0
LINE
  8
_6-0_
  6
CONTINUOUS
 62
    7
 10
280.47294708157517
 20
693.04828697472499
 11
280.46395058895871
 21
693.04459966240393
  0
LINE
  8
_6-0_
  6
CONTINUOUS
 62
    7
 10
280.46395058895871
 20
693.04459966240393
 11
280.45400766712334
 21
693.040727501427
  0
LINE
  8
_6-0_
  6
CONTINUOUS
 62
    7
 10
280.45400766712334
 20
693.040727501427
 11
280.44355480050956
 21
693.03682965773601
  0
LINE
  8
_6-0_
  6
CONTINUOUS
 62
    7
 10
280.44355480050956
 20
693.03682965773601
 11
280.43302847355767
 21
693.03306529727377
  0
LINE
  8
_6-0_
  6
CONTINUOUS
 62
    7
 10
280.43302847355767
 20
693.03306529727377
 11
280.42286517070829
 21
693.0295935859823
  0
LINE
  8
_6-0_
  6
CONTINUOUS
 62
    7
 10
280.42286517070829
 20
693.0295935859823
 11
280.41350137640165
 21
693.02657368980385
  0
LINE
  8
_6-0_
  6
CONTINUOUS
 62
    7
 10
280.41350137640165
 20
693.02657368980385
 11
280.40537357507844
 21
693.02416477468068
  0
LINE
  8
_6-0_
  6
CONTINUOUS
 62
    7
 10
280.40537357507844
 20
693.02416477468068
 11
280.39099854944601
 21
693.02160848497488
  0
LINE
  8
_6-0_
  6
CONTINUOUS
 62
    7
 10
280.39099854944601
 20
693.02160848497488
 11
280.37826667716467
 21
693.01952902540222
  0
LINE
  8
_6-0_
  6
CONTINUOUS
 62
    7
 10
280.37826667716467
 20
693.01952902540222
 11
280.36693890193499
 21
693.01788448077241
  0
LINE
  8
_6-0_
  6
CONTINUOUS
 62
    7
 10
280.36693890193499
 20
693.01788448077241
 11
280.35677616745795
 21
693.01663293589525
  0
LINE
  8
_6-0_
  6
CONTINUOUS
 62
    7
 10
280.35677616745795
 20
693.01663293589525
 11
280.34753941743429
 21
693.01573247558099
  0
LINE
  8
_6-0_
  6
CONTINUOUS
 62
    7
 10
280.34753941743429
 20
693.01573247558099
 11
280.33898959556501
 21
693.01514118463945
  0
LINE
  8
_6-0_
  6
CONTINUOUS
 62
    7
 10
280.33898959556501
 20
693.01514118463945
 11
280.33088764555077
 21
693.01481714788054
  0
LINE
  8
_6-0_
  6
CONTINUOUS
 62
    7
 10
280.33088764555077
 20
693.01481714788054
 11
280.32299451109236
 21
693.01471845011417
  0
LINE
  8
_6-0_
  6
CONTINUOUS
 62
    7
 10
273.72572403171273
 20
693.01471845011417
 11
273.7284556009605
 21
693.01471845011417
  0
LINE
  8
_6-0_
  6
CONTINUOUS
 62
    7
 10
273.7284556009605
 20
693.01471845011417
 11
273.73565701079542
 21
693.01471845011417
  0
LINE
  8
_6-0_
  6
CONTINUOUS
 62
    7
 10
273.73565701079542
 20
693.01471845011417
 11
273.74583831435518
 21
693.01471845011417
  0
LINE
  8
_6-0_
  6
CONTINUOUS
 62
    7
 10
273.74583831435518
 20
693.01471845011417
 11
273.75750956477731
 21
693.01471845011417
  0
LINE
  8
_6-0_
  6
CONTINUOUS
 62
    7
 10
273.75750956477731
 20
693.01471845011417
 11
273.76918081519938
 21
693.01471845011417
  0
LINE
  8
_6-0_
  6
CONTINUOUS
 62
    7
 10
273.76918081519938
 20
693.01471845011417
 11
273.77936211875914
 21
693.01471845011417
  0
LINE
  8
_6-0_
  6
CONTINUOUS
 62
    7
 10
273.77936211875914
 20
693.01471845011417
 11
273.78656352859412
 21
693.01471845011417
  0
LINE
  8
_6-0_
  6
CONTINUOUS
 62
    7
 10
273.78656352859412
 20
693.01471845011417
 11
273.78929509784177
 21
693.01471845011417
  0
LINE
  8
_6-0_
  6
CONTINUOUS
 62
    7
 10
273.78929509784177
 20
693.01471845011417
 11
273.8487261850409
 21
693.01471845011417
  0
LINE
  8
_6-0_
  6
CONTINUOUS
 62
    7
 10
273.8487261850409
 20
693.01471845011417
 11
274.00540814220221
 21
693.01471845011417
  0
LINE
  8
_6-0_
  6
CONTINUOUS
 62
    7
 10
274.00540814220221
 20
693.01471845011417
 11
274.22692401267159
 21
693.01471845011417
  0
LINE
  8
_6-0_
  6
CONTINUOUS
 62
    7
 10
274.22692401267159
 20
693.01471845011417
 11
274.48085683979508
 21
693.01471845011417
  0
LINE
  8
_6-0_
  6
CONTINUOUS
 62
    7
 10
274.48085683979508
 20
693.01471845011417
 11
274.73478966691852
 21
693.01471845011417
  0
LINE
  8
_6-0_
  6
CONTINUOUS
 62
    7
 10
274.73478966691852
 20
693.01471845011417
 11
274.95630553738783
 21
693.01471845011417
  0
LINE
  8
_6-0_
  6
CONTINUOUS
 62
    7
 10
274.95630553738783
 20
693.01471845011417
 11
275.11298749454915
 21
693.01471845011417
  0
LINE
  8
_6-0_
  6
CONTINUOUS
 62
    7
 10
275.11298749454915
 20
693.01471845011417
 11
275.17241858174822
 21
693.01471845011417
  0
LINE
  8
_6-0_
  6
CONTINUOUS
 62
    7
 10
275.17241858174822
 20
693.01471845011417
 11
275.178187127873
 21
693.01471845011417
  0
LINE
  8
_6-0_
  6
CONTINUOUS
 62
    7
 10
275.178187127873
 20
693.01471845011417
 11
275.19339511311131
 21
693.01471845011417
  0
LINE
  8
_6-0_
  6
CONTINUOUS
 62
    7
 10
275.19339511311131
 20
693.01471845011417
 11
275.21489605775844
 21
693.01471845011417
  0
LINE
  8
_6-0_
  6
CONTINUOUS
 62
    7
 10
275.21489605775844
 20
693.01471845011417
 11
275.23954348210998
 21
693.01471845011417
  0
LINE
  8
_6-0_
  6
CONTINUOUS
 62
    7
 10
275.23954348210998
 20
693.01471845011417
 11
275.26419090646158
 21
693.01471845011417
  0
LINE
  8
_6-0_
  6
CONTINUOUS
 62
    7
 10
275.26419090646158
 20
693.01471845011417
 11
275.28569185110871
 21
693.01471845011417
  0
LINE
  8
_6-0_
  6
CONTINUOUS
 62
    7
 10
275.28569185110871
 20
693.01471845011417
 11
275.3008998363469
 21
693.01471845011417
  0
LINE
  8
_6-0_
  6
CONTINUOUS
 62
    7
 10
275.3008998363469
 20
693.01471845011417
 11
275.30666838247168
 21
693.01471845011417
  0
LINE
  8
_6-0_
  6
CONTINUOUS
 62
    7
 10
282.64225016999274
 20
694.50589589143192
 11
282.64225016999274
 21
694.50576667797179
  0
LINE
  8
_6-0_
  6
CONTINUOUS
 62
    7
 10
282.64225016999274
 20
694.50576667797179
 11
282.64225016999274
 21
694.50542602430403
  0
LINE
  8
_6-0_
  6
CONTINUOUS
 62
    7
 10
282.64225016999274
 20
694.50542602430403
 11
282.64225016999274
 21
694.50494441049818
  0
LINE
  8
_6-0_
  6
CONTINUOUS
 62
    7
 10
282.64225016999274
 20
694.50494441049818
 11
282.64225016999274
 21
694.50439231662267
  0
LINE
  8
_6-0_
  6
CONTINUOUS
 62
    7
 10
282.64225016999274
 20
694.50439231662267
 11
282.64225016999274
 21
694.50384022274761
  0
LINE
  8
_6-0_
  6
CONTINUOUS
 62
    7
 10
282.64225016999274
 20
694.50384022274761
 11
282.64225016999274
 21
694.50335860894143
  0
LINE
  8
_6-0_
  6
CONTINUOUS
 62
    7
 10
282.64225016999274
 20
694.50335860894143
 11
282.64225016999274
 21
694.50301795527378
  0
LINE
  8
_6-0_
  6
CONTINUOUS
 62
    7
 10
282.64225016999274
 20
694.50301795527378
 11
282.64225016999274
 21
694.50288874181365
  0
LINE
  8
_6-0_
  6
CONTINUOUS
 62
    7
 10
282.64225016999274
 20
694.50288874181365
 11
282.64225016999274
 21
694.4586234329347
  0
LINE
  8
_6-0_
  6
CONTINUOUS
 62
    7
 10
282.64225016999274
 20
694.4586234329347
 11
282.64225016999274
 21
694.34192398225366
  0
LINE
  8
_6-0_
  6
CONTINUOUS
 62
    7
 10
282.64225016999274
 20
694.34192398225366
 11
282.64225016999274
 21
694.17693510370441
  0
LINE
  8
_6-0_
  6
CONTINUOUS
 62
    7
 10
282.64225016999274
 20
694.17693510370441
 11
282.64225016999274
 21
693.98780151122139
  0
LINE
  8
_6-0_
  6
CONTINUOUS
 62
    7
 10
282.64225016999274
 20
693.98780151122139
 11
282.64225016999274
 21
693.79866791873826
  0
LINE
  8
_6-0_
  6
CONTINUOUS
 62
    7
 10
282.64225016999274
 20
693.79866791873826
 11
282.64225016999274
 21
693.63367904018901
  0
LINE
  8
_6-0_
  6
CONTINUOUS
 62
    7
 10
282.64225016999274
 20
693.63367904018901
 11
282.64225016999274
 21
693.51697958950797
  0
LINE
  8
_6-0_
  6
CONTINUOUS
 62
    7
 10
282.64225016999274
 20
693.51697958950797
 11
282.64225016999274
 21
693.47271428062891
  0
LINE
  8
_6-0_
  6
CONTINUOUS
 62
    7
 10
282.64225016999274
 20
693.47271428062891
 11
282.64225016999274
 21
693.47094003819484
  0
LINE
  8
_6-0_
  6
CONTINUOUS
 62
    7
 10
282.64225016999274
 20
693.47094003819484
 11
282.64225016999274
 21
693.46626248995949
  0
LINE
  8
_6-0_
  6
CONTINUOUS
 62
    7
 10
282.64225016999274
 20
693.46626248995949
 11
282.64225016999274
 21
693.45964940452347
  0
LINE
  8
_6-0_
  6
CONTINUOUS
 62
    7
 10
282.64225016999274
 20
693.45964940452347
 11
282.64225016999274
 21
693.45206855048696
  0
LINE
  8
_6-0_
  6
CONTINUOUS
 62
    7
 10
282.64225016999274
 20
693.45206855048696
 11
282.64225016999274
 21
693.44448769645055
  0
LINE
  8
_6-0_
  6
CONTINUOUS
 62
    7
 10
282.64225016999274
 20
693.44448769645055
 11
282.64225016999274
 21
693.43787461101442
  0
LINE
  8
_6-0_
  6
CONTINUOUS
 62
    7
 10
282.64225016999274
 20
693.43787461101442
 11
282.64225016999274
 21
693.43319706277907
  0
LINE
  8
_6-0_
  6
CONTINUOUS
 62
    7
 10
282.64225016999274
 20
693.43319706277907
 11
282.64225016999274
 21
693.43142282034501
  0
LINE
  8
_6-0_
  6
CONTINUOUS
 62
    7
 10
277.28758135763542
 20
693.01471845011417
 11
277.64206964516632
 21
693.24970129372332
  0
LINE
  8
_6-0_
  6
CONTINUOUS
 62
    7
 10
277.64206964516632
 20
693.24970129372332
 11
277.63626945400574
 21
693.23889047646367
  0
LINE
  8
_6-0_
  6
CONTINUOUS
 62
    7
 10
277.63626945400574
 20
693.23889047646367
 11
277.63004765027722
 21
693.22800681136891
  0
LINE
  8
_6-0_
  6
CONTINUOUS
 62
    7
 10
277.63004765027722
 20
693.22800681136891
 11
277.62326769971958
 21
693.21689987324226
  0
LINE
  8
_6-0_
  6
CONTINUOUS
 62
    7
 10
277.62326769971958
 20
693.21689987324226
 11
277.6157930680713
 21
693.20541923688688
  0
LINE
  8
_6-0_
  6
CONTINUOUS
 62
    7
 10
277.6157930680713
 20
693.20541923688688
 11
277.60748722107098
 21
693.19341447710701
  0
LINE
  8
_6-0_
  6
CONTINUOUS
 62
    7
 10
277.60748722107098
 20
693.19341447710701
 11
277.59821362445729
 21
693.18073516870572
  0
LINE
  8
_6-0_
  6
CONTINUOUS
 62
    7
 10
277.59821362445729
 20
693.18073516870572
 11
277.58783574396881
 21
693.16723088648644
  0
LINE
  8
_6-0_
  6
CONTINUOUS
 62
    7
 10
277.58783574396881
 20
693.16723088648644
 11
277.57621704534415
 21
693.15275120525257
  0
LINE
  8
_6-0_
  6
CONTINUOUS
 62
    7
 10
277.57621704534415
 20
693.15275120525257
 11
277.57115536197455
 21
693.14735288732209
  0
LINE
  8
_6-0_
  6
CONTINUOUS
 62
    7
 10
277.57115536197455
 20
693.14735288732209
 11
277.56507643794305
 21
693.14111358250079
  0
LINE
  8
_6-0_
  6
CONTINUOUS
 62
    7
 10
277.56507643794305
 20
693.14111358250079
 11
277.55828632229156
 21
693.13432960289094
  0
LINE
  8
_6-0_
  6
CONTINUOUS
 62
    7
 10
277.55828632229156
 20
693.13432960289094
 11
277.55109106406161
 21
693.12729726059388
  0
LINE
  8
_6-0_
  6
CONTINUOUS
 62
    7
 10
277.55109106406161
 20
693.12729726059388
 11
277.54379671229481
 21
693.12031286771162
  0
LINE
  8
_6-0_
  6
CONTINUOUS
 62
    7
 10
277.54379671229481
 20
693.12031286771162
 11
277.5367093160329
 21
693.11367273634573
  0
LINE
  8
_6-0_
  6
CONTINUOUS
 62
    7
 10
277.5367093160329
 20
693.11367273634573
 11
277.53013492431751
 21
693.10767317859802
  0
LINE
  8
_6-0_
  6
CONTINUOUS
 62
    7
 10
277.53013492431751
 20
693.10767317859802
 11
277.52437958619032
 21
693.10261050657004
  0
LINE
  8
_6-0_
  6
CONTINUOUS
 62
    7
 10
277.52437958619032
 20
693.10261050657004
 11
277.51379479670584
 21
693.09478459103286
  0
LINE
  8
_6-0_
  6
CONTINUOUS
 62
    7
 10
277.51379479670584
 20
693.09478459103286
 11
277.50414042851276
 21
693.08783971329694
  0
LINE
  8
_6-0_
  6
CONTINUOUS
 62
    7
 10
277.50414042851276
 20
693.08783971329694
 11
277.49504051788216
 21
693.08153814162893
  0
LINE
  8
_6-0_
  6
CONTINUOUS
 62
    7
 10
277.49504051788216
 20
693.08153814162893
 11
277.4861191010848
 21
693.07564214429647
  0
LINE
  8
_6-0_
  6
CONTINUOUS
 62
    7
 10
277.4861191010848
 20
693.07564214429647
 11
277.47700021439175
 21
693.06991398956654
  0
LINE
  8
_6-0_
  6
CONTINUOUS
 62
    7
 10
277.47700021439175
 20
693.06991398956654
 11
277.46730789407394
 21
693.06411594570648
  0
LINE
  8
_6-0_
  6
CONTINUOUS
 62
    7
 10
277.46730789407394
 20
693.06411594570648
 11
277.45666617640234
 21
693.05801028098347
  0
LINE
  8
_6-0_
  6
CONTINUOUS
 62
    7
 10
277.45666617640234
 20
693.05801028098347
 11
277.44469909764791
 21
693.05135926366461
  0
LINE
  8
_6-0_
  6
CONTINUOUS
 62
    7
 10
277.44469909764791
 20
693.05135926366461
 11
277.43709264017241
 21
693.04803467444663
  0
LINE
  8
_6-0_
  6
CONTINUOUS
 62
    7
 10
277.43709264017241
 20
693.04803467444663
 11
277.42810888896702
 21
693.0443697811595
  0
LINE
  8
_6-0_
  6
CONTINUOUS
 62
    7
 10
277.42810888896702
 20
693.0443697811595
 11
277.41818367956512
 21
693.04052265242251
  0
LINE
  8
_6-0_
  6
CONTINUOUS
 62
    7
 10
277.41818367956512
 20
693.04052265242251
 11
277.40775284750021
 21
693.03665135685503
  0
LINE
  8
_6-0_
  6
CONTINUOUS
 62
    7
 10
277.40775284750021
 20
693.03665135685503
 11
277.39725222830589
 21
693.03291396307645
  0
LINE
  8
_6-0_
  6
CONTINUOUS
 62
    7
 10
277.39725222830589
 20
693.03291396307645
 11
277.38711765751543
 21
693.02946853970548
  0
LINE
  8
_6-0_
  6
CONTINUOUS
 62
    7
 10
277.38711765751543
 20
693.02946853970548
 11
277.37778497066245
 21
693.02647315536194
  0
LINE
  8
_6-0_
  6
CONTINUOUS
 62
    7
 10
277.37778497066245
 20
693.02647315536194
 11
277.36969000328037
 21
693.02408587866478
  0
LINE
  8
_6-0_
  6
CONTINUOUS
 62
    7
 10
277.36969000328037
 20
693.02408587866478
 11
277.35535577577605
 21
693.02155000166954
  0
LINE
  8
_6-0_
  6
CONTINUOUS
 62
    7
 10
277.35535577577605
 20
693.02155000166954
 11
277.34266130042909
 21
693.01948746975791
  0
LINE
  8
_6-0_
  6
CONTINUOUS
 62
    7
 10
277.34266130042909
 20
693.01948746975791
 11
277.33136822213214
 21
693.01785660302107
  0
LINE
  8
_6-0_
  6
CONTINUOUS
 62
    7
 10
277.33136822213214
 20
693.01785660302107
 11
277.32123818577753
 21
693.01661572154899
  0
LINE
  8
_6-0_
  6
CONTINUOUS
 62
    7
 10
277.32123818577753
 20
693.01661572154899
 11
277.31203283625797
 21
693.01572314543159
  0
LINE
  8
_6-0_
  6
CONTINUOUS
 62
    7
 10
277.31203283625797
 20
693.01572314543159
 11
277.30351381846612
 21
693.01513719475997
  0
LINE
  8
_6-0_
  6
CONTINUOUS
 62
    7
 10
277.30351381846612
 20
693.01513719475997
 11
277.2954427772944
 21
693.01481618962396
  0
LINE
  8
_6-0_
  6
CONTINUOUS
 62
    7
 10
277.2954427772944
 20
693.01481618962396
 11
277.28758135763542
 21
693.01471845011417
  0
LINE
  8
_6-0_
  6
CONTINUOUS
 62
    7
 10
281.19892643446514
 20
694.25138519839834
 11
281.19748553374382
 21
694.24861725386586
  0
LINE
  8
_6-0_
  6
CONTINUOUS
 62
    7
 10
281.19748553374382
 20
694.24861725386586
 11
281.19556315451865
 21
694.24492439773326
  0
LINE
  8
_6-0_
  6
CONTINUOUS
 62
    7
 10
281.19556315451865
 20
694.24492439773326
 11
281.19330369636452
 21
694.24058401900243
  0
LINE
  8
_6-0_
  6
CONTINUOUS
 62
    7
 10
281.19330369636452
 20
694.24058401900243
 11
281.1908515588558
 21
694.23587350667526
  0
LINE
  8
_6-0_
  6
CONTINUOUS
 62
    7
 10
281.1908515588558
 20
694.23587350667526
 11
281.18835114156718
 21
694.23107024975388
  0
LINE
  8
_6-0_
  6
CONTINUOUS
 62
    7
 10
281.18835114156718
 20
694.23107024975388
 11
281.18594684407321
 21
694.22645163724019
  0
LINE
  8
_6-0_
  6
CONTINUOUS
 62
    7
 10
281.18594684407321
 20
694.22645163724019
 11
281.18378306594855
 21
694.22229505813607
  0
LINE
  8
_6-0_
  6
CONTINUOUS
 62
    7
 10
281.18378306594855
 20
694.22229505813607
 11
281.18200420676794
 21
694.21887790144353
  0
LINE
  8
_6-0_
  6
CONTINUOUS
 62
    7
 10
281.18200420676794
 20
694.21887790144353
 11
281.17851202195277
 21
694.21216947682933
  0
LINE
  8
_6-0_
  6
CONTINUOUS
 62
    7
 10
281.17851202195277
 20
694.21216947682933
 11
281.17519768456918
 21
694.20580269395282
  0
LINE
  8
_6-0_
  6
CONTINUOUS
 62
    7
 10
281.17519768456918
 20
694.20580269395282
 11
281.17185510781644
 21
694.19938166375289
  0
LINE
  8
_6-0_
  6
CONTINUOUS
 62
    7
 10
281.17185510781644
 20
694.19938166375289
 11
281.1682782048938
 21
694.19251049716854
  0
LINE
  8
_6-0_
  6
CONTINUOUS
 62
    7
 10
281.1682782048938
 20
694.19251049716854
 11
281.16426088900027
 21
694.1847933051389
  0
LINE
  8
_6-0_
  6
CONTINUOUS
 62
    7
 10
281.16426088900027
 20
694.1847933051389
 11
281.15959707333531
 21
694.17583419860284
  0
LINE
  8
_6-0_
  6
CONTINUOUS
 62
    7
 10
281.15959707333531
 20
694.17583419860284
 11
281.15408067109803
 21
694.16523728849984
  0
LINE
  8
_6-0_
  6
CONTINUOUS
 62
    7
 10
281.15408067109803
 20
694.16523728849984
 11
281.14750559548759
 21
694.15260668576877
  0
LINE
  8
_6-0_
  6
CONTINUOUS
 62
    7
 10
281.14750559548759
 20
694.15260668576877
 11
281.14111235230416
 21
694.14032537987987
  0
LINE
  8
_6-0_
  6
CONTINUOUS
 62
    7
 10
281.14111235230416
 20
694.14032537987987
 11
281.13394351889212
 21
694.1265541790242
  0
LINE
  8
_6-0_
  6
CONTINUOUS
 62
    7
 10
281.13394351889212
 20
694.1265541790242
 11
281.12634792889139
 21
694.11196318638895
  0
LINE
  8
_6-0_
  6
CONTINUOUS
 62
    7
 10
281.12634792889139
 20
694.11196318638895
 11
281.11867441594194
 21
694.09722250516188
  0
LINE
  8
_6-0_
  6
CONTINUOUS
 62
    7
 10
281.11867441594194
 20
694.09722250516188
 11
281.11127181368352
 21
694.08300223853064
  0
LINE
  8
_6-0_
  6
CONTINUOUS
 62
    7
 10
281.11127181368352
 20
694.08300223853064
 11
281.10448895575621
 21
694.06997248968241
  0
LINE
  8
_6-0_
  6
CONTINUOUS
 62
    7
 10
281.10448895575621
 20
694.06997248968241
 11
281.09867467579988
 21
694.05880336180508
  0
LINE
  8
_6-0_
  6
CONTINUOUS
 62
    7
 10
281.09867467579988
 20
694.05880336180508
 11
281.0941778074544
 21
694.05016495808593
  0
LINE
  8
_6-0_
  6
CONTINUOUS
 62
    7
 10
281.0941778074544
 20
694.05016495808593
 11
281.08657847655786
 21
694.03556677925678
  0
LINE
  8
_6-0_
  6
CONTINUOUS
 62
    7
 10
281.08657847655786
 20
694.03556677925678
 11
281.07923523507804
 21
694.02146054362015
  0
LINE
  8
_6-0_
  6
CONTINUOUS
 62
    7
 10
281.07923523507804
 20
694.02146054362015
 11
281.07147341452298
 21
694.00655022506101
  0
LINE
  8
_6-0_
  6
CONTINUOUS
 62
    7
 10
281.07147341452298
 20
694.00655022506101
 11
281.06261834640037
 21
693.98953979746443
  0
LINE
  8
_6-0_
  6
CONTINUOUS
 62
    7
 10
281.06261834640037
 20
693.98953979746443
 11
281.05199536221818
 21
693.96913323471517
  0
LINE
  8
_6-0_
  6
CONTINUOUS
 62
    7
 10
281.05199536221818
 20
693.96913323471517
 11
281.03892979348421
 21
693.94403451069877
  0
LINE
  8
_6-0_
  6
CONTINUOUS
 62
    7
 10
281.03892979348421
 20
693.94403451069877
 11
281.02274697170657
 21
693.91294759929974
  0
LINE
  8
_6-0_
  6
CONTINUOUS
 62
    7
 10
281.02274697170657
 20
693.91294759929974
 11
281.00277222839287
 21
693.8745764744034
  0
LINE
  8
_6-0_
  6
CONTINUOUS
 62
    7
 10
281.00277222839287
 20
693.8745764744034
 11
280.98029726368225
 21
693.83140246889002
  0
LINE
  8
_6-0_
  6
CONTINUOUS
 62
    7
 10
280.98029726368225
 20
693.83140246889002
 11
280.95540014512943
 21
693.78357554913691
  0
LINE
  8
_6-0_
  6
CONTINUOUS
 62
    7
 10
280.95540014512943
 20
693.78357554913691
 11
280.92924112990153
 21
693.73332454842512
  0
LINE
  8
_6-0_
  6
CONTINUOUS
 62
    7
 10
280.92924112990153
 20
693.73332454842512
 11
280.90298047516575
 21
693.68287830003499
  0
LINE
  8
_6-0_
  6
CONTINUOUS
 62
    7
 10
280.90298047516575
 20
693.68287830003499
 11
280.87777843808902
 21
693.63446563724733
  0
LINE
  8
_6-0_
  6
CONTINUOUS
 62
    7
 10
280.87777843808902
 20
693.63446563724733
 11
280.85479527583857
 21
693.59031539334296
  0
LINE
  8
_6-0_
  6
CONTINUOUS
 62
    7
 10
280.85479527583857
 20
693.59031539334296
 11
280.83519124558143
 21
693.55265640160223
  0
LINE
  8
_6-0_
  6
CONTINUOUS
 62
    7
 10
280.83519124558143
 20
693.55265640160223
 11
280.8201266044847
 21
693.5237174953063
  0
LINE
  8
_6-0_
  6
CONTINUOUS
 62
    7
 10
280.8201266044847
 20
693.5237174953063
 11
280.79564744213877
 21
693.47669346195653
  0
LINE
  8
_6-0_
  6
CONTINUOUS
 62
    7
 10
280.79564744213877
 20
693.47669346195653
 11
280.77388577988933
 21
693.43488969772238
  0
LINE
  8
_6-0_
  6
CONTINUOUS
 62
    7
 10
280.77388577988933
 20
693.43488969772238
 11
280.75443715272991
 21
693.39752923255492
  0
LINE
  8
_6-0_
  6
CONTINUOUS
 62
    7
 10
280.75443715272991
 20
693.39752923255492
 11
280.736897095654
 21
693.36383509640598
  0
LINE
  8
_6-0_
  6
CONTINUOUS
 62
    7
 10
280.736897095654
 20
693.36383509640598
 11
280.72086114365504
 21
693.33303031922708
  0
LINE
  8
_6-0_
  6
CONTINUOUS
 62
    7
 10
280.72086114365504
 20
693.33303031922708
 11
280.70592483172663
 21
693.30433793096961
  0
LINE
  8
_6-0_
  6
CONTINUOUS
 62
    7
 10
280.70592483172663
 20
693.30433793096961
 11
280.69168369486204
 21
693.2769809615852
  0
LINE
  8
_6-0_
  6
CONTINUOUS
 62
    7
 10
280.69168369486204
 20
693.2769809615852
 11
280.67773326805502
 21
693.25018244102523
  0
LINE
  8
_6-0_
  6
CONTINUOUS
 62
    7
 10
276.65020141201364
 20
693.01471845011417
 11
276.64090563162961
 21
693.11323007606757
  0
LINE
  8
_6-0_
  6
CONTINUOUS
 62
    7
 10
276.64090563162961
 20
693.11323007606757
 11
276.64093902842438
 21
693.112881088569
  0
LINE
  8
_6-0_
  6
CONTINUOUS
 62
    7
 10
276.64093902842438
 20
693.112881088569
 11
276.6410270745198
 21
693.11196103061775
  0
LINE
  8
_6-0_
  6
CONTINUOUS
 62
    7
 10
276.6410270745198
 20
693.11196103061775
 11
276.64115155348236
 21
693.11066025903165
  0
LINE
  8
_6-0_
  6
CONTINUOUS
 62
    7
 10
276.64115155348236
 20
693.11066025903165
 11
276.64129424887841
 21
693.10916913062806
  0
LINE
  8
_6-0_
  6
CONTINUOUS
 62
    7
 10
276.64129424887841
 20
693.10916913062806
 11
276.64143694427435
 21
693.10767800222447
  0
LINE
  8
_6-0_
  6
CONTINUOUS
 62
    7
 10
276.64143694427435
 20
693.10767800222447
 11
276.64156142323691
 21
693.10637723063849
  0
LINE
  8
_6-0_
  6
CONTINUOUS
 62
    7
 10
276.64156142323691
 20
693.10637723063849
 11
276.64164946933232
 21
693.10545717268724
  0
LINE
  8
_6-0_
  6
CONTINUOUS
 62
    7
 10
276.64164946933232
 20
693.10545717268724
 11
276.64168286612716
 21
693.10510818518856
  0
LINE
  8
_6-0_
  6
CONTINUOUS
 62
    7
 10
276.64168286612716
 20
693.10510818518856
 11
276.64232542410218
 21
693.09836154490768
  0
LINE
  8
_6-0_
  6
CONTINUOUS
 62
    7
 10
276.64232542410218
 20
693.09836154490768
 11
276.64324827179769
 21
693.08863003297211
  0
LINE
  8
_6-0_
  6
CONTINUOUS
 62
    7
 10
276.64324827179769
 20
693.08863003297211
 11
276.64435797632405
 21
693.07690236658971
  0
LINE
  8
_6-0_
  6
CONTINUOUS
 62
    7
 10
276.64435797632405
 20
693.07690236658971
 11
276.6455611047918
 21
693.06416726296925
  0
LINE
  8
_6-0_
  6
CONTINUOUS
 62
    7
 10
276.6455611047918
 20
693.06416726296925
 11
276.64676422431148
 21
693.05141343931905
  0
LINE
  8
_6-0_
  6
CONTINUOUS
 62
    7
 10
276.64676422431148
 20
693.05141343931905
 11
276.64787390199359
 21
693.03962961284708
  0
LINE
  8
_6-0_
  6
CONTINUOUS
 62
    7
 10
276.64787390199359
 20
693.03962961284708
 11
276.6487967049485
 21
693.02980450076188
  0
LINE
  8
_6-0_
  6
CONTINUOUS
 62
    7
 10
276.6487967049485
 20
693.02980450076188
 11
276.64943920028685
 21
693.02292682027144
  0
LINE
  8
_6-0_
  6
CONTINUOUS
 62
    7
 10
276.64943920028685
 20
693.02292682027144
 11
276.64947195157197
 21
693.02257411686639
  0
LINE
  8
_6-0_
  6
CONTINUOUS
 62
    7
 10
276.64947195157197
 20
693.02257411686639
 11
276.64955829586916
 21
693.02164426243439
  0
LINE
  8
_6-0_
  6
CONTINUOUS
 62
    7
 10
276.64955829586916
 20
693.02164426243439
 11
276.64968036884102
 21
693.02032964065143
  0
LINE
  8
_6-0_
  6
CONTINUOUS
 62
    7
 10
276.64968036884102
 20
693.02032964065143
 11
276.64982030615027
 21
693.01882263519269
  0
LINE
  8
_6-0_
  6
CONTINUOUS
 62
    7
 10
276.64982030615027
 20
693.01882263519269
 11
276.64996024345947
 21
693.0173156297343
  0
LINE
  8
_6-0_
  6
CONTINUOUS
 62
    7
 10
276.64996024345947
 20
693.0173156297343
 11
276.65008231643134
 21
693.01600100795122
  0
LINE
  8
_6-0_
  6
CONTINUOUS
 62
    7
 10
276.65008231643134
 20
693.01600100795122
 11
276.65016866072853
 21
693.01507115351933
  0
LINE
  8
_6-0_
  6
CONTINUOUS
 62
    7
 10
276.65016866072853
 20
693.01507115351933
 11
276.65020141201364
 21
693.01471845011417
  0
LINE
  8
_6-0_
  6
CONTINUOUS
 62
    7
 10
282.77272860321614
 20
693.01471845011417
 11
282.76337697388163
 21
693.12445473704781
  0
LINE
  8
_6-0_
  6
CONTINUOUS
 62
    7
 10
282.76337697388163
 20
693.12445473704781
 11
282.76341065718833
 21
693.12406664586297
  0
LINE
  8
_6-0_
  6
CONTINUOUS
 62
    7
 10
282.76341065718833
 20
693.12406664586297
 11
282.76349945863319
 21
693.12304349637554
  0
LINE
  8
_6-0_
  6
CONTINUOUS
 62
    7
 10
282.76349945863319
 20
693.12304349637554
 11
282.76362500550351
 21
693.12159697468655
  0
LINE
  8
_6-0_
  6
CONTINUOUS
 62
    7
 10
282.76362500550351
 20
693.12159697468655
 11
282.76376892508659
 21
693.11993876689689
  0
LINE
  8
_6-0_
  6
CONTINUOUS
 62
    7
 10
282.76376892508659
 20
693.11993876689689
 11
282.76391284466962
 21
693.11828055910701
  0
LINE
  8
_6-0_
  6
CONTINUOUS
 62
    7
 10
282.76391284466962
 20
693.11828055910701
 11
282.76403839153994
 21
693.1168340374179
  0
LINE
  8
_6-0_
  6
CONTINUOUS
 62
    7
 10
282.76403839153994
 20
693.1168340374179
 11
282.7641271929848
 21
693.11581088793059
  0
LINE
  8
_6-0_
  6
CONTINUOUS
 62
    7
 10
282.7641271929848
 20
693.11581088793059
 11
282.76416087629144
 21
693.11542279674563
  0
LINE
  8
_6-0_
  6
CONTINUOUS
 62
    7
 10
282.76416087629144
 20
693.11542279674563
 11
282.7648078794528
 21
693.10792212001638
  0
LINE
  8
_6-0_
  6
CONTINUOUS
 62
    7
 10
282.7648078794528
 20
693.10792212001638
 11
282.76573683690958
 21
693.0970924539962
  0
LINE
  8
_6-0_
  6
CONTINUOUS
 62
    7
 10
282.76573683690958
 20
693.0970924539962
 11
282.76685369964474
 21
693.08403501543216
  0
LINE
  8
_6-0_
  6
CONTINUOUS
 62
    7
 10
282.76685369964474
 20
693.08403501543216
 11
282.76806441864176
 21
693.06985102107183
  0
LINE
  8
_6-0_
  6
CONTINUOUS
 62
    7
 10
282.76806441864176
 20
693.06985102107183
 11
282.76927494488376
 21
693.0556416876625
  0
LINE
  8
_6-0_
  6
CONTINUOUS
 62
    7
 10
282.76927494488376
 20
693.0556416876625
 11
282.770391229354
 21
693.04250823195184
  0
LINE
  8
_6-0_
  6
CONTINUOUS
 62
    7
 10
282.770391229354
 20
693.04250823195184
 11
282.77131922303562
 21
693.03155187068739
  0
LINE
  8
_6-0_
  6
CONTINUOUS
 62
    7
 10
282.77131922303562
 20
693.03155187068739
 11
282.77196487691191
 21
693.02387382061613
  0
LINE
  8
_6-0_
  6
CONTINUOUS
 62
    7
 10
282.77196487691191
 20
693.02387382061613
 11
282.7719976932766
 21
693.02348042578978
  0
LINE
  8
_6-0_
  6
CONTINUOUS
 62
    7
 10
282.7719976932766
 20
693.02348042578978
 11
282.77208420914695
 21
693.02244329397524
  0
LINE
  8
_6-0_
  6
CONTINUOUS
 62
    7
 10
282.77208420914695
 20
693.02244329397524
 11
282.77220652468793
 21
693.02097700416823
  0
LINE
  8
_6-0_
  6
CONTINUOUS
 62
    7
 10
282.77220652468793
 20
693.02097700416823
 11
282.77234674006411
 21
693.01929613536515
  0
LINE
  8
_6-0_
  6
CONTINUOUS
 62
    7
 10
282.77234674006411
 20
693.01929613536515
 11
282.77248695544023
 21
693.01761526656207
  0
LINE
  8
_6-0_
  6
CONTINUOUS
 62
    7
 10
282.77248695544023
 20
693.01761526656207
 11
282.77260927098109
 21
693.01614897675506
  0
LINE
  8
_6-0_
  6
CONTINUOUS
 62
    7
 10
282.77260927098109
 20
693.01614897675506
 11
282.77269578685156
 21
693.01511184494052
  0
LINE
  8
_6-0_
  6
CONTINUOUS
 62
    7
 10
282.77269578685156
 20
693.01511184494052
 11
282.77272860321614
 21
693.01471845011417
  0
LINE
  8
_6-0_
  6
CONTINUOUS
 62
    7
 10
279.92302588668747
 20
693.01471845011417
 11
279.66471222506533
 21
693.12446868869642
  0
LINE
  8
_6-0_
  6
CONTINUOUS
 62
    7
 10
279.66471222506533
 20
693.12446868869642
 11
279.66506048803353
 21
693.12411712435642
  0
LINE
  8
_6-0_
  6
CONTINUOUS
 62
    7
 10
279.66506048803353
 20
693.12411712435642
 11
279.66597863585883
 21
693.12319027291505
  0
LINE
  8
_6-0_
  6
CONTINUOUS
 62
    7
 10
279.66597863585883
 20
693.12319027291505
 11
279.66727670692205
 21
693.12187989673919
  0
LINE
  8
_6-0_
  6
CONTINUOUS
 62
    7
 10
279.66727670692205
 20
693.12187989673919
 11
279.66876473960446
 21
693.12037775819613
  0
LINE
  8
_6-0_
  6
CONTINUOUS
 62
    7
 10
279.66876473960446
 20
693.12037775819613
 11
279.6702527722868
 21
693.11887561965318
  0
LINE
  8
_6-0_
  6
CONTINUOUS
 62
    7
 10
279.6702527722868
 20
693.11887561965318
 11
279.67155084335013
 21
693.11756524347732
  0
LINE
  8
_6-0_
  6
CONTINUOUS
 62
    7
 10
279.67155084335013
 20
693.11756524347732
 11
279.67246899117532
 21
693.11663839203584
  0
LINE
  8
_6-0_
  6
CONTINUOUS
 62
    7
 10
279.67246899117532
 20
693.11663839203584
 11
279.67281725414358
 21
693.11628682769594
  0
LINE
  8
_6-0_
  6
CONTINUOUS
 62
    7
 10
279.67281725414358
 20
693.11628682769594
 11
279.68115367205905
 21
693.10849814511744
  0
LINE
  8
_6-0_
  6
CONTINUOUS
 62
    7
 10
279.68115367205905
 20
693.10849814511744
 11
279.69097310861423
 21
693.10029269137294
  0
LINE
  8
_6-0_
  6
CONTINUOUS
 62
    7
 10
279.69097310861423
 20
693.10029269137294
 11
279.70169564052776
 21
693.09199606369975
  0
LINE
  8
_6-0_
  6
CONTINUOUS
 62
    7
 10
279.70169564052776
 20
693.09199606369975
 11
279.71274134451812
 21
693.08393385933505
  0
LINE
  8
_6-0_
  6
CONTINUOUS
 62
    7
 10
279.71274134451812
 20
693.08393385933505
 11
279.72353029730402
 21
693.07643167551623
  0
LINE
  8
_6-0_
  6
CONTINUOUS
 62
    7
 10
279.72353029730402
 20
693.07643167551623
 11
279.73348257560394
 21
693.06981510948003
  0
LINE
  8
_6-0_
  6
CONTINUOUS
 62
    7
 10
279.73348257560394
 20
693.06981510948003
 11
279.74201825613659
 21
693.06440975846408
  0
LINE
  8
_6-0_
  6
CONTINUOUS
 62
    7
 10
279.74201825613659
 20
693.06440975846408
 11
279.74855741562055
 21
693.06054121970556
  0
LINE
  8
_6-0_
  6
CONTINUOUS
 62
    7
 10
279.74855741562055
 20
693.06054121970556
 11
279.75595388629074
 21
693.05643781553226
  0
LINE
  8
_6-0_
  6
CONTINUOUS
 62
    7
 10
279.75595388629074
 20
693.05643781553226
 11
279.76456046711127
 21
693.0518713000763
  0
LINE
  8
_6-0_
  6
CONTINUOUS
 62
    7
 10
279.76456046711127
 20
693.0518713000763
 11
279.77452092188821
 21
693.04697883873109
  0
LINE
  8
_6-0_
  6
CONTINUOUS
 62
    7
 10
279.77452092188821
 20
693.04697883873109
 11
279.78597901442743
 21
693.04189759689109
  0
LINE
  8
_6-0_
  6
CONTINUOUS
 62
    7
 10
279.78597901442743
 20
693.04189759689109
 11
279.79907850853476
 21
693.03676473994994
  0
LINE
  8
_6-0_
  6
CONTINUOUS
 62
    7
 10
279.79907850853476
 20
693.03676473994994
 11
279.81396316801636
 21
693.03171743330165
  0
LINE
  8
_6-0_
  6
CONTINUOUS
 62
    7
 10
279.81396316801636
 20
693.03171743330165
 11
279.83077675667801
 21
693.0268928423402
  0
LINE
  8
_6-0_
  6
CONTINUOUS
 62
    7
 10
279.83077675667801
 20
693.0268928423402
 11
279.84966303832562
 21
693.02242813245948
  0
LINE
  8
_6-0_
  6
CONTINUOUS
 62
    7
 10
279.84966303832562
 20
693.02242813245948
 11
279.86112402081375
 21
693.02006611394006
  0
LINE
  8
_6-0_
  6
CONTINUOUS
 62
    7
 10
279.86112402081375
 20
693.02006611394006
 11
279.87075871370854
 21
693.01823954553925
  0
LINE
  8
_6-0_
  6
CONTINUOUS
 62
    7
 10
279.87075871370854
 20
693.01823954553925
 11
279.87893183662896
 21
693.01688046051549
  0
LINE
  8
_6-0_
  6
CONTINUOUS
 62
    7
 10
279.87893183662896
 20
693.01688046051549
 11
279.88600810919388
 21
693.01592089212795
  0
LINE
  8
_6-0_
  6
CONTINUOUS
 62
    7
 10
279.88600810919388
 20
693.01592089212795
 11
279.89235225102226
 21
693.01529287363508
  0
LINE
  8
_6-0_
  6
CONTINUOUS
 62
    7
 10
279.89235225102226
 20
693.01529287363508
 11
279.89832898173319
 21
693.01492843829601
  0
LINE
  8
_6-0_
  6
CONTINUOUS
 62
    7
 10
279.89832898173319
 20
693.01492843829601
 11
279.90430302094529
 21
693.01475961936944
  0
LINE
  8
_6-0_
  6
CONTINUOUS
 62
    7
 10
279.90430302094529
 20
693.01475961936944
 11
279.91063908827778
 21
693.01471845011417
  0
LINE
  8
_6-0_
  6
CONTINUOUS
 62
    7
 10
279.91063908827778
 20
693.01471845011417
 11
279.91117133352196
 21
693.01471845011417
  0
LINE
  8
_6-0_
  6
CONTINUOUS
 62
    7
 10
279.91117133352196
 20
693.01471845011417
 11
279.91257452552929
 21
693.01471845011417
  0
LINE
  8
_6-0_
  6
CONTINUOUS
 62
    7
 10
279.91257452552929
 20
693.01471845011417
 11
279.91455834871209
 21
693.01471845011417
  0
LINE
  8
_6-0_
  6
CONTINUOUS
 62
    7
 10
279.91455834871209
 20
693.01471845011417
 11
279.91683248748268
 21
693.01471845011417
  0
LINE
  8
_6-0_
  6
CONTINUOUS
 62
    7
 10
279.91683248748268
 20
693.01471845011417
 11
279.91910662625315
 21
693.01471845011417
  0
LINE
  8
_6-0_
  6
CONTINUOUS
 62
    7
 10
279.91910662625315
 20
693.01471845011417
 11
279.92109044943595
 21
693.01471845011417
  0
LINE
  8
_6-0_
  6
CONTINUOUS
 62
    7
 10
279.92109044943595
 20
693.01471845011417
 11
279.92249364144334
 21
693.01471845011417
  0
LINE
  8
_6-0_
  6
CONTINUOUS
 62
    7
 10
279.92249364144334
 20
693.01471845011417
 11
279.92302588668747
 21
693.01471845011417
  0
LINE
  8
_6-0_
  6
CONTINUOUS
 62
    7
 10
276.88761273323053
 20
693.01471845011417
 11
276.64090563176421
 21
693.11323007594797
  0
LINE
  8
_6-0_
  6
CONTINUOUS
 62
    7
 10
276.64090563176421
 20
693.11323007594797
 11
276.64699162415968
 21
693.10770668303803
  0
LINE
  8
_6-0_
  6
CONTINUOUS
 62
    7
 10
276.64699162415968
 20
693.10770668303803
 11
276.65343226057558
 21
693.1021550082628
  0
LINE
  8
_6-0_
  6
CONTINUOUS
 62
    7
 10
276.65343226057558
 20
693.1021550082628
 11
276.66045139729732
 21
693.09643423271518
  0
LINE
  8
_6-0_
  6
CONTINUOUS
 62
    7
 10
276.66045139729732
 20
693.09643423271518
 11
276.66827289061069
 21
693.09040353748856
  0
LINE
  8
_6-0_
  6
CONTINUOUS
 62
    7
 10
276.66827289061069
 20
693.09040353748856
 11
276.67712059680127
 21
693.08392210367572
  0
LINE
  8
_6-0_
  6
CONTINUOUS
 62
    7
 10
276.67712059680127
 20
693.08392210367572
 11
276.6872183721548
 21
693.0768491123697
  0
LINE
  8
_6-0_
  6
CONTINUOUS
 62
    7
 10
276.6872183721548
 20
693.0768491123697
 11
276.69879007295685
 21
693.06904374466353
  0
LINE
  8
_6-0_
  6
CONTINUOUS
 62
    7
 10
276.69879007295685
 20
693.06904374466353
 11
276.71205955549317
 21
693.06036518165058
  0
LINE
  8
_6-0_
  6
CONTINUOUS
 62
    7
 10
276.71205955549317
 20
693.06036518165058
 11
276.72050615469635
 21
693.05615627599059
  0
LINE
  8
_6-0_
  6
CONTINUOUS
 62
    7
 10
276.72050615469635
 20
693.05615627599059
 11
276.73050223012251
 21
693.05152715266456
  0
LINE
  8
_6-0_
  6
CONTINUOUS
 62
    7
 10
276.73050223012251
 20
693.05152715266456
 11
276.74156022549209
 21
693.04667732745793
  0
LINE
  8
_6-0_
  6
CONTINUOUS
 62
    7
 10
276.74156022549209
 20
693.04667732745793
 11
276.75319258452555
 21
693.04180631615577
  0
LINE
  8
_6-0_
  6
CONTINUOUS
 62
    7
 10
276.75319258452555
 20
693.04180631615577
 11
276.76491175094333
 21
693.0371136345434
  0
LINE
  8
_6-0_
  6
CONTINUOUS
 62
    7
 10
276.76491175094333
 20
693.0371136345434
 11
276.77623016846599
 21
693.03279879840602
  0
LINE
  8
_6-0_
  6
CONTINUOUS
 62
    7
 10
276.77623016846599
 20
693.03279879840602
 11
276.78666028081386
 21
693.02906132352916
  0
LINE
  8
_6-0_
  6
CONTINUOUS
 62
    7
 10
276.78666028081386
 20
693.02906132352916
 11
276.79571453170752
 21
693.02610072569769
  0
LINE
  8
_6-0_
  6
CONTINUOUS
 62
    7
 10
276.79571453170752
 20
693.02610072569769
 11
276.81177765363464
 21
693.02300283681791
  0
LINE
  8
_6-0_
  6
CONTINUOUS
 62
    7
 10
276.81177765363464
 20
693.02300283681791
 11
276.82599975835643
 21
693.02048889647949
  0
LINE
  8
_6-0_
  6
CONTINUOUS
 62
    7
 10
276.82599975835643
 20
693.02048889647949
 11
276.83864766208455
 21
693.01850623104485
  0
LINE
  8
_6-0_
  6
CONTINUOUS
 62
    7
 10
276.83864766208455
 20
693.01850623104485
 11
276.84998818103077
 21
693.01700216687641
  0
LINE
  8
_6-0_
  6
CONTINUOUS
 62
    7
 10
276.84998818103077
 20
693.01700216687641
 11
276.86028813140666
 21
693.01592403033646
  0
LINE
  8
_6-0_
  6
CONTINUOUS
 62
    7
 10
276.86028813140666
 20
693.01592403033646
 11
276.86981432942417
 21
693.01521914778823
  0
LINE
  8
_6-0_
  6
CONTINUOUS
 62
    7
 10
276.86981432942417
 20
693.01521914778823
 11
276.87883359129489
 21
693.0148348455931
  0
LINE
  8
_6-0_
  6
CONTINUOUS
 62
    7
 10
276.87883359129489
 20
693.0148348455931
 11
276.88761273323053
 21
693.01471845011417
  0
LINE
  8
_6-0_
  6
CONTINUOUS
 62
    7
 10
275.30666838247168
 20
693.01471845011417
 11
275.47461001116426
 21
693.01471845011417
  0
LINE
  8
_6-0_
  6
CONTINUOUS
 62
    7
 10
275.47461001116426
 20
693.01471845011417
 11
275.64255163985683
 21
693.01471845011417
  0
LINE
  8
_6-0_
  6
CONTINUOUS
 62
    7
 10
275.64255163985683
 20
693.01471845011417
 11
275.81049326854946
 21
693.01471845011417
  0
LINE
  8
_6-0_
  6
CONTINUOUS
 62
    7
 10
275.81049326854946
 20
693.01471845011417
 11
275.97843489724221
 21
693.01471845011417
  0
LINE
  8
_6-0_
  6
CONTINUOUS
 62
    7
 10
275.97843489724221
 20
693.01471845011417
 11
276.14637652593501
 21
693.01471845011417
  0
LINE
  8
_6-0_
  6
CONTINUOUS
 62
    7
 10
276.14637652593501
 20
693.01471845011417
 11
276.31431815462798
 21
693.01471845011417
  0
LINE
  8
_6-0_
  6
CONTINUOUS
 62
    7
 10
276.31431815462798
 20
693.01471845011417
 11
276.48225978332113
 21
693.01471845011417
  0
LINE
  8
_6-0_
  6
CONTINUOUS
 62
    7
 10
276.48225978332113
 20
693.01471845011417
 11
276.65020141201444
 21
693.01471845011417
  0
LINE
  8
_6-0_
  6
CONTINUOUS
 62
    7
 10
280.32299451109236
 20
693.01471845011417
 11
280.62921127260751
 21
693.01471845011417
  0
LINE
  8
_6-0_
  6
CONTINUOUS
 62
    7
 10
280.62921127260751
 20
693.01471845011417
 11
280.93542803412282
 21
693.01471845011417
  0
LINE
  8
_6-0_
  6
CONTINUOUS
 62
    7
 10
280.93542803412282
 20
693.01471845011417
 11
281.24164479563831
 21
693.01471845011417
  0
LINE
  8
_6-0_
  6
CONTINUOUS
 62
    7
 10
281.24164479563831
 20
693.01471845011417
 11
281.54786155715391
 21
693.01471845011417
  0
LINE
  8
_6-0_
  6
CONTINUOUS
 62
    7
 10
281.54786155715391
 20
693.01471845011417
 11
281.85407831866951
 21
693.01471845011417
  0
LINE
  8
_6-0_
  6
CONTINUOUS
 62
    7
 10
281.85407831866951
 20
693.01471845011417
 11
282.16029508018505
 21
693.01471845011417
  0
LINE
  8
_6-0_
  6
CONTINUOUS
 62
    7
 10
282.16029508018505
 20
693.01471845011417
 11
282.46651184170054
 21
693.01471845011417
  0
LINE
  8
_6-0_
  6
CONTINUOUS
 62
    7
 10
282.46651184170054
 20
693.01471845011417
 11
282.77272860321591
 21
693.01471845011417
  0
LINE
  8
_6-0_
  6
CONTINUOUS
 62
    7
 10
283.02167681417484
 20
693.01471845011417
 11
282.76337697386623
 21
693.12445473706703
  0
LINE
  8
_6-0_
  6
CONTINUOUS
 62
    7
 10
282.76337697386623
 20
693.12445473706703
 11
282.76372523113469
 21
693.12410321395373
  0
LINE
  8
_6-0_
  6
CONTINUOUS
 62
    7
 10
282.76372523113469
 20
693.12410321395373
 11
282.76464336393332
 21
693.12317647120062
  0
LINE
  8
_6-0_
  6
CONTINUOUS
 62
    7
 10
282.76464336393332
 20
693.12317647120062
 11
282.7659414137521
 21
693.12186624868787
  0
LINE
  8
_6-0_
  6
CONTINUOUS
 62
    7
 10
282.7659414137521
 20
693.12186624868787
 11
282.76742942208102
 21
693.12036428629483
  0
LINE
  8
_6-0_
  6
CONTINUOUS
 62
    7
 10
282.76742942208102
 20
693.12036428629483
 11
282.76891743040994
 21
693.11886232390202
  0
LINE
  8
_6-0_
  6
CONTINUOUS
 62
    7
 10
282.76891743040994
 20
693.11886232390202
 11
282.77021548022873
 21
693.11755210138926
  0
LINE
  8
_6-0_
  6
CONTINUOUS
 62
    7
 10
282.77021548022873
 20
693.11755210138926
 11
282.77113361302747
 21
693.11662535863604
  0
LINE
  8
_6-0_
  6
CONTINUOUS
 62
    7
 10
282.77113361302747
 20
693.11662535863604
 11
282.77148187029587
 21
693.11627383552286
  0
LINE
  8
_6-0_
  6
CONTINUOUS
 62
    7
 10
282.77148187029587
 20
693.11627383552286
 11
282.77981809867833
 21
693.10848609207824
  0
LINE
  8
_6-0_
  6
CONTINUOUS
 62
    7
 10
282.77981809867833
 20
693.10848609207824
 11
282.7896372840645
 21
693.10028161445769
  0
LINE
  8
_6-0_
  6
CONTINUOUS
 62
    7
 10
282.7896372840645
 20
693.10028161445769
 11
282.80035951527384
 21
693.0919859681203
  0
LINE
  8
_6-0_
  6
CONTINUOUS
 62
    7
 10
282.80035951527384
 20
693.0919859681203
 11
282.81140488112561
 21
693.0839247185246
  0
LINE
  8
_6-0_
  6
CONTINUOUS
 62
    7
 10
282.81140488112561
 20
693.0839247185246
 11
282.82219347043917
 21
693.07642343112934
  0
LINE
  8
_6-0_
  6
CONTINUOUS
 62
    7
 10
282.82219347043917
 20
693.07642343112934
 11
282.83214537203401
 21
693.06980767139305
  0
LINE
  8
_6-0_
  6
CONTINUOUS
 62
    7
 10
282.83214537203401
 20
693.06980767139305
 11
282.84068067472924
 21
693.0644030047747
  0
LINE
  8
_6-0_
  6
CONTINUOUS
 62
    7
 10
282.84068067472924
 20
693.0644030047747
 11
282.84721946734442
 21
693.06053499673283
  0
LINE
  8
_6-0_
  6
CONTINUOUS
 62
    7
 10
282.84721946734442
 20
693.06053499673283
 11
282.85461554748463
 21
693.05643214072779
  0
LINE
  8
_6-0_
  6
CONTINUOUS
 62
    7
 10
282.85461554748463
 20
693.05643214072779
 11
282.86322166152644
 21
693.05186623612258
  0
LINE
  8
_6-0_
  6
CONTINUOUS
 62
    7
 10
282.86322166152644
 20
693.05186623612258
 11
282.87318156034183
 21
693.04697443029931
  0
LINE
  8
_6-0_
  6
CONTINUOUS
 62
    7
 10
282.87318156034183
 20
693.04697443029931
 11
282.88463899480286
 21
693.04189387064093
  0
LINE
  8
_6-0_
  6
CONTINUOUS
 62
    7
 10
282.88463899480286
 20
693.04189387064093
 11
282.8977377157816
 21
693.03676170452945
  0
LINE
  8
_6-0_
  6
CONTINUOUS
 62
    7
 10
282.8977377157816
 20
693.03676170452945
 11
282.91262147415
 21
693.03171507934758
  0
LINE
  8
_6-0_
  6
CONTINUOUS
 62
    7
 10
282.91262147415
 20
693.03171507934758
 11
282.92943402078015
 21
693.02689114247767
  0
LINE
  8
_6-0_
  6
CONTINUOUS
 62
    7
 10
282.92943402078015
 20
693.02689114247767
 11
282.94831910654409
 21
693.02242704130231
  0
LINE
  8
_6-0_
  6
CONTINUOUS
 62
    7
 10
282.94831910654409
 20
693.02242704130231
 11
282.95977935022245
 21
693.02006534627481
  0
LINE
  8
_6-0_
  6
CONTINUOUS
 62
    7
 10
282.95977935022245
 20
693.02006534627481
 11
282.96941339793466
 21
693.01823903131719
  0
LINE
  8
_6-0_
  6
CONTINUOUS
 62
    7
 10
282.96941339793466
 20
693.01823903131719
 11
282.9775859519475
 21
693.01688013798412
  0
LINE
  8
_6-0_
  6
CONTINUOUS
 62
    7
 10
282.9775859519475
 20
693.01688013798412
 11
282.98466171452793
 21
693.0159207078309
  0
LINE
  8
_6-0_
  6
CONTINUOUS
 62
    7
 10
282.98466171452793
 20
693.0159207078309
 11
282.99100538794278
 21
693.0152927824123
  0
LINE
  8
_6-0_
  6
CONTINUOUS
 62
    7
 10
282.99100538794278
 20
693.0152927824123
 11
282.99698167445888
 21
693.01492840328342
  0
LINE
  8
_6-0_
  6
CONTINUOUS
 62
    7
 10
282.99698167445888
 20
693.01492840328342
 11
283.00295527634319
 21
693.01475961199901
  0
LINE
  8
_6-0_
  6
CONTINUOUS
 62
    7
 10
283.00295527634319
 20
693.01475961199901
 11
283.00929089586242
 21
693.01471845011417
  0
LINE
  8
_6-0_
  6
CONTINUOUS
 62
    7
 10
283.00929089586242
 20
693.01471845011417
 11
283.00982310328993
 21
693.01471845011417
  0
LINE
  8
_6-0_
  6
CONTINUOUS
 62
    7
 10
283.00982310328993
 20
693.01471845011417
 11
283.01122619559874
 21
693.01471845011417
  0
LINE
  8
_6-0_
  6
CONTINUOUS
 62
    7
 10
283.01122619559874
 20
693.01471845011417
 11
283.0132098778285
 21
693.01471845011417
  0
LINE
  8
_6-0_
  6
CONTINUOUS
 62
    7
 10
283.0132098778285
 20
693.01471845011417
 11
283.01548385501866
 21
693.01471845011417
  0
LINE
  8
_6-0_
  6
CONTINUOUS
 62
    7
 10
283.01548385501866
 20
693.01471845011417
 11
283.01775783220882
 21
693.01471845011417
  0
LINE
  8
_6-0_
  6
CONTINUOUS
 62
    7
 10
283.01775783220882
 20
693.01471845011417
 11
283.01974151443858
 21
693.01471845011417
  0
LINE
  8
_6-0_
  6
CONTINUOUS
 62
    7
 10
283.01974151443858
 20
693.01471845011417
 11
283.02114460674738
 21
693.01471845011417
  0
LINE
  8
_6-0_
  6
CONTINUOUS
 62
    7
 10
283.02114460674738
 20
693.01471845011417
 11
283.02167681417484
 21
693.01471845011417
  0
LINE
  8
_6-0_
  6
CONTINUOUS
 62
    7
 10
279.67407040198577
 20
693.01471845011417
 11
279.66471222508449
 21
693.12446868867198
  0
LINE
  8
_6-0_
  6
CONTINUOUS
 62
    7
 10
279.66471222508449
 20
693.12446868867198
 11
279.66474592907423
 21
693.12408054873572
  0
LINE
  8
_6-0_
  6
CONTINUOUS
 62
    7
 10
279.66474592907423
 20
693.12408054873572
 11
279.66483478504728
 21
693.12305727072226
  0
LINE
  8
_6-0_
  6
CONTINUOUS
 62
    7
 10
279.66483478504728
 20
693.12305727072226
 11
279.66496040900915
 21
693.12161056732384
  0
LINE
  8
_6-0_
  6
CONTINUOUS
 62
    7
 10
279.66496040900915
 20
693.12161056732384
 11
279.66510441696539
 21
693.11995215123284
  0
LINE
  8
_6-0_
  6
CONTINUOUS
 62
    7
 10
279.66510441696539
 20
693.11995215123284
 11
279.66524842492169
 21
693.11829373514172
  0
LINE
  8
_6-0_
  6
CONTINUOUS
 62
    7
 10
279.66524842492169
 20
693.11829373514172
 11
279.66537404888356
 21
693.11684703174342
  0
LINE
  8
_6-0_
  6
CONTINUOUS
 62
    7
 10
279.66537404888356
 20
693.11684703174342
 11
279.66546290485661
 21
693.11582375372973
  0
LINE
  8
_6-0_
  6
CONTINUOUS
 62
    7
 10
279.66546290485661
 20
693.11582375372973
 11
279.66549660884641
 21
693.11543561379358
  0
LINE
  8
_6-0_
  6
CONTINUOUS
 62
    7
 10
279.66549660884641
 20
693.11543561379358
 11
279.66614402898023
 21
693.10793399815213
  0
LINE
  8
_6-0_
  6
CONTINUOUS
 62
    7
 10
279.66614402898023
 20
693.10793399815213
 11
279.66707361181955
 21
693.09710296562025
  0
LINE
  8
_6-0_
  6
CONTINUOUS
 62
    7
 10
279.66707361181955
 20
693.09710296562025
 11
279.66819124222633
 21
693.08404387299584
  0
LINE
  8
_6-0_
  6
CONTINUOUS
 62
    7
 10
279.66819124222633
 20
693.08404387299584
 11
279.6694028050627
 21
693.06985807707656
  0
LINE
  8
_6-0_
  6
CONTINUOUS
 62
    7
 10
279.6694028050627
 20
693.06985807707656
 11
279.67061418519103
 21
693.05564693466056
  0
LINE
  8
_6-0_
  6
CONTINUOUS
 62
    7
 10
279.67061418519103
 20
693.05564693466056
 11
279.67173126747332
 21
693.04251180254505
  0
LINE
  8
_6-0_
  6
CONTINUOUS
 62
    7
 10
279.67173126747332
 20
693.04251180254505
 11
279.67265993677177
 21
693.03155403752839
  0
LINE
  8
_6-0_
  6
CONTINUOUS
 62
    7
 10
279.67265993677177
 20
693.03155403752839
 11
279.67330607794844
 21
693.02387499640781
  0
LINE
  8
_6-0_
  6
CONTINUOUS
 62
    7
 10
279.67330607794844
 20
693.02387499640781
 11
279.67333891999687
 21
693.02348155105938
  0
LINE
  8
_6-0_
  6
CONTINUOUS
 62
    7
 10
279.67333891999687
 20
693.02348155105938
 11
279.67342550357927
 21
693.02244428604945
  0
LINE
  8
_6-0_
  6
CONTINUOUS
 62
    7
 10
279.67342550357927
 20
693.02244428604945
 11
279.67354791485087
 21
693.02097780793224
  0
LINE
  8
_6-0_
  6
CONTINUOUS
 62
    7
 10
279.67354791485087
 20
693.02097780793224
 11
279.67368823996713
 21
693.01929672326105
  0
LINE
  8
_6-0_
  6
CONTINUOUS
 62
    7
 10
279.67368823996713
 20
693.01929672326105
 11
279.67382856508334
 21
693.01761563858986
  0
LINE
  8
_6-0_
  6
CONTINUOUS
 62
    7
 10
279.67382856508334
 20
693.01761563858986
 11
279.67395097635494
 21
693.01614916047254
  0
LINE
  8
_6-0_
  6
CONTINUOUS
 62
    7
 10
279.67395097635494
 20
693.01614916047254
 11
279.67403755993735
 21
693.01511189546295
  0
LINE
  8
_6-0_
  6
CONTINUOUS
 62
    7
 10
279.67403755993735
 20
693.01511189546295
 11
279.67407040198577
 21
693.01471845011417
  0
LINE
  8
_6-0_
  6
CONTINUOUS
 62
    7
 10
277.28758135763542
 20
693.01471845011417
 11
277.58589248817907
 21
693.01471845011417
  0
LINE
  8
_6-0_
  6
CONTINUOUS
 62
    7
 10
277.58589248817907
 20
693.01471845011417
 11
277.88420361872284
 21
693.01471845011417
  0
LINE
  8
_6-0_
  6
CONTINUOUS
 62
    7
 10
277.88420361872284
 20
693.01471845011417
 11
278.1825147492666
 21
693.01471845011417
  0
LINE
  8
_6-0_
  6
CONTINUOUS
 62
    7
 10
278.1825147492666
 20
693.01471845011417
 11
278.48082587981048
 21
693.01471845011417
  0
LINE
  8
_6-0_
  6
CONTINUOUS
 62
    7
 10
278.48082587981048
 20
693.01471845011417
 11
278.7791370103543
 21
693.01471845011417
  0
LINE
  8
_6-0_
  6
CONTINUOUS
 62
    7
 10
278.7791370103543
 20
693.01471845011417
 11
279.07744814089813
 21
693.01471845011417
  0
LINE
  8
_6-0_
  6
CONTINUOUS
 62
    7
 10
279.07744814089813
 20
693.01471845011417
 11
279.37575927144195
 21
693.01471845011417
  0
LINE
  8
_6-0_
  6
CONTINUOUS
 62
    7
 10
279.37575927144195
 20
693.01471845011417
 11
279.67407040198566
 21
693.01471845011417
  0
LINE
  8
_6-0_
  6
CONTINUOUS
 62
    7
 10
276.50818608904842
 20
693.43152425752635
 11
276.64090563176342
 21
693.11323007594797
  0
LINE
  8
_6-0_
  6
CONTINUOUS
 62
    7
 10
276.64090563176342
 20
693.11323007594797
 11
276.64065448399617
 21
693.11346372360367
  0
LINE
  8
_6-0_
  6
CONTINUOUS
 62
    7
 10
276.64065448399617
 20
693.11346372360367
 11
276.63999236715517
 21
693.11407970378673
  0
LINE
  8
_6-0_
  6
CONTINUOUS
 62
    7
 10
276.63999236715517
 20
693.11407970378673
 11
276.63905627093175
 21
693.11495057232128
  0
LINE
  8
_6-0_
  6
CONTINUOUS
 62
    7
 10
276.63905627093175
 20
693.11495057232128
 11
276.63798318501699
 21
693.1159488850318
  0
LINE
  8
_6-0_
  6
CONTINUOUS
 62
    7
 10
276.63798318501699
 20
693.1159488850318
 11
276.63691009910229
 21
693.11694719774209
  0
LINE
  8
_6-0_
  6
CONTINUOUS
 62
    7
 10
276.63691009910229
 20
693.11694719774209
 11
276.63597400287881
 21
693.11781806627664
  0
LINE
  8
_6-0_
  6
CONTINUOUS
 62
    7
 10
276.63597400287881
 20
693.11781806627664
 11
276.63531188603781
 21
693.11843404645981
  0
LINE
  8
_6-0_
  6
CONTINUOUS
 62
    7
 10
276.63531188603781
 20
693.11843404645981
 11
276.63506073827057
 21
693.1186676941154
  0
LINE
  8
_6-0_
  6
CONTINUOUS
 62
    7
 10
276.63506073827057
 20
693.1186676941154
 11
276.6292899829524
 21
693.12422892850805
  0
LINE
  8
_6-0_
  6
CONTINUOUS
 62
    7
 10
276.6292899829524
 20
693.12422892850805
 11
276.62301106179478
 21
693.13069746485382
  0
LINE
  8
_6-0_
  6
CONTINUOUS
 62
    7
 10
276.62301106179478
 20
693.13069746485382
 11
276.61624750480877
 21
693.13812546556494
  0
LINE
  8
_6-0_
  6
CONTINUOUS
 62
    7
 10
276.61624750480877
 20
693.13812546556494
 11
276.60902284200552
 21
693.14656509305325
  0
LINE
  8
_6-0_
  6
CONTINUOUS
 62
    7
 10
276.60902284200552
 20
693.14656509305325
 11
276.60136060339607
 21
693.15606850973086
  0
LINE
  8
_6-0_
  6
CONTINUOUS
 62
    7
 10
276.60136060339607
 20
693.15606850973086
 11
276.59328431899155
 21
693.1666878780095
  0
LINE
  8
_6-0_
  6
CONTINUOUS
 62
    7
 10
276.59328431899155
 20
693.1666878780095
 11
276.58481751880311
 21
693.17847536030126
  0
LINE
  8
_6-0_
  6
CONTINUOUS
 62
    7
 10
276.58481751880311
 20
693.17847536030126
 11
276.57598373284168
 21
693.19148311901813
  0
LINE
  8
_6-0_
  6
CONTINUOUS
 62
    7
 10
276.57598373284168
 20
693.19148311901813
 11
276.56609321329705
 21
693.20764416818736
  0
LINE
  8
_6-0_
  6
CONTINUOUS
 62
    7
 10
276.56609321329705
 20
693.20764416818736
 11
276.55661208109791
 21
693.22547247257262
  0
LINE
  8
_6-0_
  6
CONTINUOUS
 62
    7
 10
276.55661208109791
 20
693.22547247257262
 11
276.54767009980742
 21
693.24462502494748
  0
LINE
  8
_6-0_
  6
CONTINUOUS
 62
    7
 10
276.54767009980742
 20
693.24462502494748
 11
276.53939703298869
 21
693.26475881808506
  0
LINE
  8
_6-0_
  6
CONTINUOUS
 62
    7
 10
276.53939703298869
 20
693.26475881808506
 11
276.53192264420466
 21
693.285530844758
  0
LINE
  8
_6-0_
  6
CONTINUOUS
 62
    7
 10
276.53192264420466
 20
693.285530844758
 11
276.5253766970186
 21
693.30659809773977
  0
LINE
  8
_6-0_
  6
CONTINUOUS
 62
    7
 10
276.5253766970186
 20
693.30659809773977
 11
276.51988895499346
 21
693.32761756980335
  0
LINE
  8
_6-0_
  6
CONTINUOUS
 62
    7
 10
276.51988895499346
 20
693.32761756980335
 11
276.51558918169235
 21
693.34824625372175
  0
LINE
  8
_6-0_
  6
CONTINUOUS
 62
    7
 10
276.51558918169235
 20
693.34824625372175
 11
276.51328650531855
 21
693.36142123399577
  0
LINE
  8
_6-0_
  6
CONTINUOUS
 62
    7
 10
276.51328650531855
 20
693.36142123399577
 11
276.51151633864941
 21
693.37246655099034
  0
LINE
  8
_6-0_
  6
CONTINUOUS
 62
    7
 10
276.51151633864941
 20
693.37246655099034
 11
276.51020918251743
 21
693.38180397104009
  0
LINE
  8
_6-0_
  6
CONTINUOUS
 62
    7
 10
276.51020918251743
 20
693.38180397104009
 11
276.50929553775495
 21
693.38985526047964
  0
LINE
  8
_6-0_
  6
CONTINUOUS
 62
    7
 10
276.50929553775495
 20
693.38985526047964
 11
276.50870590519446
 21
693.3970421856435
  0
LINE
  8
_6-0_
  6
CONTINUOUS
 62
    7
 10
276.50870590519446
 20
693.3970421856435
 11
276.50837078566826
 21
693.40378651286653
  0
LINE
  8
_6-0_
  6
CONTINUOUS
 62
    7
 10
276.50837078566826
 20
693.40378651286653
 11
276.50822068000878
 21
693.41051000848302
  0
LINE
  8
_6-0_
  6
CONTINUOUS
 62
    7
 10
276.50822068000878
 20
693.41051000848302
 11
276.50818608904842
 21
693.41763443882769
  0
LINE
  8
_6-0_
  6
CONTINUOUS
 62
    7
 10
276.50818608904842
 20
693.41763443882769
 11
276.50818608904842
 21
693.41823126697489
  0
LINE
  8
_6-0_
  6
CONTINUOUS
 62
    7
 10
276.50818608904842
 20
693.41823126697489
 11
276.50818608904842
 21
693.41980472299929
  0
LINE
  8
_6-0_
  6
CONTINUOUS
 62
    7
 10
276.50818608904842
 20
693.41980472299929
 11
276.50818608904842
 21
693.42202926427535
  0
LINE
  8
_6-0_
  6
CONTINUOUS
 62
    7
 10
276.50818608904842
 20
693.42202926427535
 11
276.50818608904842
 21
693.42457934817708
  0
LINE
  8
_6-0_
  6
CONTINUOUS
 62
    7
 10
276.50818608904842
 20
693.42457934817708
 11
276.50818608904842
 21
693.42712943207869
  0
LINE
  8
_6-0_
  6
CONTINUOUS
 62
    7
 10
276.50818608904842
 20
693.42712943207869
 11
276.50818608904842
 21
693.42935397335452
  0
LINE
  8
_6-0_
  6
CONTINUOUS
 62
    7
 10
276.50818608904842
 20
693.42935397335452
 11
276.50818608904842
 21
693.43092742937915
  0
LINE
  8
_6-0_
  6
CONTINUOUS
 62
    7
 10
276.50818608904842
 20
693.43092742937915
 11
276.50818608904842
 21
693.43152425752635
  0
LINE
  8
_6-0_
  6
CONTINUOUS
 62
    7
 10
279.54359924250537
 20
694.50589607831603
 11
279.54359924250537
 21
694.50576685914484
  0
LINE
  8
_6-0_
  6
CONTINUOUS
 62
    7
 10
279.54359924250537
 20
694.50576685914484
 11
279.54359924250537
 21
694.50542619042062
  0
LINE
  8
_6-0_
  6
CONTINUOUS
 62
    7
 10
279.54359924250537
 20
694.50542619042062
 11
279.54359924250537
 21
694.50494455532771
  0
LINE
  8
_6-0_
  6
CONTINUOUS
 62
    7
 10
279.54359924250537
 20
694.50494455532771
 11
279.54359924250537
 21
694.50439243705068
  0
LINE
  8
_6-0_
  6
CONTINUOUS
 62
    7
 10
279.54359924250537
 20
694.50439243705068
 11
279.54359924250537
 21
694.50384031877343
  0
LINE
  8
_6-0_
  6
CONTINUOUS
 62
    7
 10
279.54359924250537
 20
694.50384031877343
 11
279.54359924250537
 21
694.50335868368052
  0
LINE
  8
_6-0_
  6
CONTINUOUS
 62
    7
 10
279.54359924250537
 20
694.50335868368052
 11
279.54359924250537
 21
694.50301801495641
  0
LINE
  8
_6-0_
  6
CONTINUOUS
 62
    7
 10
279.54359924250537
 20
694.50301801495641
 11
279.54359924250537
 21
694.50288879578511
  0
LINE
  8
_6-0_
  6
CONTINUOUS
 62
    7
 10
279.54359924250537
 20
694.50288879578511
 11
279.54359924250537
 21
694.45862347773163
  0
LINE
  8
_6-0_
  6
CONTINUOUS
 62
    7
 10
279.54359924250537
 20
694.45862347773163
 11
279.54359924250537
 21
694.34192400286304
  0
LINE
  8
_6-0_
  6
CONTINUOUS
 62
    7
 10
279.54359924250537
 20
694.34192400286304
 11
279.54359924250537
 21
694.17693509011792
  0
LINE
  8
_6-0_
  6
CONTINUOUS
 62
    7
 10
279.54359924250537
 20
694.17693509011792
 11
279.54359924250537
 21
693.98780145843466
  0
LINE
  8
_6-0_
  6
CONTINUOUS
 62
    7
 10
279.54359924250537
 20
693.98780145843466
 11
279.54359924250537
 21
693.79866782675117
  0
LINE
  8
_6-0_
  6
CONTINUOUS
 62
    7
 10
279.54359924250537
 20
693.79866782675117
 11
279.54359924250537
 21
693.63367891400617
  0
LINE
  8
_6-0_
  6
CONTINUOUS
 62
    7
 10
279.54359924250537
 20
693.63367891400617
 11
279.54359924250537
 21
693.51697943913769
  0
LINE
  8
_6-0_
  6
CONTINUOUS
 62
    7
 10
279.54359924250537
 20
693.51697943913769
 11
279.54359924250537
 21
693.4727141210841
  0
LINE
  8
_6-0_
  6
CONTINUOUS
 62
    7
 10
279.54359924250537
 20
693.4727141210841
 11
279.54359924250537
 21
693.47093987123162
  0
LINE
  8
_6-0_
  6
CONTINUOUS
 62
    7
 10
279.54359924250537
 20
693.47093987123162
 11
279.54359924250537
 21
693.46626230343861
  0
LINE
  8
_6-0_
  6
CONTINUOUS
 62
    7
 10
279.54359924250537
 20
693.46626230343861
 11
279.54359924250537
 21
693.45964919035214
  0
LINE
  8
_6-0_
  6
CONTINUOUS
 62
    7
 10
279.54359924250537
 20
693.45964919035214
 11
279.54359924250537
 21
693.45206830461871
  0
LINE
  8
_6-0_
  6
CONTINUOUS
 62
    7
 10
279.54359924250537
 20
693.45206830461871
 11
279.54359924250537
 21
693.44448741888527
  0
LINE
  8
_6-0_
  6
CONTINUOUS
 62
    7
 10
279.54359924250537
 20
693.44448741888527
 11
279.54359924250537
 21
693.43787430579869
  0
LINE
  8
_6-0_
  6
CONTINUOUS
 62
    7
 10
279.54359924250537
 20
693.43787430579869
 11
279.54359924250537
 21
693.43319673800579
  0
LINE
  8
_6-0_
  6
CONTINUOUS
 62
    7
 10
279.54359924250537
 20
693.43319673800579
 11
279.54359924250537
 21
693.4314224881532
  0
LINE
  8
_6-0_
  6
CONTINUOUS
 62
    7
 10
276.50818608904842
 20
694.50589634483458
 11
276.50818608904842
 21
694.505735062432
  0
LINE
  8
_6-0_
  6
CONTINUOUS
 62
    7
 10
276.50818608904842
 20
694.505735062432
 11
276.50818608904842
 21
694.50530986337014
  0
LINE
  8
_6-0_
  6
CONTINUOUS
 62
    7
 10
276.50818608904842
 20
694.50530986337014
 11
276.50818608904842
 21
694.50470871986909
  0
LINE
  8
_6-0_
  6
CONTINUOUS
 62
    7
 10
276.50818608904842
 20
694.50470871986909
 11
276.50818608904842
 21
694.50401960414843
  0
LINE
  8
_6-0_
  6
CONTINUOUS
 62
    7
 10
276.50818608904842
 20
694.50401960414843
 11
276.50818608904842
 21
694.50333048842765
  0
LINE
  8
_6-0_
  6
CONTINUOUS
 62
    7
 10
276.50818608904842
 20
694.50333048842765
 11
276.50818608904842
 21
694.50272934492659
  0
LINE
  8
_6-0_
  6
CONTINUOUS
 62
    7
 10
276.50818608904842
 20
694.50272934492659
 11
276.50818608904842
 21
694.50230414586474
  0
LINE
  8
_6-0_
  6
CONTINUOUS
 62
    7
 10
276.50818608904842
 20
694.50230414586474
 11
276.50818608904842
 21
694.50214286346204
  0
LINE
  8
_6-0_
  6
CONTINUOUS
 62
    7
 10
276.50818608904842
 20
694.50214286346204
 11
276.50818608904842
 21
694.4579125015656
  0
LINE
  8
_6-0_
  6
CONTINUOUS
 62
    7
 10
276.50818608904842
 20
694.4579125015656
 11
276.50818608904842
 21
694.34130518383927
  0
LINE
  8
_6-0_
  6
CONTINUOUS
 62
    7
 10
276.50818608904842
 20
694.34130518383927
 11
276.50818608904842
 21
694.17644656222581
  0
LINE
  8
_6-0_
  6
CONTINUOUS
 62
    7
 10
276.50818608904842
 20
694.17644656222581
 11
276.50818608904842
 21
693.98746228866901
  0
LINE
  8
_6-0_
  6
CONTINUOUS
 62
    7
 10
276.50818608904842
 20
693.98746228866901
 11
276.50818608904842
 21
693.7984780151121
  0
LINE
  8
_6-0_
  6
CONTINUOUS
 62
    7
 10
276.50818608904842
 20
693.7984780151121
 11
276.50818608904842
 21
693.63361939349875
  0
LINE
  8
_6-0_
  6
CONTINUOUS
 62
    7
 10
276.50818608904842
 20
693.63361939349875
 11
276.50818608904842
 21
693.51701207577219
  0
LINE
  8
_6-0_
  6
CONTINUOUS
 62
    7
 10
276.50818608904842
 20
693.51701207577219
 11
276.50818608904842
 21
693.47278171387586
  0
LINE
  8
_6-0_
  6
CONTINUOUS
 62
    7
 10
276.50818608904842
 20
693.47278171387586
 11
276.50818608904842
 21
693.47100893688616
  0
LINE
  8
_6-0_
  6
CONTINUOUS
 62
    7
 10
276.50818608904842
 20
693.47100893688616
 11
276.50818608904842
 21
693.46633525209518
  0
LINE
  8
_6-0_
  6
CONTINUOUS
 62
    7
 10
276.50818608904842
 20
693.46633525209518
 11
276.50818608904842
 21
693.45972762876977
  0
LINE
  8
_6-0_
  6
CONTINUOUS
 62
    7
 10
276.50818608904842
 20
693.45972762876977
 11
276.50818608904842
 21
693.45215303617749
  0
LINE
  8
_6-0_
  6
CONTINUOUS
 62
    7
 10
276.50818608904842
 20
693.45215303617749
 11
276.50818608904842
 21
693.44457844358499
  0
LINE
  8
_6-0_
  6
CONTINUOUS
 62
    7
 10
276.50818608904842
 20
693.44457844358499
 11
276.50818608904842
 21
693.43797082025969
  0
LINE
  8
_6-0_
  6
CONTINUOUS
 62
    7
 10
276.50818608904842
 20
693.43797082025969
 11
276.50818608904842
 21
693.43329713546859
  0
LINE
  8
_6-0_
  6
CONTINUOUS
 62
    7
 10
276.50818608904842
 20
693.43329713546859
 11
276.50818608904842
 21
693.43152435847878
  0
LINE
  8
_6-0_
  6
CONTINUOUS
 62
    7
 10
278.16990440536347
 20
694.26366243405641
 11
278.16983760535277
 21
694.26353411242985
  0
LINE
  8
_6-0_
  6
CONTINUOUS
 62
    7
 10
278.16983760535277
 20
694.26353411242985
 11
278.16966149623386
 21
694.26319580995983
  0
LINE
  8
_6-0_
  6
CONTINUOUS
 62
    7
 10
278.16966149623386
 20
694.26319580995983
 11
278.16941251437589
 21
694.26271752026082
  0
LINE
  8
_6-0_
  6
CONTINUOUS
 62
    7
 10
278.16941251437589
 20
694.26271752026082
 11
278.16912709614854
 21
694.26216923694733
  0
LINE
  8
_6-0_
  6
CONTINUOUS
 62
    7
 10
278.16912709614854
 20
694.26216923694733
 11
278.16884167792125
 21
694.26162095363395
  0
LINE
  8
_6-0_
  6
CONTINUOUS
 62
    7
 10
278.16884167792125
 20
694.26162095363395
 11
278.16859269606334
 21
694.26114266393495
  0
LINE
  8
_6-0_
  6
CONTINUOUS
 62
    7
 10
278.16859269606334
 20
694.26114266393495
 11
278.16841658694437
 21
694.26080436146492
  0
LINE
  8
_6-0_
  6
CONTINUOUS
 62
    7
 10
278.16841658694437
 20
694.26080436146492
 11
278.16834978693373
 21
694.26067603983847
  0
LINE
  8
_6-0_
  6
CONTINUOUS
 62
    7
 10
278.16834978693373
 20
694.26067603983847
 11
278.1465434917601
 21
694.21878653655449
  0
LINE
  8
_6-0_
  6
CONTINUOUS
 62
    7
 10
278.1465434917601
 20
694.21878653655449
 11
278.08905416812075
 21
694.10835057335157
  0
LINE
  8
_6-0_
  6
CONTINUOUS
 62
    7
 10
278.08905416812075
 20
694.10835057335157
 11
278.00777615883737
 21
693.95221697020258
  0
LINE
  8
_6-0_
  6
CONTINUOUS
 62
    7
 10
278.00777615883737
 20
693.95221697020258
 11
277.91460380673215
 21
693.77323454708051
  0
LINE
  8
_6-0_
  6
CONTINUOUS
 62
    7
 10
277.91460380673215
 20
693.77323454708051
 11
277.82143145462692
 21
693.59425212395854
  0
LINE
  8
_6-0_
  6
CONTINUOUS
 62
    7
 10
277.82143145462692
 20
693.59425212395854
 11
277.74015344534359
 21
693.43811852080933
  0
LINE
  8
_6-0_
  6
CONTINUOUS
 62
    7
 10
277.74015344534359
 20
693.43811852080933
 11
277.68266412170419
 21
693.32768255760641
  0
LINE
  8
_6-0_
  6
CONTINUOUS
 62
    7
 10
277.68266412170419
 20
693.32768255760641
 11
277.66085782653056
 21
693.28579305432243
  0
LINE
  8
_6-0_
  6
CONTINUOUS
 62
    7
 10
277.66085782653056
 20
693.28579305432243
 11
277.66005052194191
 21
693.28424223663649
  0
LINE
  8
_6-0_
  6
CONTINUOUS
 62
    7
 10
277.66005052194191
 20
693.28424223663649
 11
277.6579221734807
 21
693.2801537172827
  0
LINE
  8
_6-0_
  6
CONTINUOUS
 62
    7
 10
277.6579221734807
 20
693.2801537172827
 11
277.65491312910461
 21
693.27437339681694
  0
LINE
  8
_6-0_
  6
CONTINUOUS
 62
    7
 10
277.65491312910461
 20
693.27437339681694
 11
277.65146373677106
 21
693.26774717579519
  0
LINE
  8
_6-0_
  6
CONTINUOUS
 62
    7
 10
277.65146373677106
 20
693.26774717579519
 11
277.64801434443746
 21
693.26112095477356
  0
LINE
  8
_6-0_
  6
CONTINUOUS
 62
    7
 10
277.64801434443746
 20
693.26112095477356
 11
277.64500530006137
 21
693.25534063430769
  0
LINE
  8
_6-0_
  6
CONTINUOUS
 62
    7
 10
277.64500530006137
 20
693.25534063430769
 11
277.64287695160021
 21
693.2512521149539
  0
LINE
  8
_6-0_
  6
CONTINUOUS
 62
    7
 10
277.64287695160021
 20
693.2512521149539
 11
277.64206964701151
 21
693.24970129726807
  0
LINE
  8
_6-0_
  6
CONTINUOUS
 62
    7
 10
280.67773326805502
 20
690.76583309013995
 11
280.70532266551675
 21
690.71283435072223
  0
LINE
  8
_6-0_
  6
CONTINUOUS
 62
    7
 10
280.70532266551675
 20
690.71283435072223
 11
280.73274723572729
 21
690.66015224150783
  0
LINE
  8
_6-0_
  6
CONTINUOUS
 62
    7
 10
280.73274723572729
 20
690.66015224150783
 11
280.76036128853929
 21
690.60710613960271
  0
LINE
  8
_6-0_
  6
CONTINUOUS
 62
    7
 10
280.76036128853929
 20
690.60710613960271
 11
280.78851913380527
 21
690.55301542211282
  0
LINE
  8
_6-0_
  6
CONTINUOUS
 62
    7
 10
280.78851913380527
 20
690.55301542211282
 11
280.81757508137747
 21
690.49719946614437
  0
LINE
  8
_6-0_
  6
CONTINUOUS
 62
    7
 10
280.81757508137747
 20
690.49719946614437
 11
280.84788344110859
 21
690.43897764880296
  0
LINE
  8
_6-0_
  6
CONTINUOUS
 62
    7
 10
280.84788344110859
 20
690.43897764880296
 11
280.87979852285116
 21
690.3776693471948
  0
LINE
  8
_6-0_
  6
CONTINUOUS
 62
    7
 10
280.87979852285116
 20
690.3776693471948
 11
280.91367463645747
 21
690.31259393842583
  0
LINE
  8
_6-0_
  6
CONTINUOUS
 62
    7
 10
280.91367463645747
 20
690.31259393842583
 11
280.92583504220693
 21
690.2892340163246
  0
LINE
  8
_6-0_
  6
CONTINUOUS
 62
    7
 10
280.92583504220693
 20
690.2892340163246
 11
280.93977390506865
 21
690.26245770989681
  0
LINE
  8
_6-0_
  6
CONTINUOUS
 62
    7
 10
280.93977390506865
 20
690.26245770989681
 11
280.95484254418886
 21
690.23351112346916
  0
LINE
  8
_6-0_
  6
CONTINUOUS
 62
    7
 10
280.95484254418886
 20
690.23351112346916
 11
280.97039227871335
 21
690.20364036136834
  0
LINE
  8
_6-0_
  6
CONTINUOUS
 62
    7
 10
280.97039227871335
 20
690.20364036136834
 11
280.98577442778833
 21
690.17409152792095
  0
LINE
  8
_6-0_
  6
CONTINUOUS
 62
    7
 10
280.98577442778833
 20
690.17409152792095
 11
281.00034031055975
 21
690.14611072745356
  0
LINE
  8
_6-0_
  6
CONTINUOUS
 62
    7
 10
281.00034031055975
 20
690.14611072745356
 11
281.01344124617367
 21
690.12094406429253
  0
LINE
  8
_6-0_
  6
CONTINUOUS
 62
    7
 10
281.01344124617367
 20
690.12094406429253
 11
281.02442855377615
 21
690.09983764276467
  0
LINE
  8
_6-0_
  6
CONTINUOUS
 62
    7
 10
281.02442855377615
 20
690.09983764276467
 11
281.04967609188947
 21
690.05133757329895
  0
LINE
  8
_6-0_
  6
CONTINUOUS
 62
    7
 10
281.04967609188947
 20
690.05133757329895
 11
281.07207624783359
 21
690.00830727408902
  0
LINE
  8
_6-0_
  6
CONTINUOUS
 62
    7
 10
281.07207624783359
 20
690.00830727408902
 11
281.09196729406119
 21
689.97009692979896
  0
LINE
  8
_6-0_
  6
CONTINUOUS
 62
    7
 10
281.09196729406119
 20
689.97009692979896
 11
281.10968750302516
 21
689.93605672509307
  0
LINE
  8
_6-0_
  6
CONTINUOUS
 62
    7
 10
281.10968750302516
 20
689.93605672509307
 11
281.12557514717815
 21
689.90553684463544
  0
LINE
  8
_6-0_
  6
CONTINUOUS
 62
    7
 10
281.12557514717815
 20
689.90553684463544
 11
281.13996849897285
 21
689.87788747309071
  0
LINE
  8
_6-0_
  6
CONTINUOUS
 62
    7
 10
281.13996849897285
 20
689.87788747309071
 11
281.15320583086196
 21
689.85245879512286
  0
LINE
  8
_6-0_
  6
CONTINUOUS
 62
    7
 10
281.15320583086196
 20
689.85245879512286
 11
281.16562541529817
 21
689.82860099539653
  0
LINE
  8
_6-0_
  6
CONTINUOUS
 62
    7
 10
281.16562541529817
 20
689.82860099539653
 11
281.16795363160418
 21
689.82412853348501
  0
LINE
  8
_6-0_
  6
CONTINUOUS
 62
    7
 10
281.16795363160418
 20
689.82412853348501
 11
281.17055885257884
 21
689.81912395055588
  0
LINE
  8
_6-0_
  6
CONTINUOUS
 62
    7
 10
281.17055885257884
 20
689.81912395055588
 11
281.17332434812022
 21
689.81381148304877
  0
LINE
  8
_6-0_
  6
CONTINUOUS
 62
    7
 10
281.17332434812022
 20
689.81381148304877
 11
281.17613338812623
 21
689.80841536740309
  0
LINE
  8
_6-0_
  6
CONTINUOUS
 62
    7
 10
281.17613338812623
 20
689.80841536740309
 11
281.17886924249501
 21
689.8031598400587
  0
LINE
  8
_6-0_
  6
CONTINUOUS
 62
    7
 10
281.17886924249501
 20
689.8031598400587
 11
281.18141518112452
 21
689.79826913745501
  0
LINE
  8
_6-0_
  6
CONTINUOUS
 62
    7
 10
281.18141518112452
 20
689.79826913745501
 11
281.1836544739129
 21
689.79396749603154
  0
LINE
  8
_6-0_
  6
CONTINUOUS
 62
    7
 10
281.1836544739129
 20
689.79396749603154
 11
281.18547039075804
 21
689.79047915222793
  0
LINE
  8
_6-0_
  6
CONTINUOUS
 62
    7
 10
281.18547039075804
 20
689.79047915222793
 11
281.18890110863333
 21
689.78388880450689
  0
LINE
  8
_6-0_
  6
CONTINUOUS
 62
    7
 10
281.18890110863333
 20
689.78388880450689
 11
281.19173698806316
 21
689.77844113080801
  0
LINE
  8
_6-0_
  6
CONTINUOUS
 62
    7
 10
281.19173698806316
 20
689.77844113080801
 11
281.19403073227727
 21
689.77403488916877
  0
LINE
  8
_6-0_
  6
CONTINUOUS
 62
    7
 10
281.19403073227727
 20
689.77403488916877
 11
281.1958350445056
 21
689.77056883762668
  0
LINE
  8
_6-0_
  6
CONTINUOUS
 62
    7
 10
281.1958350445056
 20
689.77056883762668
 11
281.19720262797779
 21
689.76794173421945
  0
LINE
  8
_6-0_
  6
CONTINUOUS
 62
    7
 10
281.19720262797779
 20
689.76794173421945
 11
281.19818618592353
 21
689.76605233698479
  0
LINE
  8
_6-0_
  6
CONTINUOUS
 62
    7
 10
281.19818618592353
 20
689.76605233698479
 11
281.1988384215727
 21
689.76479940396018
  0
LINE
  8
_6-0_
  6
CONTINUOUS
 62
    7
 10
281.1988384215727
 20
689.76479940396018
 11
281.19921203815511
 21
689.76408169318324
  0
LINE
  8
_6-0_
  6
CONTINUOUS
 62
    7
 10
277.64206964701151
 20
690.76631423389722
 11
277.6699595308969
 21
690.71273826543006
  0
LINE
  8
_6-0_
  6
CONTINUOUS
 62
    7
 10
277.6699595308969
 20
690.71273826543006
 11
277.69768645299428
 21
690.65947534364477
  0
LINE
  8
_6-0_
  6
CONTINUOUS
 62
    7
 10
277.69768645299428
 20
690.65947534364477
 11
277.72560906485154
 21
690.60583650532885
  0
LINE
  8
_6-0_
  6
CONTINUOUS
 62
    7
 10
277.72560906485154
 20
690.60583650532885
 11
277.75408601801621
 21
690.5511327872689
  0
LINE
  8
_6-0_
  6
CONTINUOUS
 62
    7
 10
277.75408601801621
 20
690.5511327872689
 11
277.78347596403626
 21
690.49467522625173
  0
LINE
  8
_6-0_
  6
CONTINUOUS
 62
    7
 10
277.78347596403626
 20
690.49467522625173
 11
277.81413755445931
 21
690.43577485906462
  0
LINE
  8
_6-0_
  6
CONTINUOUS
 62
    7
 10
277.81413755445931
 20
690.43577485906462
 11
277.84642944083311
 21
690.3737427224944
  0
LINE
  8
_6-0_
  6
CONTINUOUS
 62
    7
 10
277.84642944083311
 20
690.3737427224944
 11
277.88071027470539
 21
690.30788985332811
  0
LINE
  8
_6-0_
  6
CONTINUOUS
 62
    7
 10
277.88071027470539
 20
690.30788985332811
 11
277.89302275728204
 21
690.28423779435968
  0
LINE
  8
_6-0_
  6
CONTINUOUS
 62
    7
 10
277.89302275728204
 20
690.28423779435968
 11
277.90713795355288
 21
690.25712275460467
  0
LINE
  8
_6-0_
  6
CONTINUOUS
 62
    7
 10
277.90713795355288
 20
690.25712275460467
 11
277.92239901676305
 21
690.2278065249393
  0
LINE
  8
_6-0_
  6
CONTINUOUS
 62
    7
 10
277.92239901676305
 20
690.2278065249393
 11
277.93814910015777
 21
690.1975508962397
  0
LINE
  8
_6-0_
  6
CONTINUOUS
 62
    7
 10
277.93814910015777
 20
690.1975508962397
 11
277.95373135698213
 21
690.16761765938224
  0
LINE
  8
_6-0_
  6
CONTINUOUS
 62
    7
 10
277.95373135698213
 20
690.16761765938224
 11
277.96848894048134
 21
690.13926860524293
  0
LINE
  8
_6-0_
  6
CONTINUOUS
 62
    7
 10
277.96848894048134
 20
690.13926860524293
 11
277.98176500390059
 21
690.11376552469812
  0
LINE
  8
_6-0_
  6
CONTINUOUS
 62
    7
 10
277.98176500390059
 20
690.11376552469812
 11
277.99290270048493
 21
690.09237020862383
  0
LINE
  8
_6-0_
  6
CONTINUOUS
 62
    7
 10
277.99290270048493
 20
690.09237020862383
 11
278.01848682156231
 21
690.04322356930004
  0
LINE
  8
_6-0_
  6
CONTINUOUS
 62
    7
 10
278.01848682156231
 20
690.04322356930004
 11
278.04118997651466
 21
689.99961121441083
  0
LINE
  8
_6-0_
  6
CONTINUOUS
 62
    7
 10
278.04118997651466
 20
689.99961121441083
 11
278.06135462872709
 21
689.96087527791406
  0
LINE
  8
_6-0_
  6
CONTINUOUS
 62
    7
 10
278.06135462872709
 20
689.96087527791406
 11
278.07932324158514
 21
689.9263578937672
  0
LINE
  8
_6-0_
  6
CONTINUOUS
 62
    7
 10
278.07932324158514
 20
689.9263578937672
 11
278.09543827847398
 21
689.89540119592834
  0
LINE
  8
_6-0_
  6
CONTINUOUS
 62
    7
 10
278.09543827847398
 20
689.89540119592834
 11
278.11004220277903
 21
689.86734731835463
  0
LINE
  8
_6-0_
  6
CONTINUOUS
 62
    7
 10
278.11004220277903
 20
689.86734731835463
 11
278.1234774778855
 21
689.84153839500436
  0
LINE
  8
_6-0_
  6
CONTINUOUS
 62
    7
 10
278.1234774778855
 20
689.84153839500436
 11
278.13608656717872
 21
689.81731655983458
  0
LINE
  8
_6-0_
  6
CONTINUOUS
 62
    7
 10
278.13608656717872
 20
689.81731655983458
 11
278.13845145824178
 21
689.81277364637037
  0
LINE
  8
_6-0_
  6
CONTINUOUS
 62
    7
 10
278.13845145824178
 20
689.81277364637037
 11
278.1410977361665
 21
689.80769019377374
  0
LINE
  8
_6-0_
  6
CONTINUOUS
 62
    7
 10
278.1410977361665
 20
689.80769019377374
 11
278.14390667231169
 21
689.802294277643
  0
LINE
  8
_6-0_
  6
CONTINUOUS
 62
    7
 10
278.14390667231169
 20
689.802294277643
 11
278.14675953803578
 21
689.79681397357638
  0
LINE
  8
_6-0_
  6
CONTINUOUS
 62
    7
 10
278.14675953803578
 20
689.79681397357638
 11
278.1495376046974
 21
689.79147735717197
  0
LINE
  8
_6-0_
  6
CONTINUOUS
 62
    7
 10
278.1495376046974
 20
689.79147735717197
 11
278.15212214365511
 21
689.78651250402777
  0
LINE
  8
_6-0_
  6
CONTINUOUS
 62
    7
 10
278.15212214365511
 20
689.78651250402777
 11
278.15439442626746
 21
689.78214748974199
  0
LINE
  8
_6-0_
  6
CONTINUOUS
 62
    7
 10
278.15439442626746
 20
689.78214748974199
 11
278.15623572389302
 21
689.77861038991307
  0
LINE
  8
_6-0_
  6
CONTINUOUS
 62
    7
 10
278.15623572389302
 20
689.77861038991307
 11
278.15971837185805
 21
689.77192028541754
  0
LINE
  8
_6-0_
  6
CONTINUOUS
 62
    7
 10
278.15971837185805
 20
689.77192028541754
 11
278.16259813590148
 21
689.76638831015998
  0
LINE
  8
_6-0_
  6
CONTINUOUS
 62
    7
 10
278.16259813590148
 20
689.76638831015998
 11
278.16492806490987
 21
689.7619125581781
  0
LINE
  8
_6-0_
  6
CONTINUOUS
 62
    7
 10
278.16492806490987
 20
689.7619125581781
 11
278.16676120776958
 21
689.75839112350832
  0
LINE
  8
_6-0_
  6
CONTINUOUS
 62
    7
 10
278.16676120776958
 20
689.75839112350832
 11
278.16815061336735
 21
689.75572210018777
  0
LINE
  8
_6-0_
  6
CONTINUOUS
 62
    7
 10
278.16815061336735
 20
689.75572210018777
 11
278.16914933058968
 21
689.75380358225379
  0
LINE
  8
_6-0_
  6
CONTINUOUS
 62
    7
 10
278.16914933058968
 20
689.75380358225379
 11
278.1698104083232
 21
689.75253366374318
  0
LINE
  8
_6-0_
  6
CONTINUOUS
 62
    7
 10
278.1698104083232
 20
689.75253366374318
 11
278.17018689545432
 21
689.75181043869327
  0
LINE
  8
_6-0_
  6
CONTINUOUS
 62
    7
 10
277.64206964516632
 20
690.76631423744186
 11
277.28758135763542
 21
691.00129708105101
  0
LINE
  8
_6-0_
  6
CONTINUOUS
 62
    7
 10
277.28758135763542
 20
691.00129708105101
 11
277.29543512876916
 21
691.00119975606788
  0
LINE
  8
_6-0_
  6
CONTINUOUS
 62
    7
 10
277.29543512876916
 20
691.00119975606788
 11
277.3034792921066
 21
691.00088127395907
  0
LINE
  8
_6-0_
  6
CONTINUOUS
 62
    7
 10
277.3034792921066
 20
691.00088127395907
 11
277.31194904254784
 21
691.00030187398602
  0
LINE
  8
_6-0_
  6
CONTINUOUS
 62
    7
 10
277.31194904254784
 20
691.00030187398602
 11
277.32107957499323
 21
690.99942179541017
  0
LINE
  8
_6-0_
  6
CONTINUOUS
 62
    7
 10
277.32107957499323
 20
690.99942179541017
 11
277.33110608434288
 21
690.99820127749297
  0
LINE
  8
_6-0_
  6
CONTINUOUS
 62
    7
 10
277.33110608434288
 20
690.99820127749297
 11
277.34226376549691
 21
690.99660055949562
  0
LINE
  8
_6-0_
  6
CONTINUOUS
 62
    7
 10
277.34226376549691
 20
690.99660055949562
 11
277.35478781335564
 21
690.99457988067968
  0
LINE
  8
_6-0_
  6
CONTINUOUS
 62
    7
 10
277.35478781335564
 20
690.99457988067968
 11
277.36891342281922
 21
690.99209948030636
  0
LINE
  8
_6-0_
  6
CONTINUOUS
 62
    7
 10
277.36891342281922
 20
690.99209948030636
 11
277.37709870471093
 21
690.98971029026359
  0
LINE
  8
_6-0_
  6
CONTINUOUS
 62
    7
 10
277.37709870471093
 20
690.98971029026359
 11
277.38651537539937
 21
690.98671215118827
  0
LINE
  8
_6-0_
  6
CONTINUOUS
 62
    7
 10
277.38651537539937
 20
690.98671215118827
 11
277.39672234754892
 21
690.98326531386215
  0
LINE
  8
_6-0_
  6
CONTINUOUS
 62
    7
 10
277.39672234754892
 20
690.98326531386215
 11
277.40727853382407
 21
690.97953002906763
  0
LINE
  8
_6-0_
  6
CONTINUOUS
 62
    7
 10
277.40727853382407
 20
690.97953002906763
 11
277.41774284688927
 21
690.97566654758589
  0
LINE
  8
_6-0_
  6
CONTINUOUS
 62
    7
 10
277.41774284688927
 20
690.97566654758589
 11
277.42767419940913
 21
690.9718351201991
  0
LINE
  8
_6-0_
  6
CONTINUOUS
 62
    7
 10
277.42767419940913
 20
690.9718351201991
 11
277.43663150404785
 21
690.96819599768889
  0
LINE
  8
_6-0_
  6
CONTINUOUS
 62
    7
 10
277.43663150404785
 20
690.96819599768889
 11
277.44417367347012
 21
690.96490943083722
  0
LINE
  8
_6-0_
  6
CONTINUOUS
 62
    7
 10
277.44417367347012
 20
690.96490943083722
 11
277.45613833164452
 21
690.95828293793829
  0
LINE
  8
_6-0_
  6
CONTINUOUS
 62
    7
 10
277.45613833164452
 20
690.95828293793829
 11
277.46680067270154
 21
690.95218415761792
  0
LINE
  8
_6-0_
  6
CONTINUOUS
 62
    7
 10
277.46680067270154
 20
690.95218415761792
 11
277.47652998961257
 21
690.94638014224847
  0
LINE
  8
_6-0_
  6
CONTINUOUS
 62
    7
 10
277.47652998961257
 20
690.94638014224847
 11
277.48569557534898
 21
690.94063794420106
  0
LINE
  8
_6-0_
  6
CONTINUOUS
 62
    7
 10
277.48569557534898
 20
690.94063794420106
 11
277.4946667228823
 21
690.93472461584781
  0
LINE
  8
_6-0_
  6
CONTINUOUS
 62
    7
 10
277.4946667228823
 20
690.93472461584781
 11
277.50381272518388
 21
690.92840720956019
  0
LINE
  8
_6-0_
  6
CONTINUOUS
 62
    7
 10
277.50381272518388
 20
690.92840720956019
 11
277.51350287522519
 21
690.9214527777101
  0
LINE
  8
_6-0_
  6
CONTINUOUS
 62
    7
 10
277.51350287522519
 20
690.9214527777101
 11
277.52410646597764
 21
690.91362837266934
  0
LINE
  8
_6-0_
  6
CONTINUOUS
 62
    7
 10
277.52410646597764
 20
690.91362837266934
 11
277.52980323919314
 21
690.90862572430729
  0
LINE
  8
_6-0_
  6
CONTINUOUS
 62
    7
 10
277.52980323919314
 20
690.90862572430729
 11
277.53631940960474
 21
690.90269228217483
  0
LINE
  8
_6-0_
  6
CONTINUOUS
 62
    7
 10
277.53631940960474
 20
690.90269228217483
 11
277.54335314689149
 21
690.89611896614088
  0
LINE
  8
_6-0_
  6
CONTINUOUS
 62
    7
 10
277.54335314689149
 20
690.89611896614088
 11
277.55060262073232
 21
690.88919669607424
  0
LINE
  8
_6-0_
  6
CONTINUOUS
 62
    7
 10
277.55060262073232
 20
690.88919669607424
 11
277.55776600080617
 21
690.88221639184383
  0
LINE
  8
_6-0_
  6
CONTINUOUS
 62
    7
 10
277.55776600080617
 20
690.88221639184383
 11
277.56454145679231
 21
690.87546897331868
  0
LINE
  8
_6-0_
  6
CONTINUOUS
 62
    7
 10
277.56454145679231
 20
690.87546897331868
 11
277.57062715836946
 21
690.86924536036759
  0
LINE
  8
_6-0_
  6
CONTINUOUS
 62
    7
 10
277.57062715836946
 20
690.86924536036759
 11
277.57572127521678
 21
690.86383647285948
  0
LINE
  8
_6-0_
  6
CONTINUOUS
 62
    7
 10
277.57572127521678
 20
690.86383647285948
 11
277.58747941157935
 21
690.84921681446519
  0
LINE
  8
_6-0_
  6
CONTINUOUS
 62
    7
 10
277.58747941157935
 20
690.84921681446519
 11
277.59796812673198
 21
690.83559504926473
  0
LINE
  8
_6-0_
  6
CONTINUOUS
 62
    7
 10
277.59796812673198
 20
690.83559504926473
 11
277.60732718983411
 21
690.82281928479927
  0
LINE
  8
_6-0_
  6
CONTINUOUS
 62
    7
 10
277.60732718983411
 20
690.82281928479927
 11
277.61569637004516
 21
690.81073762861013
  0
LINE
  8
_6-0_
  6
CONTINUOUS
 62
    7
 10
277.61569637004516
 20
690.81073762861013
 11
277.62321543652445
 21
690.79919818823851
  0
LINE
  8
_6-0_
  6
CONTINUOUS
 62
    7
 10
277.62321543652445
 20
690.79919818823851
 11
277.63002415843152
 21
690.7880490712256
  0
LINE
  8
_6-0_
  6
CONTINUOUS
 62
    7
 10
277.63002415843152
 20
690.7880490712256
 11
277.63626230492559
 21
690.77713838511295
  0
LINE
  8
_6-0_
  6
CONTINUOUS
 62
    7
 10
277.63626230492559
 20
690.77713838511295
 11
277.64206964516632
 21
690.76631423744186
  0
LINE
  8
_6-0_
  6
CONTINUOUS
 62
    7
 10
275.30669882639074
 20
689.71987601907267
 11
275.30666838247282
 21
691.00129708105101
  0
LINE
  8
_6-0_
  6
CONTINUOUS
 62
    7
 10
275.30666838247282
 20
691.00129708105101
 11
275.30661211924217
 21
690.99920847001863
  0
LINE
  8
_6-0_
  6
CONTINUOUS
 62
    7
 10
275.30661211924217
 20
690.99920847001863
 11
275.30646378890663
 21
690.99370213184216
  0
LINE
  8
_6-0_
  6
CONTINUOUS
 62
    7
 10
275.30646378890663
 20
690.99370213184216
 11
275.30625408050133
 21
690.98591730890291
  0
LINE
  8
_6-0_
  6
CONTINUOUS
 62
    7
 10
275.30625408050133
 20
690.98591730890291
 11
275.30601368306111
 21
690.97699324358234
  0
LINE
  8
_6-0_
  6
CONTINUOUS
 62
    7
 10
275.30601368306111
 20
690.97699324358234
 11
275.30577328562083
 21
690.96806917826166
  0
LINE
  8
_6-0_
  6
CONTINUOUS
 62
    7
 10
275.30577328562083
 20
690.96806917826166
 11
275.30556357721542
 21
690.96028435532253
  0
LINE
  8
_6-0_
  6
CONTINUOUS
 62
    7
 10
275.30556357721542
 20
690.96028435532253
 11
275.30541524687999
 21
690.95477801714594
  0
LINE
  8
_6-0_
  6
CONTINUOUS
 62
    7
 10
275.30541524687999
 20
690.95477801714594
 11
275.30535898364923
 21
690.95268940611345
  0
LINE
  8
_6-0_
  6
CONTINUOUS
 62
    7
 10
275.30535898364923
 20
690.95268940611345
 11
275.29883529053131
 21
690.65283866975255
  0
LINE
  8
_6-0_
  6
CONTINUOUS
 62
    7
 10
275.29883529053131
 20
690.65283866975255
 11
275.29597589467591
 21
690.39518225185861
  0
LINE
  8
_6-0_
  6
CONTINUOUS
 62
    7
 10
275.29597589467591
 20
690.39518225185861
 11
275.2959040519417
 21
690.17945726675953
  0
LINE
  8
_6-0_
  6
CONTINUOUS
 62
    7
 10
275.2959040519417
 20
690.17945726675953
 11
275.29774301818736
 21
690.00540082878285
  0
LINE
  8
_6-0_
  6
CONTINUOUS
 62
    7
 10
275.29774301818736
 20
690.00540082878285
 11
275.30061604927118
 21
689.87275005225615
  0
LINE
  8
_6-0_
  6
CONTINUOUS
 62
    7
 10
275.30061604927118
 20
689.87275005225615
 11
275.30364640105199
 21
689.78124205150664
  0
LINE
  8
_6-0_
  6
CONTINUOUS
 62
    7
 10
275.30364640105199
 20
689.78124205150664
 11
275.30595732938821
 21
689.73061394086221
  0
LINE
  8
_6-0_
  6
CONTINUOUS
 62
    7
 10
275.30595732938821
 20
689.73061394086221
 11
275.30667209013842
 21
689.72060283465021
  0
LINE
  8
_6-0_
  6
CONTINUOUS
 62
    7
 10
275.30667209013842
 20
689.72060283465021
 11
275.30667323896176
 21
689.72057160429347
  0
LINE
  8
_6-0_
  6
CONTINUOUS
 62
    7
 10
275.30667323896176
 20
689.72057160429347
 11
275.3066762676778
 21
689.72048926971638
  0
LINE
  8
_6-0_
  6
CONTINUOUS
 62
    7
 10
275.3066762676778
 20
689.72048926971638
 11
275.30668054965577
 21
689.72037286565887
  0
LINE
  8
_6-0_
  6
CONTINUOUS
 62
    7
 10
275.30668054965577
 20
689.72037286565887
 11
275.30668545826461
 21
689.72023942686155
  0
LINE
  8
_6-0_
  6
CONTINUOUS
 62
    7
 10
275.30668545826461
 20
689.72023942686155
 11
275.30669036687334
 21
689.72010598806401
  0
LINE
  8
_6-0_
  6
CONTINUOUS
 62
    7
 10
275.30669036687334
 20
689.72010598806401
 11
275.30669464885131
 21
689.71998958400661
  0
LINE
  8
_6-0_
  6
CONTINUOUS
 62
    7
 10
275.30669464885131
 20
689.71998958400661
 11
275.3066976775674
 21
689.71990724942975
  0
LINE
  8
_6-0_
  6
CONTINUOUS
 62
    7
 10
275.3066976775674
 20
689.71990724942975
 11
275.30669882639074
 21
689.71987601907267
  0
LINE
  8
_6-0_
  6
CONTINUOUS
 62
    7
 10
275.30666838247168
 20
691.00129708105123
 11
273.72572403171273
 21
691.00129708105123
  0
LINE
  8
_6-0_
  6
CONTINUOUS
 62
    7
 10
273.72572403171273
 20
691.00129706457824
 11
273.72619979978469
 21
691.00129706457824
  0
LINE
  8
_6-0_
  6
CONTINUOUS
 62
    7
 10
273.72619979978469
 20
691.00129704810524
 11
273.72745409742879
 21
691.00129696124782
  0
LINE
  8
_6-0_
  6
CONTINUOUS
 62
    7
 10
273.72745409742879
 20
691.00129696124782
 11
273.7292274147876
 21
691.00129683844955
  0
LINE
  8
_6-0_
  6
CONTINUOUS
 62
    7
 10
273.7292274147876
 20
691.00129683844955
 11
273.73126024200383
 21
691.00129669768069
  0
LINE
  8
_6-0_
  6
CONTINUOUS
 62
    7
 10
273.73126024200383
 20
691.00129669768069
 11
273.73329306922011
 21
691.00129655691171
  0
LINE
  8
_6-0_
  6
CONTINUOUS
 62
    7
 10
273.73329306922011
 20
691.00129655691171
 11
273.73506638657892
 21
691.00129643411356
  0
LINE
  8
_6-0_
  6
CONTINUOUS
 62
    7
 10
273.73506638657892
 20
691.00129643411356
 11
273.73632068422296
 21
691.00129634725613
  0
LINE
  8
_6-0_
  6
CONTINUOUS
 62
    7
 10
273.73632068422296
 20
691.00129633078313
 11
273.73679645229487
 21
691.00129633078313
  0
LINE
  8
_6-0_
  6
CONTINUOUS
 62
    7
 10
273.73679645229487
 20
691.00129631431014
 11
273.8246599458929
 21
691.00127007842343
  0
LINE
  8
_6-0_
  6
CONTINUOUS
 62
    7
 10
273.8246599458929
 20
691.00127007842343
 11
273.93858298644875
 21
691.00121402561683
  0
LINE
  8
_6-0_
  6
CONTINUOUS
 62
    7
 10
273.93858298644875
 20
691.00121402561683
 11
274.08041032816743
 21
691.00114646420946
  0
LINE
  8
_6-0_
  6
CONTINUOUS
 62
    7
 10
274.08041032816743
 20
691.00114646420946
 11
274.25198672525369
 21
691.00108570252087
  0
LINE
  8
_6-0_
  6
CONTINUOUS
 62
    7
 10
274.25198672525369
 20
691.00108570252087
 11
274.45515693191248
 21
691.0010500488703
  0
LINE
  8
_6-0_
  6
CONTINUOUS
 62
    7
 10
274.45515693191248
 20
691.0010500488703
 11
274.6917657023485
 21
691.00105781157686
  0
LINE
  8
_6-0_
  6
CONTINUOUS
 62
    7
 10
274.6917657023485
 20
691.00105781157686
 11
274.96365779076666
 21
691.00112729895977
  0
LINE
  8
_6-0_
  6
CONTINUOUS
 62
    7
 10
274.96365779076666
 20
691.00112729895977
 11
275.27267795137186
 21
691.00127681933884
  0
LINE
  8
_6-0_
  6
CONTINUOUS
 62
    7
 10
275.27267795137186
 20
691.00127681933884
 11
275.27413847770816
 21
691.00127768995935
  0
LINE
  8
_6-0_
  6
CONTINUOUS
 62
    7
 10
275.27413847770816
 20
691.00127768995935
 11
275.27798895623118
 21
691.00127998523146
  0
LINE
  8
_6-0_
  6
CONTINUOUS
 62
    7
 10
275.27798895623118
 20
691.00127998523146
 11
275.28343273621203
 21
691.00128323027116
  0
LINE
  8
_6-0_
  6
CONTINUOUS
 62
    7
 10
275.28343273621203
 20
691.00128323027116
 11
275.28967316692183
 21
691.00128695019498
  0
LINE
  8
_6-0_
  6
CONTINUOUS
 62
    7
 10
275.28967316692183
 20
691.00128695019498
 11
275.29591359763151
 21
691.00129067011881
  0
LINE
  8
_6-0_
  6
CONTINUOUS
 62
    7
 10
275.29591359763151
 20
691.00129067011881
 11
275.30135737761236
 21
691.00129391515884
  0
LINE
  8
_6-0_
  6
CONTINUOUS
 62
    7
 10
275.30135737761236
 20
691.00129391515884
 11
275.30520785613538
 21
691.00129621043061
  0
LINE
  8
_6-0_
  6
CONTINUOUS
 62
    7
 10
275.30520785613538
 20
691.00129621043061
 11
275.30666838247168
 21
691.00129708105123
  0
LINE
  8
_6-0_
  6
CONTINUOUS
 62
    7
 10
273.72572403171273
 20
690.63403040936589
 11
273.72572403171273
 21
690.63406166084394
  0
LINE
  8
_6-0_
  6
CONTINUOUS
 62
    7
 10
273.72572403171273
 20
690.63406166084394
 11
273.72572403171273
 21
690.63414405110416
  0
LINE
  8
_6-0_
  6
CONTINUOUS
 62
    7
 10
273.72572403171273
 20
690.63414405110416
 11
273.72572403171273
 21
690.63426053388582
  0
LINE
  8
_6-0_
  6
CONTINUOUS
 62
    7
 10
273.72572403171273
 20
690.63426053388582
 11
273.72572403171273
 21
690.63439406292844
  0
LINE
  8
_6-0_
  6
CONTINUOUS
 62
    7
 10
273.72572403171273
 20
690.63439406292844
 11
273.72572403171273
 21
690.63452759197071
  0
LINE
  8
_6-0_
  6
CONTINUOUS
 62
    7
 10
273.72572403171273
 20
690.63452759197071
 11
273.72572403171273
 21
690.63464407475249
  0
LINE
  8
_6-0_
  6
CONTINUOUS
 62
    7
 10
273.72572403171273
 20
690.63464407475249
 11
273.72572403171273
 21
690.63472646501282
  0
LINE
  8
_6-0_
  6
CONTINUOUS
 62
    7
 10
273.72572403171273
 20
690.63472646501282
 11
273.72572403171273
 21
690.63475771649087
  0
LINE
  8
_6-0_
  6
CONTINUOUS
 62
    7
 10
273.72572403171273
 20
690.63475771649087
 11
273.72572403171273
 21
690.64858712691819
  0
LINE
  8
_6-0_
  6
CONTINUOUS
 62
    7
 10
273.72572403171273
 20
690.64858712691819
 11
273.72572403171273
 21
690.68504648168164
  0
LINE
  8
_6-0_
  6
CONTINUOUS
 62
    7
 10
273.72572403171273
 20
690.68504648168164
 11
273.72572403171273
 21
690.73659246600198
  0
LINE
  8
_6-0_
  6
CONTINUOUS
 62
    7
 10
273.72572403171273
 20
690.73659246600198
 11
273.72572403171273
 21
690.79568176510111
  0
LINE
  8
_6-0_
  6
CONTINUOUS
 62
    7
 10
273.72572403171273
 20
690.79568176510111
 11
273.72572403171273
 21
690.85477106420001
  0
LINE
  8
_6-0_
  6
CONTINUOUS
 62
    7
 10
273.72572403171273
 20
690.85477106420001
 11
273.72572403171273
 21
690.90631704852058
  0
LINE
  8
_6-0_
  6
CONTINUOUS
 62
    7
 10
273.72572403171273
 20
690.90631704852058
 11
273.72572403171273
 21
690.94277640328391
  0
LINE
  8
_6-0_
  6
CONTINUOUS
 62
    7
 10
273.72572403171273
 20
690.94277640328391
 11
273.72572403171273
 21
690.95660581371135
  0
LINE
  8
_6-0_
  6
CONTINUOUS
 62
    7
 10
273.72572403171273
 20
690.95660581371135
 11
273.72572403171273
 21
690.95852614160481
  0
LINE
  8
_6-0_
  6
CONTINUOUS
 62
    7
 10
273.72572403171273
 20
690.95852614160481
 11
273.72572403171273
 21
690.96358882423317
  0
LINE
  8
_6-0_
  6
CONTINUOUS
 62
    7
 10
273.72572403171273
 20
690.96358882423317
 11
273.72572403171273
 21
690.97074641001814
  0
LINE
  8
_6-0_
  6
CONTINUOUS
 62
    7
 10
273.72572403171273
 20
690.97074641001814
 11
273.72572403171273
 21
690.97895144738118
  0
LINE
  8
_6-0_
  6
CONTINUOUS
 62
    7
 10
273.72572403171273
 20
690.97895144738118
 11
273.72572403171273
 21
690.98715648474445
  0
LINE
  8
_6-0_
  6
CONTINUOUS
 62
    7
 10
273.72572403171273
 20
690.98715648474445
 11
273.72572403171273
 21
690.99431407052953
  0
LINE
  8
_6-0_
  6
CONTINUOUS
 62
    7
 10
273.72572403171273
 20
690.99431407052953
 11
273.72572403171273
 21
690.99937675315778
  0
LINE
  8
_6-0_
  6
CONTINUOUS
 62
    7
 10
273.72572403171273
 20
690.99937675315778
 11
273.72572403171273
 21
691.00129708105123
  0
LINE
  8
_6-0_
  6
CONTINUOUS
 62
    7
 10
282.76337697387896
 20
690.89156079410998
 11
282.64225016999274
 21
690.58459280876832
  0
LINE
  8
_6-0_
  6
CONTINUOUS
 62
    7
 10
282.64225016999274
 20
690.58459280876832
 11
282.64225016999274
 21
690.58516426386655
  0
LINE
  8
_6-0_
  6
CONTINUOUS
 62
    7
 10
282.64225016999274
 20
690.58516426386655
 11
282.64225016999274
 21
690.58667082730744
  0
LINE
  8
_6-0_
  6
CONTINUOUS
 62
    7
 10
282.64225016999274
 20
690.58667082730744
 11
282.64225016999274
 21
690.58880079631024
  0
LINE
  8
_6-0_
  6
CONTINUOUS
 62
    7
 10
282.64225016999274
 20
690.58880079631024
 11
282.64225016999274
 21
690.59124246809358
  0
LINE
  8
_6-0_
  6
CONTINUOUS
 62
    7
 10
282.64225016999274
 20
690.59124246809358
 11
282.64225016999274
 21
690.59368413987715
  0
LINE
  8
_6-0_
  6
CONTINUOUS
 62
    7
 10
282.64225016999274
 20
690.59368413987715
 11
282.64225016999274
 21
690.59581410887972
  0
LINE
  8
_6-0_
  6
CONTINUOUS
 62
    7
 10
282.64225016999274
 20
690.59581410887972
 11
282.64225016999274
 21
690.59732067232062
  0
LINE
  8
_6-0_
  6
CONTINUOUS
 62
    7
 10
282.64225016999274
 20
690.59732067232062
 11
282.64225016999274
 21
690.59789212741885
  0
LINE
  8
_6-0_
  6
CONTINUOUS
 62
    7
 10
282.64225016999274
 20
690.59789212741885
 11
282.64269774060426
 21
690.6104450606515
  0
LINE
  8
_6-0_
  6
CONTINUOUS
 62
    7
 10
282.64269774060426
 20
690.6104450606515
 11
282.64403639433419
 21
690.62592049376008
  0
LINE
  8
_6-0_
  6
CONTINUOUS
 62
    7
 10
282.64403639433419
 20
690.62592049376008
 11
282.64626004402629
 21
690.64367708737313
  0
LINE
  8
_6-0_
  6
CONTINUOUS
 62
    7
 10
282.64626004402629
 20
690.64367708737313
 11
282.64936260252404
 21
690.66307350211844
  0
LINE
  8
_6-0_
  6
CONTINUOUS
 62
    7
 10
282.64936260252404
 20
690.66307350211844
 11
282.65333798267102
 21
690.683468398625
  0
LINE
  8
_6-0_
  6
CONTINUOUS
 62
    7
 10
282.65333798267102
 20
690.683468398625
 11
282.65818009731072
 21
690.70422043752058
  0
LINE
  8
_6-0_
  6
CONTINUOUS
 62
    7
 10
282.65818009731072
 20
690.70422043752058
 11
282.66388285928679
 21
690.72468827943385
  0
LINE
  8
_6-0_
  6
CONTINUOUS
 62
    7
 10
282.66388285928679
 20
690.72468827943385
 11
282.67044018144259
 21
690.74423058499269
  0
LINE
  8
_6-0_
  6
CONTINUOUS
 62
    7
 10
282.67044018144259
 20
690.74423058499269
 11
282.68257631760457
 21
690.7743129664193
  0
LINE
  8
_6-0_
  6
CONTINUOUS
 62
    7
 10
282.68257631760457
 20
690.7743129664193
 11
282.69486233980183
 21
690.80006086182448
  0
LINE
  8
_6-0_
  6
CONTINUOUS
 62
    7
 10
282.69486233980183
 20
690.80006086182448
 11
282.70705388735513
 21
690.82187859133796
  0
LINE
  8
_6-0_
  6
CONTINUOUS
 62
    7
 10
282.70705388735513
 20
690.82187859133796
 11
282.71890659958513
 21
690.84017047508951
  0
LINE
  8
_6-0_
  6
CONTINUOUS
 62
    7
 10
282.71890659958513
 20
690.84017047508951
 11
282.73017611581253
 21
690.85534083320886
  0
LINE
  8
_6-0_
  6
CONTINUOUS
 62
    7
 10
282.73017611581253
 20
690.85534083320886
 11
282.74061807535804
 21
690.86779398582598
  0
LINE
  8
_6-0_
  6
CONTINUOUS
 62
    7
 10
282.74061807535804
 20
690.86779398582598
 11
282.74998811754216
 21
690.87793425307029
  0
LINE
  8
_6-0_
  6
CONTINUOUS
 62
    7
 10
282.74998811754216
 20
690.87793425307029
 11
282.75804188168564
 21
690.88616595507176
  0
LINE
  8
_6-0_
  6
CONTINUOUS
 62
    7
 10
282.75804188168564
 20
690.88616595507176
 11
282.75827112392835
 21
690.88639776456159
  0
LINE
  8
_6-0_
  6
CONTINUOUS
 62
    7
 10
282.75827112392835
 20
690.88639776456159
 11
282.75887548984082
 21
690.88700889867141
  0
LINE
  8
_6-0_
  6
CONTINUOUS
 62
    7
 10
282.75887548984082
 20
690.88700889867141
 11
282.75972993819994
 21
690.88787291586129
  0
LINE
  8
_6-0_
  6
CONTINUOUS
 62
    7
 10
282.75972993819994
 20
690.88787291586129
 11
282.76070942778227
 21
690.88886337459087
  0
LINE
  8
_6-0_
  6
CONTINUOUS
 62
    7
 10
282.76070942778227
 20
690.88886337459087
 11
282.76168891736467
 21
690.88985383332044
  0
LINE
  8
_6-0_
  6
CONTINUOUS
 62
    7
 10
282.76168891736467
 20
690.88985383332044
 11
282.76254336572373
 21
690.89071785051021
  0
LINE
  8
_6-0_
  6
CONTINUOUS
 62
    7
 10
282.76254336572373
 20
690.89071785051021
 11
282.76314773163625
 21
690.89132898462003
  0
LINE
  8
_6-0_
  6
CONTINUOUS
 62
    7
 10
282.76314773163625
 20
690.89132898462003
 11
282.76337697387896
 21
690.89156079410998
  0
LINE
  8
_6-0_
  6
CONTINUOUS
 62
    7
 10
279.66471222508369
 20
690.89154684248626
 11
279.54359924250537
 21
690.584593140577
  0
LINE
  8
_6-0_
  6
CONTINUOUS
 62
    7
 10
279.54359924250537
 20
690.584593140577
 11
279.54359924250537
 21
690.58516456454618
  0
LINE
  8
_6-0_
  6
CONTINUOUS
 62
    7
 10
279.54359924250537
 20
690.58516456454618
 11
279.54359924250537
 21
690.58667104591927
  0
LINE
  8
_6-0_
  6
CONTINUOUS
 62
    7
 10
279.54359924250537
 20
690.58667104591927
 11
279.54359924250537
 21
690.58880089889522
  0
LINE
  8
_6-0_
  6
CONTINUOUS
 62
    7
 10
279.54359924250537
 20
690.58880089889522
 11
279.54359924250537
 21
690.59124243767258
  0
LINE
  8
_6-0_
  6
CONTINUOUS
 62
    7
 10
279.54359924250537
 20
690.59124243767258
 11
279.54359924250537
 21
690.59368397644994
  0
LINE
  8
_6-0_
  6
CONTINUOUS
 62
    7
 10
279.54359924250537
 20
690.59368397644994
 11
279.54359924250537
 21
690.59581382942565
  0
LINE
  8
_6-0_
  6
CONTINUOUS
 62
    7
 10
279.54359924250537
 20
690.59581382942565
 11
279.54359924250537
 21
690.59732031079898
  0
LINE
  8
_6-0_
  6
CONTINUOUS
 62
    7
 10
279.54359924250537
 20
690.59732031079898
 11
279.54359924250537
 21
690.59789173476815
  0
LINE
  8
_6-0_
  6
CONTINUOUS
 62
    7
 10
279.54359924250537
 20
690.59789173476815
 11
279.54404676652928
 21
690.6104439816354
  0
LINE
  8
_6-0_
  6
CONTINUOUS
 62
    7
 10
279.54404676652928
 20
690.6104439816354
 11
279.54538527907766
 21
690.6259185698932
  0
LINE
  8
_6-0_
  6
CONTINUOUS
 62
    7
 10
279.54538527907766
 20
690.6259185698932
 11
279.54760869086556
 21
690.64367419574273
  0
LINE
  8
_6-0_
  6
CONTINUOUS
 62
    7
 10
279.54760869086556
 20
690.64367419574273
 11
279.55071091260822
 21
690.66306955538539
  0
LINE
  8
_6-0_
  6
CONTINUOUS
 62
    7
 10
279.55071091260822
 20
690.66306955538539
 11
279.55468585502052
 21
690.68346334502303
  0
LINE
  8
_6-0_
  6
CONTINUOUS
 62
    7
 10
279.55468585502052
 20
690.68346334502303
 11
279.55952742881772
 21
690.70421426085659
  0
LINE
  8
_6-0_
  6
CONTINUOUS
 62
    7
 10
279.55952742881772
 20
690.70421426085659
 11
279.5652295447149
 21
690.7246809990877
  0
LINE
  8
_6-0_
  6
CONTINUOUS
 62
    7
 10
279.5652295447149
 20
690.7246809990877
 11
279.57178611342704
 21
690.74422225591775
  0
LINE
  8
_6-0_
  6
CONTINUOUS
 62
    7
 10
279.57178611342704
 20
690.74422225591775
 11
279.58392089935592
 21
690.77430325348587
  0
LINE
  8
_6-0_
  6
CONTINUOUS
 62
    7
 10
279.58392089935592
 20
690.77430325348587
 11
279.5962054953049
 21
690.80004997024412
  0
LINE
  8
_6-0_
  6
CONTINUOUS
 62
    7
 10
279.5962054953049
 20
690.80004997024412
 11
279.60839559143437
 21
690.82186672210378
  0
LINE
  8
_6-0_
  6
CONTINUOUS
 62
    7
 10
279.60839559143437
 20
690.82186672210378
 11
279.62024687790449
 21
690.84015782497659
  0
LINE
  8
_6-0_
  6
CONTINUOUS
 62
    7
 10
279.62024687790449
 20
690.84015782497659
 11
279.63151504487536
 21
690.85532759477337
  0
LINE
  8
_6-0_
  6
CONTINUOUS
 62
    7
 10
279.63151504487536
 20
690.85532759477337
 11
279.64195578250747
 21
690.86778034740587
  0
LINE
  8
_6-0_
  6
CONTINUOUS
 62
    7
 10
279.64195578250747
 20
690.86778034740587
 11
279.65132478096081
 21
690.87792039878536
  0
LINE
  8
_6-0_
  6
CONTINUOUS
 62
    7
 10
279.65132478096081
 20
690.87792039878536
 11
279.65937773039576
 21
690.88615206482314
  0
LINE
  8
_6-0_
  6
CONTINUOUS
 62
    7
 10
279.65937773039576
 20
690.88615206482314
 11
279.6596069469644
 21
690.88638387167589
  0
LINE
  8
_6-0_
  6
CONTINUOUS
 62
    7
 10
279.6596069469644
 20
690.88638387167589
 11
279.66021124519079
 21
690.88699499883296
  0
LINE
  8
_6-0_
  6
CONTINUOUS
 62
    7
 10
279.66021124519079
 20
690.88699499883296
 11
279.66106559785567
 21
690.88785900619314
  0
LINE
  8
_6-0_
  6
CONTINUOUS
 62
    7
 10
279.66106559785567
 20
690.88785900619314
 11
279.6620449777397
 21
690.88884945365464
  0
LINE
  8
_6-0_
  6
CONTINUOUS
 62
    7
 10
279.6620449777397
 20
690.88884945365464
 11
279.66302435762384
 21
690.88983990111626
  0
LINE
  8
_6-0_
  6
CONTINUOUS
 62
    7
 10
279.66302435762384
 20
690.88983990111626
 11
279.66387871028871
 21
690.89070390847633
  0
LINE
  8
_6-0_
  6
CONTINUOUS
 62
    7
 10
279.66387871028871
 20
690.89070390847633
 11
279.66448300851505
 21
690.89131503563351
  0
LINE
  8
_6-0_
  6
CONTINUOUS
 62
    7
 10
279.66448300851505
 20
690.89131503563351
 11
279.66471222508369
 21
690.89154684248626
  0
LINE
  8
_6-0_
  6
CONTINUOUS
 62
    7
 10
280.67773326613076
 20
690.76583309383659
 11
280.32299451109236
 21
691.00129708105101
  0
LINE
  8
_6-0_
  6
CONTINUOUS
 62
    7
 10
280.32299451109236
 20
691.00129708105101
 11
280.33088109569655
 21
691.0011987662466
  0
LINE
  8
_6-0_
  6
CONTINUOUS
 62
    7
 10
280.33088109569655
 20
691.0011987662466
 11
280.33895805033251
 21
691.00087710461366
  0
LINE
  8
_6-0_
  6
CONTINUOUS
 62
    7
 10
280.33895805033251
 20
691.00087710461366
 11
280.34746143807234
 21
691.00029202032283
  0
LINE
  8
_6-0_
  6
CONTINUOUS
 62
    7
 10
280.34746143807234
 20
691.00029202032283
 11
280.35662732198784
 21
690.99940343754497
  0
LINE
  8
_6-0_
  6
CONTINUOUS
 62
    7
 10
280.35662732198784
 20
690.99940343754497
 11
280.36669176515113
 21
690.99817128045049
  0
LINE
  8
_6-0_
  6
CONTINUOUS
 62
    7
 10
280.36669176515113
 20
690.99817128045049
 11
280.37789083063399
 21
690.99655547321026
  0
LINE
  8
_6-0_
  6
CONTINUOUS
 62
    7
 10
280.37789083063399
 20
690.99655547321026
 11
280.39046058150853
 21
690.99451593999447
  0
LINE
  8
_6-0_
  6
CONTINUOUS
 62
    7
 10
280.39046058150853
 20
690.99451593999447
 11
280.40463708084667
 21
690.99201260497443
  0
LINE
  8
_6-0_
  6
CONTINUOUS
 62
    7
 10
280.40463708084667
 20
690.99201260497443
 11
280.412847816198
 21
690.98960278779134
  0
LINE
  8
_6-0_
  6
CONTINUOUS
 62
    7
 10
280.412847816198
 20
690.98960278779134
 11
280.42228985750774
 21
690.98658076635274
  0
LINE
  8
_6-0_
  6
CONTINUOUS
 62
    7
 10
280.42228985750774
 20
690.98658076635274
 11
280.43252149872683
 21
690.98310784952719
  0
LINE
  8
_6-0_
  6
CONTINUOUS
 62
    7
 10
280.43252149872683
 20
690.98310784952719
 11
280.4431010338061
 21
690.97934534618264
  0
LINE
  8
_6-0_
  6
CONTINUOUS
 62
    7
 10
280.4431010338061
 20
690.97934534618264
 11
280.45358675669661
 21
690.97545456518731
  0
LINE
  8
_6-0_
  6
CONTINUOUS
 62
    7
 10
280.45358675669661
 20
690.97545456518731
 11
280.46353696134918
 21
690.97159681540938
  0
LINE
  8
_6-0_
  6
CONTINUOUS
 62
    7
 10
280.46353696134918
 20
690.97159681540938
 11
280.47250994171475
 21
690.9679334057173
  0
LINE
  8
_6-0_
  6
CONTINUOUS
 62
    7
 10
280.47250994171475
 20
690.9679334057173
 11
280.48006399174437
 21
690.96462564497926
  0
LINE
  8
_6-0_
  6
CONTINUOUS
 62
    7
 10
280.48006399174437
 20
690.96462564497926
 11
280.49204049999662
 21
690.95796319098611
  0
LINE
  8
_6-0_
  6
CONTINUOUS
 62
    7
 10
280.49204049999662
 20
690.95796319098611
 11
280.5027106001678
 21
690.95183344798943
  0
LINE
  8
_6-0_
  6
CONTINUOUS
 62
    7
 10
280.5027106001678
 20
690.95183344798943
 11
280.51244394333679
 21
690.94600242631475
  0
LINE
  8
_6-0_
  6
CONTINUOUS
 62
    7
 10
280.51244394333679
 20
690.94600242631475
 11
280.52161018058194
 21
690.94023613628781
  0
LINE
  8
_6-0_
  6
CONTINUOUS
 62
    7
 10
280.52161018058194
 20
690.94023613628781
 11
280.53057896298208
 21
690.93430058823424
  0
LINE
  8
_6-0_
  6
CONTINUOUS
 62
    7
 10
280.53057896298208
 20
690.93430058823424
 11
280.53971994161572
 21
690.92796179247966
  0
LINE
  8
_6-0_
  6
CONTINUOUS
 62
    7
 10
280.53971994161572
 20
690.92796179247966
 11
280.5494027675615
 21
690.92098575934995
  0
LINE
  8
_6-0_
  6
CONTINUOUS
 62
    7
 10
280.5494027675615
 20
690.92098575934995
 11
280.55999709189803
 21
690.91313849917071
  0
LINE
  8
_6-0_
  6
CONTINUOUS
 62
    7
 10
280.55999709189803
 20
690.91313849917071
 11
280.5656871324407
 21
690.9081249751589
  0
LINE
  8
_6-0_
  6
CONTINUOUS
 62
    7
 10
280.5656871324407
 20
690.9081249751589
 11
280.57219534324878
 21
690.90217953889817
  0
LINE
  8
_6-0_
  6
CONTINUOUS
 62
    7
 10
280.57219534324878
 20
690.90217953889817
 11
280.57922035391351
 21
690.89559353701679
  0
LINE
  8
_6-0_
  6
CONTINUOUS
 62
    7
 10
280.57922035391351
 20
690.89559353701679
 11
280.58646079402598
 21
690.8886583161426
  0
LINE
  8
_6-0_
  6
CONTINUOUS
 62
    7
 10
280.58646079402598
 20
690.8886583161426
 11
280.59361529317721
 21
690.88166522290385
  0
LINE
  8
_6-0_
  6
CONTINUOUS
 62
    7
 10
280.59361529317721
 20
690.88166522290385
 11
280.60038248095844
 21
690.87490560392837
  0
LINE
  8
_6-0_
  6
CONTINUOUS
 62
    7
 10
280.60038248095844
 20
690.87490560392837
 11
280.6064609869606
 21
690.86867080584454
  0
LINE
  8
_6-0_
  6
CONTINUOUS
 62
    7
 10
280.6064609869606
 20
690.86867080584454
 11
280.61154944077498
 21
690.86325217528019
  0
LINE
  8
_6-0_
  6
CONTINUOUS
 62
    7
 10
280.61154944077498
 20
690.86325217528019
 11
280.62327683543714
 21
690.84863777927933
  0
LINE
  8
_6-0_
  6
CONTINUOUS
 62
    7
 10
280.62327683543714
 20
690.84863777927933
 11
280.63373825573427
 21
690.83502337107348
  0
LINE
  8
_6-0_
  6
CONTINUOUS
 62
    7
 10
280.63373825573427
 20
690.83502337107348
 11
280.64307320077859
 21
690.82225710116757
  0
LINE
  8
_6-0_
  6
CONTINUOUS
 62
    7
 10
280.64307320077859
 20
690.82225710116757
 11
280.65142116968224
 21
690.81018712006767
  0
LINE
  8
_6-0_
  6
CONTINUOUS
 62
    7
 10
280.65142116968224
 20
690.81018712006767
 11
280.65892166155714
 21
690.79866157827905
  0
LINE
  8
_6-0_
  6
CONTINUOUS
 62
    7
 10
280.65892166155714
 20
690.79866157827905
 11
280.66571417551552
 21
690.78752862630733
  0
LINE
  8
_6-0_
  6
CONTINUOUS
 62
    7
 10
280.66571417551552
 20
690.78752862630733
 11
280.6719382106694
 21
690.7766364146579
  0
LINE
  8
_6-0_
  6
CONTINUOUS
 62
    7
 10
280.6719382106694
 20
690.7766364146579
 11
280.67773326613076
 21
690.76583309383659
  0
LINE
  8
_6-0_
  6
CONTINUOUS
 62
    7
 10
273.72572403171273
 20
691.75505666946128
 11
273.92314356050338
 21
691.75505666946128
  0
LINE
  8
_6-0_
  6
CONTINUOUS
 62
    7
 10
273.92314356050338
 20
691.75505666946128
 11
274.12063629018968
 21
691.75505666946128
  0
LINE
  8
_6-0_
  6
CONTINUOUS
 62
    7
 10
274.12063629018968
 20
691.75505666946128
 11
274.31819397961738
 21
691.75505666946128
  0
LINE
  8
_6-0_
  6
CONTINUOUS
 62
    7
 10
274.31819397961738
 20
691.75505666946128
 11
274.51580838763198
 21
691.75505666946128
  0
LINE
  8
_6-0_
  6
CONTINUOUS
 62
    7
 10
274.51580838763198
 20
691.75505666946128
 11
274.71347127307922
 21
691.75505666946128
  0
LINE
  8
_6-0_
  6
CONTINUOUS
 62
    7
 10
274.71347127307922
 20
691.75505666946128
 11
274.91117439480445
 21
691.75505666946128
  0
LINE
  8
_6-0_
  6
CONTINUOUS
 62
    7
 10
274.91117439480445
 20
691.75505666946128
 11
275.10890951165345
 21
691.75505666946128
  0
LINE
  8
_6-0_
  6
CONTINUOUS
 62
    7
 10
275.10890951165345
 20
691.75505666946128
 11
275.30666838247168
 21
691.75505666946128
  0
LINE
  8
_6-0_
  6
CONTINUOUS
 62
    7
 10
275.30666838247168
 20
691.00129708105123
 11
275.47461001116449
 21
691.00129708105123
  0
LINE
  8
_6-0_
  6
CONTINUOUS
 62
    7
 10
275.47461001116449
 20
691.00129708105123
 11
275.64255163985717
 21
691.00129708105123
  0
LINE
  8
_6-0_
  6
CONTINUOUS
 62
    7
 10
275.64255163985717
 20
691.00129708105123
 11
275.81049326854998
 21
691.00129708105123
  0
LINE
  8
_6-0_
  6
CONTINUOUS
 62
    7
 10
275.81049326854998
 20
691.00129708105112
 11
275.97843489724266
 21
691.00129708105112
  0
LINE
  8
_6-0_
  6
CONTINUOUS
 62
    7
 10
275.97843489724266
 20
691.00129708105101
 11
276.14637652593547
 21
691.00129708105101
  0
LINE
  8
_6-0_
  6
CONTINUOUS
 62
    7
 10
276.14637652593547
 20
691.00129708105101
 11
276.31431815462815
 21
691.00129708105101
  0
LINE
  8
_6-0_
  6
CONTINUOUS
 62
    7
 10
276.31431815462815
 20
691.00129708105101
 11
276.48225978332096
 21
691.00129708105101
  0
LINE
  8
_6-0_
  6
CONTINUOUS
 62
    7
 10
276.48225978332096
 20
691.00129708105101
 11
276.65020141201364
 21
691.00129708105101
  0
LINE
  8
_6-0_
  6
CONTINUOUS
 62
    7
 10
276.64090563162893
 20
690.90278545509022
 11
276.65020141201364
 21
691.00129708105123
  0
LINE
  8
_6-0_
  6
CONTINUOUS
 62
    7
 10
276.65020141201364
 20
691.00129708105123
 11
276.65016866072853
 21
691.00094437764596
  0
LINE
  8
_6-0_
  6
CONTINUOUS
 62
    7
 10
276.65016866072853
 20
691.00094437764596
 11
276.65008231643134
 21
691.00001452321408
  0
LINE
  8
_6-0_
  6
CONTINUOUS
 62
    7
 10
276.65008231643134
 20
691.00001452321408
 11
276.64996024345947
 21
690.99869990143088
  0
LINE
  8
_6-0_
  6
CONTINUOUS
 62
    7
 10
276.64996024345947
 20
690.99869990143088
 11
276.64982030615022
 21
690.99719289597238
  0
LINE
  8
_6-0_
  6
CONTINUOUS
 62
    7
 10
276.64982030615022
 20
690.99719289597238
 11
276.64968036884096
 21
690.99568589051364
  0
LINE
  8
_6-0_
  6
CONTINUOUS
 62
    7
 10
276.64968036884096
 20
690.99568589051364
 11
276.6495582958691
 21
690.99437126873056
  0
LINE
  8
_6-0_
  6
CONTINUOUS
 62
    7
 10
276.6495582958691
 20
690.99437126873056
 11
276.64947195157191
 21
690.99344141429856
  0
LINE
  8
_6-0_
  6
CONTINUOUS
 62
    7
 10
276.64947195157191
 20
690.99344141429856
 11
276.64943920028679
 21
690.99308871089329
  0
LINE
  8
_6-0_
  6
CONTINUOUS
 62
    7
 10
276.64943920028679
 20
690.99308871089329
 11
276.64879670494832
 21
690.98621103040227
  0
LINE
  8
_6-0_
  6
CONTINUOUS
 62
    7
 10
276.64879670494832
 20
690.98621103040227
 11
276.64787390199336
 21
690.97638591831605
  0
LINE
  8
_6-0_
  6
CONTINUOUS
 62
    7
 10
276.64787390199336
 20
690.97638591831605
 11
276.6467642243112
 21
690.96460209184329
  0
LINE
  8
_6-0_
  6
CONTINUOUS
 62
    7
 10
276.6467642243112
 20
690.96460209184329
 11
276.64556110479145
 21
690.95184826819207
  0
LINE
  8
_6-0_
  6
CONTINUOUS
 62
    7
 10
276.64556110479145
 20
690.95184826819207
 11
276.64435797632365
 21
690.9391131645707
  0
LINE
  8
_6-0_
  6
CONTINUOUS
 62
    7
 10
276.64435797632365
 20
690.9391131645707
 11
276.64324827179718
 21
690.92738549818762
  0
LINE
  8
_6-0_
  6
CONTINUOUS
 62
    7
 10
276.64324827179718
 20
690.92738549818762
 11
276.64232542410167
 21
690.91765398625125
  0
LINE
  8
_6-0_
  6
CONTINUOUS
 62
    7
 10
276.64232542410167
 20
690.91765398625125
 11
276.64168286612659
 21
690.91090734596992
  0
LINE
  8
_6-0_
  6
CONTINUOUS
 62
    7
 10
276.64168286612659
 20
690.91090734596992
 11
276.6416494693317
 21
690.91055835847123
  0
LINE
  8
_6-0_
  6
CONTINUOUS
 62
    7
 10
276.6416494693317
 20
690.91055835847123
 11
276.64156142323628
 21
690.90963830051987
  0
LINE
  8
_6-0_
  6
CONTINUOUS
 62
    7
 10
276.64156142323628
 20
690.90963830051987
 11
276.64143694427378
 21
690.90833752893354
  0
LINE
  8
_6-0_
  6
CONTINUOUS
 62
    7
 10
276.64143694427378
 20
690.90833752893354
 11
276.64129424887767
 21
690.90684640052996
  0
LINE
  8
_6-0_
  6
CONTINUOUS
 62
    7
 10
276.64129424887767
 20
690.90684640052996
 11
276.64115155348168
 21
690.90535527212637
  0
LINE
  8
_6-0_
  6
CONTINUOUS
 62
    7
 10
276.64115155348168
 20
690.90535527212637
 11
276.64102707451917
 21
690.90405450054004
  0
LINE
  8
_6-0_
  6
CONTINUOUS
 62
    7
 10
276.64102707451917
 20
690.90405450054004
 11
276.64093902842376
 21
690.90313444258891
  0
LINE
  8
_6-0_
  6
CONTINUOUS
 62
    7
 10
276.64093902842376
 20
690.90313444258891
 11
276.64090563162893
 21
690.90278545509022
  0
LINE
  8
_6-0_
  6
CONTINUOUS
 62
    7
 10
276.6409056316254
 20
690.90278545509045
 11
276.88761273323053
 21
691.00129708105101
  0
LINE
  8
_6-0_
  6
CONTINUOUS
 62
    7
 10
276.88761273323053
 20
691.00129708105101
 11
276.88711189428579
 21
691.00129708105101
  0
LINE
  8
_6-0_
  6
CONTINUOUS
 62
    7
 10
276.88711189428579
 20
691.00129708105101
 11
276.88579150070433
 21
691.00129708105101
  0
LINE
  8
_6-0_
  6
CONTINUOUS
 62
    7
 10
276.88579150070433
 20
691.00129708105101
 11
276.88392473736491
 21
691.00129708105101
  0
LINE
  8
_6-0_
  6
CONTINUOUS
 62
    7
 10
276.88392473736491
 20
691.00129708105101
 11
276.88178478914665
 21
691.00129708105101
  0
LINE
  8
_6-0_
  6
CONTINUOUS
 62
    7
 10
276.88178478914665
 20
691.00129708105101
 11
276.87964484092834
 21
691.00129708105101
  0
LINE
  8
_6-0_
  6
CONTINUOUS
 62
    7
 10
276.87964484092834
 20
691.00129708105101
 11
276.87777807758897
 21
691.00129708105101
  0
LINE
  8
_6-0_
  6
CONTINUOUS
 62
    7
 10
276.87777807758897
 20
691.00129708105101
 11
276.87645768400751
 21
691.00129708105101
  0
LINE
  8
_6-0_
  6
CONTINUOUS
 62
    7
 10
276.87645768400751
 20
691.00129708105101
 11
276.87595684506277
 21
691.00129708105101
  0
LINE
  8
_6-0_
  6
CONTINUOUS
 62
    7
 10
276.87595684506277
 20
691.00129708105101
 11
276.86502244501276
 21
691.00082823795265
  0
LINE
  8
_6-0_
  6
CONTINUOUS
 62
    7
 10
276.86502244501276
 20
691.00082823795265
 11
276.85167353259919
 21
690.99945280535053
  0
LINE
  8
_6-0_
  6
CONTINUOUS
 62
    7
 10
276.85167353259919
 20
690.99945280535053
 11
276.83648696185116
 21
690.99721742828433
  0
LINE
  8
_6-0_
  6
CONTINUOUS
 62
    7
 10
276.83648696185116
 20
690.99721742828433
 11
276.82003958679752
 21
690.99416875179429
  0
LINE
  8
_6-0_
  6
CONTINUOUS
 62
    7
 10
276.82003958679752
 20
690.99416875179429
 11
276.80290826146734
 21
690.99035342091963
  0
LINE
  8
_6-0_
  6
CONTINUOUS
 62
    7
 10
276.80290826146734
 20
690.99035342091963
 11
276.78566983988947
 21
690.98581808070082
  0
LINE
  8
_6-0_
  6
CONTINUOUS
 62
    7
 10
276.78566983988947
 20
690.98581808070082
 11
276.76890117609281
 21
690.98060937617697
  0
LINE
  8
_6-0_
  6
CONTINUOUS
 62
    7
 10
276.76890117609281
 20
690.98060937617697
 11
276.75317912410657
 21
690.97477395238866
  0
LINE
  8
_6-0_
  6
CONTINUOUS
 62
    7
 10
276.75317912410657
 20
690.97477395238866
 11
276.73673175460567
 21
690.96764030627605
  0
LINE
  8
_6-0_
  6
CONTINUOUS
 62
    7
 10
276.73673175460567
 20
690.96764030627605
 11
276.72212393410547
 21
690.96053684787762
  0
LINE
  8
_6-0_
  6
CONTINUOUS
 62
    7
 10
276.72212393410547
 20
690.96053684787762
 11
276.70922903325493
 21
690.95356386023411
  0
LINE
  8
_6-0_
  6
CONTINUOUS
 62
    7
 10
276.70922903325493
 20
690.95356386023411
 11
276.69792042270279
 21
690.94682162638662
  0
LINE
  8
_6-0_
  6
CONTINUOUS
 62
    7
 10
276.69792042270279
 20
690.94682162638662
 11
276.68807147309786
 21
690.94041042937556
  0
LINE
  8
_6-0_
  6
CONTINUOUS
 62
    7
 10
276.68807147309786
 20
690.94041042937556
 11
276.679555555089
 21
690.93443055224225
  0
LINE
  8
_6-0_
  6
CONTINUOUS
 62
    7
 10
276.679555555089
 20
690.93443055224225
 11
276.67224603932493
 21
690.92898227802721
  0
LINE
  8
_6-0_
  6
CONTINUOUS
 62
    7
 10
276.67224603932493
 20
690.92898227802721
 11
276.66601629645464
 21
690.92416588977153
  0
LINE
  8
_6-0_
  6
CONTINUOUS
 62
    7
 10
276.66601629645464
 20
690.92416588977153
 11
276.66186488327065
 21
690.92091368883473
  0
LINE
  8
_6-0_
  6
CONTINUOUS
 62
    7
 10
276.66186488327065
 20
690.92091368883473
 11
276.65841228342811
 21
690.91817095645388
  0
LINE
  8
_6-0_
  6
CONTINUOUS
 62
    7
 10
276.65841228342811
 20
690.91817095645388
 11
276.65552513052086
 21
690.91583205532152
  0
LINE
  8
_6-0_
  6
CONTINUOUS
 62
    7
 10
276.65552513052086
 20
690.91583205532152
 11
276.65307005814248
 21
690.91379134813099
  0
LINE
  8
_6-0_
  6
CONTINUOUS
 62
    7
 10
276.65307005814248
 20
690.91379134813099
 11
276.65091369988704
 21
690.91194319757517
  0
LINE
  8
_6-0_
  6
CONTINUOUS
 62
    7
 10
276.65091369988704
 20
690.91194319757517
 11
276.64892268934807
 21
690.91018196634707
  0
LINE
  8
_6-0_
  6
CONTINUOUS
 62
    7
 10
276.64892268934807
 20
690.91018196634707
 11
276.64696366011947
 21
690.90840201713957
  0
LINE
  8
_6-0_
  6
CONTINUOUS
 62
    7
 10
276.64696366011947
 20
690.90840201713957
 11
276.64490324579509
 21
690.90649771264589
  0
LINE
  8
_6-0_
  6
CONTINUOUS
 62
    7
 10
276.64490324579509
 20
690.90649771264589
 11
276.64473147331125
 21
690.90633820157905
  0
LINE
  8
_6-0_
  6
CONTINUOUS
 62
    7
 10
276.64473147331125
 20
690.90633820157905
 11
276.6442786185811
 21
690.90591767240289
  0
LINE
  8
_6-0_
  6
CONTINUOUS
 62
    7
 10
276.6442786185811
 20
690.90591767240289
 11
276.64363837568669
 21
690.90532313115375
  0
LINE
  8
_6-0_
  6
CONTINUOUS
 62
    7
 10
276.64363837568669
 20
690.90532313115375
 11
276.64290443871027
 21
690.90464158386817
  0
LINE
  8
_6-0_
  6
CONTINUOUS
 62
    7
 10
276.64290443871027
 20
690.90464158386817
 11
276.64217050173374
 21
690.9039600365827
  0
LINE
  8
_6-0_
  6
CONTINUOUS
 62
    7
 10
276.64217050173374
 20
690.9039600365827
 11
276.6415302588394
 21
690.90336549533367
  0
LINE
  8
_6-0_
  6
CONTINUOUS
 62
    7
 10
276.6415302588394
 20
690.90336549533367
 11
276.6410774041093
 21
690.90294496615741
  0
LINE
  8
_6-0_
  6
CONTINUOUS
 62
    7
 10
276.6410774041093
 20
690.90294496615741
 11
276.6409056316254
 21
690.90278545509045
  0
LINE
  8
_6-0_
  6
CONTINUOUS
 62
    7
 10
277.28758135763542
 20
691.00129708105101
 11
277.58589248817918
 21
691.00129708105101
  0
LINE
  8
_6-0_
  6
CONTINUOUS
 62
    7
 10
277.58589248817918
 20
691.00129708105101
 11
277.88420361872295
 21
691.00129708105101
  0
LINE
  8
_6-0_
  6
CONTINUOUS
 62
    7
 10
277.88420361872295
 20
691.00129708105101
 11
278.18251474926677
 21
691.00129708105101
  0
LINE
  8
_6-0_
  6
CONTINUOUS
 62
    7
 10
278.18251474926677
 20
691.00129708105101
 11
278.4808258798106
 21
691.00129708105101
  0
LINE
  8
_6-0_
  6
CONTINUOUS
 62
    7
 10
278.4808258798106
 20
691.00129708105101
 11
278.77913701035436
 21
691.00129708105101
  0
LINE
  8
_6-0_
  6
CONTINUOUS
 62
    7
 10
278.77913701035436
 20
691.00129708105101
 11
279.07744814089818
 21
691.00129708105101
  0
LINE
  8
_6-0_
  6
CONTINUOUS
 62
    7
 10
279.07744814089818
 20
691.00129708105101
 11
279.37575927144201
 21
691.00129708105101
  0
LINE
  8
_6-0_
  6
CONTINUOUS
 62
    7
 10
279.37575927144201
 20
691.00129708105101
 11
279.67407040198577
 21
691.00129708105101
  0
LINE
  8
_6-0_
  6
CONTINUOUS
 62
    7
 10
279.66471222508352
 20
690.89154684248354
 11
279.67407040198577
 21
691.00129708105101
  0
LINE
  8
_6-0_
  6
CONTINUOUS
 62
    7
 10
279.67407040198577
 20
691.00129708105101
 11
279.67403755993735
 21
691.00090363570246
  0
LINE
  8
_6-0_
  6
CONTINUOUS
 62
    7
 10
279.67403755993735
 20
691.00090363570246
 11
279.67395097635506
 21
690.99986637069264
  0
LINE
  8
_6-0_
  6
CONTINUOUS
 62
    7
 10
279.67395097635506
 20
690.99986637069264
 11
279.67382856508345
 21
690.99839989257498
  0
LINE
  8
_6-0_
  6
CONTINUOUS
 62
    7
 10
279.67382856508345
 20
690.99839989257498
 11
279.6736882399673
 21
690.99671880790379
  0
LINE
  8
_6-0_
  6
CONTINUOUS
 62
    7
 10
279.6736882399673
 20
690.99671880790379
 11
279.67354791485116
 21
690.9950377232326
  0
LINE
  8
_6-0_
  6
CONTINUOUS
 62
    7
 10
279.67354791485116
 20
690.9950377232326
 11
279.67342550357955
 21
690.99357124511516
  0
LINE
  8
_6-0_
  6
CONTINUOUS
 62
    7
 10
279.67342550357955
 20
690.99357124511516
 11
279.67333891999726
 21
690.99253398010524
  0
LINE
  8
_6-0_
  6
CONTINUOUS
 62
    7
 10
279.67333891999726
 20
690.99253398010524
 11
279.67330607794878
 21
690.99214053475657
  0
LINE
  8
_6-0_
  6
CONTINUOUS
 62
    7
 10
279.67330607794878
 20
690.99214053475657
 11
279.67265993677222
 21
690.98446149363554
  0
LINE
  8
_6-0_
  6
CONTINUOUS
 62
    7
 10
279.67265993677222
 20
690.98446149363554
 11
279.67173126747377
 21
690.97350372861774
  0
LINE
  8
_6-0_
  6
CONTINUOUS
 62
    7
 10
279.67173126747377
 20
690.97350372861774
 11
279.67061418519137
 21
690.9603685965011
  0
LINE
  8
_6-0_
  6
CONTINUOUS
 62
    7
 10
279.67061418519137
 20
690.9603685965011
 11
279.66940280506276
 21
690.94615745408362
  0
LINE
  8
_6-0_
  6
CONTINUOUS
 62
    7
 10
279.66940280506276
 20
690.94615745408362
 11
279.66819124222604
 21
690.93197165816321
  0
LINE
  8
_6-0_
  6
CONTINUOUS
 62
    7
 10
279.66819124222604
 20
690.93197165816321
 11
279.66707361181898
 21
690.91891256553765
  0
LINE
  8
_6-0_
  6
CONTINUOUS
 62
    7
 10
279.66707361181898
 20
690.91891256553765
 11
279.66614402897949
 21
690.90808153300497
  0
LINE
  8
_6-0_
  6
CONTINUOUS
 62
    7
 10
279.66614402897949
 20
690.90808153300497
 11
279.66549660884544
 21
690.90057991736307
  0
LINE
  8
_6-0_
  6
CONTINUOUS
 62
    7
 10
279.66549660884544
 20
690.90057991736307
 11
279.66546290485576
 21
690.9001917774267
  0
LINE
  8
_6-0_
  6
CONTINUOUS
 62
    7
 10
279.66546290485576
 20
690.9001917774267
 11
279.66537404888271
 21
690.89916849941324
  0
LINE
  8
_6-0_
  6
CONTINUOUS
 62
    7
 10
279.66537404888271
 20
690.89916849941324
 11
279.66524842492078
 21
690.89772179601459
  0
LINE
  8
_6-0_
  6
CONTINUOUS
 62
    7
 10
279.66524842492078
 20
690.89772179601459
 11
279.66510441696448
 21
690.89606337992336
  0
LINE
  8
_6-0_
  6
CONTINUOUS
 62
    7
 10
279.66510441696448
 20
690.89606337992336
 11
279.66496040900824
 21
690.89440496383213
  0
LINE
  8
_6-0_
  6
CONTINUOUS
 62
    7
 10
279.66496040900824
 20
690.89440496383213
 11
279.66483478504637
 21
690.89295826043349
  0
LINE
  8
_6-0_
  6
CONTINUOUS
 62
    7
 10
279.66483478504637
 20
690.89295826043349
 11
279.66474592907326
 21
690.8919349824198
  0
LINE
  8
_6-0_
  6
CONTINUOUS
 62
    7
 10
279.66474592907326
 20
690.8919349824198
 11
279.66471222508352
 21
690.89154684248354
  0
LINE
  8
_6-0_
  6
CONTINUOUS
 62
    7
 10
279.66471222508096
 20
690.89154684248456
 11
279.92302588668747
 21
691.00129708105101
  0
LINE
  8
_6-0_
  6
CONTINUOUS
 62
    7
 10
279.92302588668747
 20
691.00129708105101
 11
279.91371965696658
 21
691.00116658200136
  0
LINE
  8
_6-0_
  6
CONTINUOUS
 62
    7
 10
279.91371965696658
 20
691.00116658200136
 11
279.90418072768512
 21
691.00073713879738
  0
LINE
  8
_6-0_
  6
CONTINUOUS
 62
    7
 10
279.90418072768512
 20
691.00073713879738
 11
279.89412997466172
 21
690.9999518323566
  0
LINE
  8
_6-0_
  6
CONTINUOUS
 62
    7
 10
279.89412997466172
 20
690.9999518323566
 11
279.88328827371504
 21
690.99875374359704
  0
LINE
  8
_6-0_
  6
CONTINUOUS
 62
    7
 10
279.88328827371504
 20
690.99875374359704
 11
279.87137650066336
 21
690.99708595343623
  0
LINE
  8
_6-0_
  6
CONTINUOUS
 62
    7
 10
279.87137650066336
 20
690.99708595343623
 11
279.85811553132532
 21
690.99489154279229
  0
LINE
  8
_6-0_
  6
CONTINUOUS
 62
    7
 10
279.85811553132532
 20
690.99489154279229
 11
279.84322624151952
 21
690.99211359258243
  0
LINE
  8
_6-0_
  6
CONTINUOUS
 62
    7
 10
279.84322624151952
 20
690.99211359258243
 11
279.8264295070644
 21
690.98869518372476
  0
LINE
  8
_6-0_
  6
CONTINUOUS
 62
    7
 10
279.8264295070644
 20
690.98869518372476
 11
279.81672174531172
 21
690.98534356259631
  0
LINE
  8
_6-0_
  6
CONTINUOUS
 62
    7
 10
279.81672174531172
 20
690.98534356259631
 11
279.80559974080802
 21
690.98112410450403
  0
LINE
  8
_6-0_
  6
CONTINUOUS
 62
    7
 10
279.80559974080802
 20
690.98112410450403
 11
279.79357795227543
 21
690.9762623194913
  0
LINE
  8
_6-0_
  6
CONTINUOUS
 62
    7
 10
279.79357795227543
 20
690.9762623194913
 11
279.78117083843597
 21
690.97098371760217
  0
LINE
  8
_6-0_
  6
CONTINUOUS
 62
    7
 10
279.78117083843597
 20
690.97098371760217
 11
279.76889285801184
 21
690.96551380888002
  0
LINE
  8
_6-0_
  6
CONTINUOUS
 62
    7
 10
279.76889285801184
 20
690.96551380888002
 11
279.75725846972495
 21
690.96007810336823
  0
LINE
  8
_6-0_
  6
CONTINUOUS
 62
    7
 10
279.75725846972495
 20
690.96007810336823
 11
279.74678213229743
 21
690.95490211111041
  0
LINE
  8
_6-0_
  6
CONTINUOUS
 62
    7
 10
279.74678213229743
 20
690.95490211111041
 11
279.73797830445142
 21
690.95021134215017
  0
LINE
  8
_6-0_
  6
CONTINUOUS
 62
    7
 10
279.73797830445142
 20
690.95021134215017
 11
279.72425353975808
 21
690.94057209996413
  0
LINE
  8
_6-0_
  6
CONTINUOUS
 62
    7
 10
279.72425353975808
 20
690.94057209996413
 11
279.71229232511979
 21
690.93190051718011
  0
LINE
  8
_6-0_
  6
CONTINUOUS
 62
    7
 10
279.71229232511979
 20
690.93190051718011
 11
279.70186524333371
 21
690.92404221834408
  0
LINE
  8
_6-0_
  6
CONTINUOUS
 62
    7
 10
279.70186524333371
 20
690.92404221834408
 11
279.69274287719679
 21
690.9168428280019
  0
LINE
  8
_6-0_
  6
CONTINUOUS
 62
    7
 10
279.69274287719679
 20
690.9168428280019
 11
279.68469580950597
 21
690.91014797069897
  0
LINE
  8
_6-0_
  6
CONTINUOUS
 62
    7
 10
279.68469580950597
 20
690.91014797069897
 11
279.67749462305841
 21
690.90380327098137
  0
LINE
  8
_6-0_
  6
CONTINUOUS
 62
    7
 10
279.67749462305841
 20
690.90380327098137
 11
279.67090990065111
 21
690.89765435339461
  0
LINE
  8
_6-0_
  6
CONTINUOUS
 62
    7
 10
279.67090990065111
 20
690.89765435339461
 11
279.66471222508096
 21
690.89154684248456
  0
LINE
  8
_6-0_
  6
CONTINUOUS
 62
    7
 10
280.32299451109236
 20
691.00129708105101
 11
280.62921127260785
 21
691.00129708105101
  0
LINE
  8
_6-0_
  6
CONTINUOUS
 62
    7
 10
280.62921127260785
 20
691.00129708105101
 11
280.93542803412333
 21
691.00129708105101
  0
LINE
  8
_6-0_
  6
CONTINUOUS
 62
    7
 10
280.93542803412333
 20
691.00129708105101
 11
281.24164479563882
 21
691.00129708105101
  0
LINE
  8
_6-0_
  6
CONTINUOUS
 62
    7
 10
281.24164479563882
 20
691.00129708105101
 11
281.54786155715431
 21
691.00129708105101
  0
LINE
  8
_6-0_
  6
CONTINUOUS
 62
    7
 10
281.54786155715431
 20
691.00129708105101
 11
281.85407831866974
 21
691.00129708105101
  0
LINE
  8
_6-0_
  6
CONTINUOUS
 62
    7
 10
281.85407831866974
 20
691.00129708105101
 11
282.16029508018522
 21
691.00129708105101
  0
LINE
  8
_6-0_
  6
CONTINUOUS
 62
    7
 10
282.16029508018522
 20
691.00129708105101
 11
282.46651184170071
 21
691.00129708105101
  0
LINE
  8
_6-0_
  6
CONTINUOUS
 62
    7
 10
282.46651184170071
 20
691.00129708105101
 11
282.77272860321614
 21
691.00129708105101
  0
LINE
  8
_6-0_
  6
CONTINUOUS
 62
    7
 10
282.76337697388101
 20
690.89156079410941
 11
282.77272860321614
 21
691.00129708105101
  0
LINE
  8
_6-0_
  6
CONTINUOUS
 62
    7
 10
282.77272860321614
 20
691.00129708105101
 11
282.77269578685156
 21
691.00090368622455
  0
LINE
  8
_6-0_
  6
CONTINUOUS
 62
    7
 10
282.77269578685156
 20
691.00090368622455
 11
282.77260927098109
 21
690.99986655441
  0
LINE
  8
_6-0_
  6
CONTINUOUS
 62
    7
 10
282.77260927098109
 20
690.99986655441
 11
282.77248695544017
 21
690.99840026460299
  0
LINE
  8
_6-0_
  6
CONTINUOUS
 62
    7
 10
282.77248695544017
 20
690.99840026460299
 11
282.77234674006394
 21
690.9967193957998
  0
LINE
  8
_6-0_
  6
CONTINUOUS
 62
    7
 10
282.77234674006394
 20
690.9967193957998
 11
282.77220652468776
 21
690.9950385269965
  0
LINE
  8
_6-0_
  6
CONTINUOUS
 62
    7
 10
282.77220652468776
 20
690.9950385269965
 11
282.77208420914684
 21
690.99357223718948
  0
LINE
  8
_6-0_
  6
CONTINUOUS
 62
    7
 10
282.77208420914684
 20
690.99357223718948
 11
282.77199769327638
 21
690.99253510537483
  0
LINE
  8
_6-0_
  6
CONTINUOUS
 62
    7
 10
282.77199769327638
 20
690.99253510537483
 11
282.7719648769118
 21
690.99214171054859
  0
LINE
  8
_6-0_
  6
CONTINUOUS
 62
    7
 10
282.7719648769118
 20
690.99214171054859
 11
282.77131922303533
 21
690.98446366047688
  0
LINE
  8
_6-0_
  6
CONTINUOUS
 62
    7
 10
282.77131922303533
 20
690.98446366047688
 11
282.77039122935355
 21
690.97350729921141
  0
LINE
  8
_6-0_
  6
CONTINUOUS
 62
    7
 10
282.77039122935355
 20
690.97350729921141
 11
282.76927494488336
 21
690.96037384349984
  0
LINE
  8
_6-0_
  6
CONTINUOUS
 62
    7
 10
282.76927494488336
 20
690.96037384349984
 11
282.7680644186413
 21
690.94616451008949
  0
LINE
  8
_6-0_
  6
CONTINUOUS
 62
    7
 10
282.7680644186413
 20
690.94616451008949
 11
282.76685369964423
 21
690.93198051572813
  0
LINE
  8
_6-0_
  6
CONTINUOUS
 62
    7
 10
282.76685369964423
 20
690.93198051572813
 11
282.76573683690901
 21
690.91892307716307
  0
LINE
  8
_6-0_
  6
CONTINUOUS
 62
    7
 10
282.76573683690901
 20
690.91892307716307
 11
282.76480787945229
 21
690.90809341114209
  0
LINE
  8
_6-0_
  6
CONTINUOUS
 62
    7
 10
282.76480787945229
 20
690.90809341114209
 11
282.76416087629087
 21
690.90059273441227
  0
LINE
  8
_6-0_
  6
CONTINUOUS
 62
    7
 10
282.76416087629087
 20
690.90059273441227
 11
282.76412719298423
 21
690.90020464322743
  0
LINE
  8
_6-0_
  6
CONTINUOUS
 62
    7
 10
282.76412719298423
 20
690.90020464322743
 11
282.76403839153937
 21
690.89918149374
  0
LINE
  8
_6-0_
  6
CONTINUOUS
 62
    7
 10
282.76403839153937
 20
690.89918149374
 11
282.76391284466905
 21
690.89773497205078
  0
LINE
  8
_6-0_
  6
CONTINUOUS
 62
    7
 10
282.76391284466905
 20
690.89773497205078
 11
282.76376892508597
 21
690.8960767642609
  0
LINE
  8
_6-0_
  6
CONTINUOUS
 62
    7
 10
282.76376892508597
 20
690.8960767642609
 11
282.76362500550283
 21
690.89441855647101
  0
LINE
  8
_6-0_
  6
CONTINUOUS
 62
    7
 10
282.76362500550283
 20
690.89441855647101
 11
282.76349945863251
 21
690.89297203478179
  0
LINE
  8
_6-0_
  6
CONTINUOUS
 62
    7
 10
282.76349945863251
 20
690.89297203478179
 11
282.76341065718771
 21
690.89194888529448
  0
LINE
  8
_6-0_
  6
CONTINUOUS
 62
    7
 10
282.76341065718771
 20
690.89194888529448
 11
282.76337697388101
 21
690.89156079410941
  0
LINE
  8
_6-0_
  6
CONTINUOUS
 62
    7
 10
282.76337697387839
 20
690.89156079411043
 11
283.02167681417484
 21
691.00129708105101
  0
LINE
  8
_6-0_
  6
CONTINUOUS
 62
    7
 10
283.02167681417484
 20
691.00129708105101
 11
283.01237124372778
 21
691.00116660036065
  0
LINE
  8
_6-0_
  6
CONTINUOUS
 62
    7
 10
283.01237124372778
 20
691.00116660036065
 11
283.00283298625152
 21
691.00073721756416
  0
LINE
  8
_6-0_
  6
CONTINUOUS
 62
    7
 10
283.00283298625152
 20
691.00073721756416
 11
282.99278293662354
 21
690.99995202157311
  0
LINE
  8
_6-0_
  6
CONTINUOUS
 62
    7
 10
282.99278293662354
 20
690.99995202157311
 11
282.98194198972118
 21
690.99875410129971
  0
LINE
  8
_6-0_
  6
CONTINUOUS
 62
    7
 10
282.98194198972118
 20
690.99875410129971
 11
282.97003104042204
 21
690.99708654565552
  0
LINE
  8
_6-0_
  6
CONTINUOUS
 62
    7
 10
282.97003104042204
 20
690.99708654565552
 11
282.95677098360341
 21
690.99489244355243
  0
LINE
  8
_6-0_
  6
CONTINUOUS
 62
    7
 10
282.95677098360341
 20
690.99489244355243
 11
282.94188271414276
 21
690.9921148839021
  0
LINE
  8
_6-0_
  6
CONTINUOUS
 62
    7
 10
282.94188271414276
 20
690.9921148839021
 11
282.92508712691756
 21
690.98869695561666
  0
LINE
  8
_6-0_
  6
CONTINUOUS
 62
    7
 10
282.92508712691756
 20
690.98869695561666
 11
282.91537996751867
 21
690.98534579645616
  0
LINE
  8
_6-0_
  6
CONTINUOUS
 62
    7
 10
282.91537996751867
 20
690.98534579645616
 11
282.90425862326526
 21
690.98112690946641
  0
LINE
  8
_6-0_
  6
CONTINUOUS
 62
    7
 10
282.90425862326526
 20
690.98112690946641
 11
282.8922375263341
 21
690.97626577552251
  0
LINE
  8
_6-0_
  6
CONTINUOUS
 62
    7
 10
282.8922375263341
 20
690.97626577552251
 11
282.87983110890207
 21
690.9709878754993
  0
LINE
  8
_6-0_
  6
CONTINUOUS
 62
    7
 10
282.87983110890207
 20
690.9709878754993
 11
282.86755380314617
 21
690.96551869027144
  0
LINE
  8
_6-0_
  6
CONTINUOUS
 62
    7
 10
282.86755380314617
 20
690.96551869027144
 11
282.85592004124317
 21
690.96008370071388
  0
LINE
  8
_6-0_
  6
CONTINUOUS
 62
    7
 10
282.85592004124317
 20
690.96008370071388
 11
282.84544425537007
 21
690.95490838770161
  0
LINE
  8
_6-0_
  6
CONTINUOUS
 62
    7
 10
282.84544425537007
 20
690.95490838770161
 11
282.83664087770376
 21
690.95021823210959
  0
LINE
  8
_6-0_
  6
CONTINUOUS
 62
    7
 10
282.83664087770376
 20
690.95021823210959
 11
282.82291669637289
 21
690.94058023941204
  0
LINE
  8
_6-0_
  6
CONTINUOUS
 62
    7
 10
282.82291669637289
 20
690.94058023941204
 11
282.8109559396824
 21
690.93190974931167
  0
LINE
  8
_6-0_
  6
CONTINUOUS
 62
    7
 10
282.8109559396824
 20
690.93190974931167
 11
282.80052920864813
 21
690.92405241235952
  0
LINE
  8
_6-0_
  6
CONTINUOUS
 62
    7
 10
282.80052920864813
 20
690.92405241235952
 11
282.79140710428601
 21
690.91685387910684
  0
LINE
  8
_6-0_
  6
CONTINUOUS
 62
    7
 10
282.79140710428601
 20
690.91685387910684
 11
282.78336022761209
 21
690.91015980010457
  0
LINE
  8
_6-0_
  6
CONTINUOUS
 62
    7
 10
282.78336022761209
 20
690.91015980010457
 11
282.77615917964221
 21
690.90381582590362
  0
LINE
  8
_6-0_
  6
CONTINUOUS
 62
    7
 10
282.77615917964221
 20
690.90381582590362
 11
282.76957456139229
 21
690.89766760705527
  0
LINE
  8
_6-0_
  6
CONTINUOUS
 62
    7
 10
282.76957456139229
 20
690.89766760705527
 11
282.76337697387839
 21
690.89156079411043
  0
LINE
  8
_6-0_
  6
CONTINUOUS
 62
    7
 10
276.64090563163006
 20
690.90278545509307
 11
276.50818608904842
 21
690.58449127363906
  0
LINE
  8
_6-0_
  6
CONTINUOUS
 62
    7
 10
276.50818608904842
 20
690.58449127363906
 11
276.50818608904842
 21
690.58508822607212
  0
LINE
  8
_6-0_
  6
CONTINUOUS
 62
    7
 10
276.50818608904842
 20
690.58508822607212
 11
276.50818608904842
 21
690.58666200975904
  0
LINE
  8
_6-0_
  6
CONTINUOUS
 62
    7
 10
276.50818608904842
 20
690.58666200975904
 11
276.50818608904842
 21
690.58888701428202
  0
LINE
  8
_6-0_
  6
CONTINUOUS
 62
    7
 10
276.50818608904842
 20
690.58888701428202
 11
276.50818608904842
 21
690.59143762922315
  0
LINE
  8
_6-0_
  6
CONTINUOUS
 62
    7
 10
276.50818608904842
 20
690.59143762922315
 11
276.50818608904842
 21
690.59398824416417
  0
LINE
  8
_6-0_
  6
CONTINUOUS
 62
    7
 10
276.50818608904842
 20
690.59398824416417
 11
276.50818608904842
 21
690.59621324868715
  0
LINE
  8
_6-0_
  6
CONTINUOUS
 62
    7
 10
276.50818608904842
 20
690.59621324868715
 11
276.50818608904842
 21
690.59778703237407
  0
LINE
  8
_6-0_
  6
CONTINUOUS
 62
    7
 10
276.50818608904842
 20
690.59778703237407
 11
276.50818608904842
 21
690.59838398480724
  0
LINE
  8
_6-0_
  6
CONTINUOUS
 62
    7
 10
276.50818608904842
 20
690.59838398480724
 11
276.50869839720224
 21
690.61212668022631
  0
LINE
  8
_6-0_
  6
CONTINUOUS
 62
    7
 10
276.50869839720224
 20
690.61212668022631
 11
276.51009419449849
 21
690.6274065441936
  0
LINE
  8
_6-0_
  6
CONTINUOUS
 62
    7
 10
276.51009419449849
 20
690.6274065441936
 11
276.5121617901894
 21
690.6434772145866
  0
LINE
  8
_6-0_
  6
CONTINUOUS
 62
    7
 10
276.5121617901894
 20
690.6434772145866
 11
276.51468949352704
 21
690.65959232928299
  0
LINE
  8
_6-0_
  6
CONTINUOUS
 62
    7
 10
276.51468949352704
 20
690.65959232928299
 11
276.51746561376353
 21
690.67500552616048
  0
LINE
  8
_6-0_
  6
CONTINUOUS
 62
    7
 10
276.51746561376353
 20
690.67500552616048
 11
276.5202784601513
 21
690.68897044309688
  0
LINE
  8
_6-0_
  6
CONTINUOUS
 62
    7
 10
276.5202784601513
 20
690.68897044309688
 11
276.52291634194222
 21
690.70074071796989
  0
LINE
  8
_6-0_
  6
CONTINUOUS
 62
    7
 10
276.52291634194222
 20
690.70074071796989
 11
276.52516756838855
 21
690.70956998865677
  0
LINE
  8
_6-0_
  6
CONTINUOUS
 62
    7
 10
276.52516756838855
 20
690.70956998865677
 11
276.52794154801649
 21
690.71939494978847
  0
LINE
  8
_6-0_
  6
CONTINUOUS
 62
    7
 10
276.52794154801649
 20
690.71939494978847
 11
276.53138275815542
 21
690.73078947680585
  0
LINE
  8
_6-0_
  6
CONTINUOUS
 62
    7
 10
276.53138275815542
 20
690.73078947680585
 11
276.53574510890707
 21
690.74373371290278
  0
LINE
  8
_6-0_
  6
CONTINUOUS
 62
    7
 10
276.53574510890707
 20
690.74373371290278
 11
276.54128251037275
 21
690.75820780127344
  0
LINE
  8
_6-0_
  6
CONTINUOUS
 62
    7
 10
276.54128251037275
 20
690.75820780127344
 11
276.54824887265414
 21
690.77419188511146
  0
LINE
  8
_6-0_
  6
CONTINUOUS
 62
    7
 10
276.54824887265414
 20
690.77419188511146
 11
276.55689810585272
 21
690.79166610761092
  0
LINE
  8
_6-0_
  6
CONTINUOUS
 62
    7
 10
276.55689810585272
 20
690.79166610761092
 11
276.56748412006993
 21
690.8106106119659
  0
LINE
  8
_6-0_
  6
CONTINUOUS
 62
    7
 10
276.56748412006993
 20
690.8106106119659
 11
276.58026082540738
 21
690.8310055413699
  0
LINE
  8
_6-0_
  6
CONTINUOUS
 62
    7
 10
276.58026082540738
 20
690.8310055413699
 11
276.58836793924507
 21
690.84309933280178
  0
LINE
  8
_6-0_
  6
CONTINUOUS
 62
    7
 10
276.58836793924507
 20
690.84309933280178
 11
276.59540444382412
 21
690.85321227363465
  0
LINE
  8
_6-0_
  6
CONTINUOUS
 62
    7
 10
276.59540444382412
 20
690.85321227363465
 11
276.60162216354757
 21
690.86169513672928
  0
LINE
  8
_6-0_
  6
CONTINUOUS
 62
    7
 10
276.60162216354757
 20
690.86169513672928
 11
276.60727292281825
 21
690.86889869494587
  0
LINE
  8
_6-0_
  6
CONTINUOUS
 62
    7
 10
276.60727292281825
 20
690.86889869494587
 11
276.61260854603916
 21
690.87517372114519
  0
LINE
  8
_6-0_
  6
CONTINUOUS
 62
    7
 10
276.61260854603916
 20
690.87517372114519
 11
276.61788085761322
 21
690.88087098818789
  0
LINE
  8
_6-0_
  6
CONTINUOUS
 62
    7
 10
276.61788085761322
 20
690.88087098818789
 11
276.62334168194332
 21
690.88634126893453
  0
LINE
  8
_6-0_
  6
CONTINUOUS
 62
    7
 10
276.62334168194332
 20
690.88634126893453
 11
276.62924284343256
 21
690.89193533624575
  0
LINE
  8
_6-0_
  6
CONTINUOUS
 62
    7
 10
276.62924284343256
 20
690.89193533624575
 11
276.62974397886285
 21
690.89240155228993
  0
LINE
  8
_6-0_
  6
CONTINUOUS
 62
    7
 10
276.62974397886285
 20
690.89240155228993
 11
276.63106515408845
 21
690.89363066731585
  0
LINE
  8
_6-0_
  6
CONTINUOUS
 62
    7
 10
276.63106515408845
 20
690.89363066731585
 11
276.63293302251066
 21
690.89536838166225
  0
LINE
  8
_6-0_
  6
CONTINUOUS
 62
    7
 10
276.63293302251066
 20
690.89536838166225
 11
276.63507423753123
 21
690.89736039566947
  0
LINE
  8
_6-0_
  6
CONTINUOUS
 62
    7
 10
276.63507423753123
 20
690.89736039566947
 11
276.63721545255191
 21
690.89935240967645
  0
LINE
  8
_6-0_
  6
CONTINUOUS
 62
    7
 10
276.63721545255191
 20
690.89935240967645
 11
276.63908332097424
 21
690.90109012402309
  0
LINE
  8
_6-0_
  6
CONTINUOUS
 62
    7
 10
276.63908332097424
 20
690.90109012402309
 11
276.64040449619966
 21
690.90231923904878
  0
LINE
  8
_6-0_
  6
CONTINUOUS
 62
    7
 10
276.64040449619966
 20
690.90231923904878
 11
276.64090563163006
 21
690.90278545509307
  0
LINE
  8
_6-0_
  6
CONTINUOUS
 62
    7
 10
275.30666838247248
 20
694.29403985031354
 11
275.28968558182953
 21
694.28423472463101
  0
LINE
  8
_6-0_
  6
CONTINUOUS
 62
    7
 10
275.28968558182953
 20
694.28423472463101
 11
275.2449127437709
 21
694.25838484783162
  0
LINE
  8
_6-0_
  6
CONTINUOUS
 62
    7
 10
275.2449127437709
 20
694.25838484783162
 11
275.1816132141019
 21
694.22183847028737
  0
LINE
  8
_6-0_
  6
CONTINUOUS
 62
    7
 10
275.1816132141019
 20
694.22183847028737
 11
275.10905033862764
 21
694.17994384237068
  0
LINE
  8
_6-0_
  6
CONTINUOUS
 62
    7
 10
275.10905033862764
 20
694.17994384237068
 11
275.03648746315326
 21
694.13804921445421
  0
LINE
  8
_6-0_
  6
CONTINUOUS
 62
    7
 10
275.03648746315326
 20
694.13804921445421
 11
274.97318793348427
 21
694.10150283690996
  0
LINE
  8
_6-0_
  6
CONTINUOUS
 62
    7
 10
274.97318793348427
 20
694.10150283690996
 11
274.92841509542563
 21
694.07565296011057
  0
LINE
  8
_6-0_
  6
CONTINUOUS
 62
    7
 10
274.92841509542563
 20
694.07565296011057
 11
274.91143229478274
 21
694.06584783442781
  0
LINE
  8
_6-0_
  6
CONTINUOUS
 62
    7
 10
274.91143229478274
 20
694.06584783442781
 11
274.81262327286032
 21
694.00879983045638
  0
LINE
  8
_6-0_
  6
CONTINUOUS
 62
    7
 10
274.81262327286032
 20
694.00879983045638
 11
274.7138142509379
 21
693.95175182648495
  0
LINE
  8
_6-0_
  6
CONTINUOUS
 62
    7
 10
274.7138142509379
 20
693.95175182648495
 11
274.61500522901537
 21
693.89470382251352
  0
LINE
  8
_6-0_
  6
CONTINUOUS
 62
    7
 10
274.61500522901537
 20
693.89470382251352
 11
274.51619620709289
 21
693.83765581854209
  0
LINE
  8
_6-0_
  6
CONTINUOUS
 62
    7
 10
274.51619620709289
 20
693.83765581854209
 11
274.41738718517047
 21
693.78060781457066
  0
LINE
  8
_6-0_
  6
CONTINUOUS
 62
    7
 10
274.41738718517047
 20
693.78060781457066
 11
274.31857816324793
 21
693.72355981059911
  0
LINE
  8
_6-0_
  6
CONTINUOUS
 62
    7
 10
274.31857816324793
 20
693.72355981059911
 11
274.2197691413254
 21
693.66651180662768
  0
LINE
  8
_6-0_
  6
CONTINUOUS
 62
    7
 10
274.2197691413254
 20
693.66651180662768
 11
274.12096011940287
 21
693.60946380265614
  0
LINE
  8
_6-0_
  6
CONTINUOUS
 62
    7
 10
274.12096011940287
 20
693.60946380265614
 11
274.10397731875997
 21
693.5996586769736
  0
LINE
  8
_6-0_
  6
CONTINUOUS
 62
    7
 10
274.10397731875997
 20
693.5996586769736
 11
274.05920448070128
 21
693.57380880017422
  0
LINE
  8
_6-0_
  6
CONTINUOUS
 62
    7
 10
274.05920448070128
 20
693.57380880017422
 11
273.99590495103217
 21
693.53726242262974
  0
LINE
  8
_6-0_
  6
CONTINUOUS
 62
    7
 10
273.99590495103217
 20
693.53726242262974
 11
273.92334207555785
 21
693.49536779471327
  0
LINE
  8
_6-0_
  6
CONTINUOUS
 62
    7
 10
273.92334207555785
 20
693.49536779471327
 11
273.85077920008348
 21
693.45347316679658
  0
LINE
  8
_6-0_
  6
CONTINUOUS
 62
    7
 10
273.85077920008348
 20
693.45347316679658
 11
273.78747967041431
 21
693.41692678925244
  0
LINE
  8
_6-0_
  6
CONTINUOUS
 62
    7
 10
273.78747967041431
 20
693.41692678925244
 11
273.74270683235574
 21
693.39107691245295
  0
LINE
  8
_6-0_
  6
CONTINUOUS
 62
    7
 10
273.74270683235574
 20
693.39107691245295
 11
273.72572403171273
 21
693.3812717867703
  0
LINE
  8
_6-0_
  6
CONTINUOUS
 62
    7
 10
273.72572403171284
 20
690.63474374439511
 11
273.74270683235574
 21
690.62493861871246
  0
LINE
  8
_6-0_
  6
CONTINUOUS
 62
    7
 10
273.74270683235574
 20
690.62493861871246
 11
273.78747967041443
 21
690.59908874191296
  0
LINE
  8
_6-0_
  6
CONTINUOUS
 62
    7
 10
273.78747967041443
 20
690.59908874191296
 11
273.85077920008348
 21
690.56254236436871
  0
LINE
  8
_6-0_
  6
CONTINUOUS
 62
    7
 10
273.85077920008348
 20
690.56254236436871
 11
273.92334207555785
 21
690.52064773645213
  0
LINE
  8
_6-0_
  6
CONTINUOUS
 62
    7
 10
273.92334207555785
 20
690.52064773645213
 11
273.99590495103217
 21
690.47875310853556
  0
LINE
  8
_6-0_
  6
CONTINUOUS
 62
    7
 10
273.99590495103217
 20
690.47875310853556
 11
274.05920448070134
 21
690.4422067309913
  0
LINE
  8
_6-0_
  6
CONTINUOUS
 62
    7
 10
274.05920448070134
 20
690.4422067309913
 11
274.10397731875997
 21
690.41635685419169
  0
LINE
  8
_6-0_
  6
CONTINUOUS
 62
    7
 10
274.10397731875997
 20
690.41635685419169
 11
274.12096011940287
 21
690.40655172850904
  0
LINE
  8
_6-0_
  6
CONTINUOUS
 62
    7
 10
274.12096011940287
 20
690.40655172850904
 11
274.2197691413254
 21
690.34950372453761
  0
LINE
  8
_6-0_
  6
CONTINUOUS
 62
    7
 10
274.2197691413254
 20
690.34950372453761
 11
274.31857816324793
 21
690.29245572056629
  0
LINE
  8
_6-0_
  6
CONTINUOUS
 62
    7
 10
274.31857816324793
 20
690.29245572056629
 11
274.41738718517047
 21
690.23540771659464
  0
LINE
  8
_6-0_
  6
CONTINUOUS
 62
    7
 10
274.41738718517047
 20
690.23540771659464
 11
274.51619620709295
 21
690.17835971262332
  0
LINE
  8
_6-0_
  6
CONTINUOUS
 62
    7
 10
274.51619620709295
 20
690.17835971262332
 11
274.61500522901537
 21
690.12131170865189
  0
LINE
  8
_6-0_
  6
CONTINUOUS
 62
    7
 10
274.61500522901537
 20
690.12131170865189
 11
274.7138142509379
 21
690.06426370468034
  0
LINE
  8
_6-0_
  6
CONTINUOUS
 62
    7
 10
274.7138142509379
 20
690.06426370468034
 11
274.81262327286032
 21
690.00721570070891
  0
LINE
  8
_6-0_
  6
CONTINUOUS
 62
    7
 10
274.81262327286032
 20
690.00721570070891
 11
274.91143229478274
 21
689.95016769673748
  0
LINE
  8
_6-0_
  6
CONTINUOUS
 62
    7
 10
274.91143229478274
 20
689.95016769673748
 11
274.92841509542575
 21
689.94036257105495
  0
LINE
  8
_6-0_
  6
CONTINUOUS
 62
    7
 10
274.92841509542575
 20
689.94036257105495
 11
274.97318793348427
 21
689.91451269425534
  0
LINE
  8
_6-0_
  6
CONTINUOUS
 62
    7
 10
274.97318793348427
 20
689.91451269425534
 11
275.03648746315332
 21
689.87796631671108
  0
LINE
  8
_6-0_
  6
CONTINUOUS
 62
    7
 10
275.03648746315332
 20
689.87796631671108
 11
275.10905033862764
 21
689.83607168879462
  0
LINE
  8
_6-0_
  6
CONTINUOUS
 62
    7
 10
275.10905033862764
 20
689.83607168879462
 11
275.1816132141019
 21
689.79417706087816
  0
LINE
  8
_6-0_
  6
CONTINUOUS
 62
    7
 10
275.1816132141019
 20
689.79417706087816
 11
275.24491274377101
 21
689.7576306833339
  0
LINE
  8
_6-0_
  6
CONTINUOUS
 62
    7
 10
275.24491274377101
 20
689.7576306833339
 11
275.28968558182953
 21
689.7317808065344
  0
LINE
  8
_6-0_
  6
CONTINUOUS
 62
    7
 10
275.28968558182953
 20
689.7317808065344
 11
275.30666838247248
 21
689.72197568085176
  0
LINE
  8
_6-0_
  6
CONTINUOUS
 62
    7
 10
275.30666843693973
 20
693.01471849364611
 11
275.30666843693973
 21
692.26095900797998
  0
LINE
  8
_6-0_
  6
CONTINUOUS
 62
    7
 10
277.28758127420792
 20
693.014718493646
 11
276.88761278769857
 21
693.014718493646
  0
LINE
  8
_6-0_
  6
CONTINUOUS
 62
    7
 10
280.32299442766492
 20
693.014718493646
 11
279.92302594115563
 21
693.014718493646
  0
LINE
  8
_6-0_
  6
CONTINUOUS
 62
    7
 10
273.72572408618089
 20
693.01471849364611
 11
273.72572408618089
 21
692.26095900797998
  0
LINE
  8
_6-0_
  6
CONTINUOUS
 62
    7
 10
273.72572408618089
 20
693.38127182416883
 11
273.72572408618089
 21
693.01471849364611
  0
LINE
  8
_6-0_
  6
CONTINUOUS
 62
    7
 10
273.72572408618089
 20
691.75505681573713
 11
273.72572408618089
 21
691.00129701388232
  0
LINE
  8
_6-0_
  6
CONTINUOUS
 62
    7
 10
276.950850561729
 20
692.26095900797998
 11
276.950850561729
 21
691.75505681573713
  0
LINE
  8
_6-0_
  6
CONTINUOUS
 62
    7
 10
275.30666843693973
 20
691.75505681573713
 11
275.30666843693973
 21
691.00129701388232
  0
LINE
  8
_6-0_
  6
CONTINUOUS
 62
    7
 10
276.88761278769857
 20
691.00129701388209
 11
277.28758127420792
 21
691.00129701388209
  0
LINE
  8
_6-0_
  6
CONTINUOUS
 62
    7
 10
279.92302594115563
 20
691.00129701388209
 11
280.32299442766492
 21
691.00129701388209
  0
LINE
  8
_6-0_
  6
CONTINUOUS
 62
    7
 10
277.45675275397173
 20
692.26095900797998
 11
277.45675275397173
 21
691.75505681573713
  0
LINE
  8
_6-0_
  6
CONTINUOUS
 62
    7
 10
292.45664854991668
 20
690.30800791185857
 11
302.62572408618092
 21
690.30800791185857
  0
LINE
  8
_6-0_
  6
CONTINUOUS
 62
    7
 10
292.45664854991668
 20
693.70800791185843
 11
302.62572408618092
 21
693.70800791185843
  0
LINE
  8
_6-0_
  6
CONTINUOUS
 62
    7
 10
285.73945684500836
 20
694.50589946601372
 11
296.42572408618094
 21
694.50589946601372
  0
LINE
  8
_6-0_
  6
CONTINUOUS
 62
    7
 10
285.7409010974801
 20
689.5101153176156
 11
296.42572408618088
 21
689.5101153176156
  0
LINE
  8
_6-0_
  6
CONTINUOUS
 62
    7
 10
285.74092862041505
 20
693.4314226334609
 11
285.74092862041505
 21
692.26095900797998
  0
LINE
  8
_6-0_
  6
CONTINUOUS
 62
    7
 10
285.74092862041505
 20
690.58459262188444
 11
285.74092862041505
 21
691.75505681573691
  0
LINE
  8
_6-0_
  6
CONTINUOUS
 62
    7
 10
302.22572408618089
 20
686.60800791185852
 11
303.62572408618092
 21
687.55800791185845
  0
LINE
  8
_6-0_
  6
CONTINUOUS
 62
    7
 10
303.62572408618092
 20
696.45800791185843
 11
303.62572408618092
 21
687.55800791185845
  0
LINE
  8
_6-0_
  6
CONTINUOUS
 62
    7
 10
302.22572408618089
 20
697.40800791185848
 11
303.62572408618092
 21
696.45800791185843
  0
LINE
  8
_6-0_
  6
CONTINUOUS
 62
    7
 10
302.22572408618089
 20
697.40800791185848
 11
302.22572408618089
 21
686.60800791185852
  0
LINE
  8
_6-0_
  6
CONTINUOUS
 62
    7
 10
302.62572408618092
 20
693.70800791185843
 11
302.62572408618092
 21
690.30800791185857
  0
LINE
  8
_6-0_
  6
CONTINUOUS
 62
    7
 10
302.62572408618092
 20
690.30800791185857
 11
303.62572408618092
 21
689.05800791185857
  0
LINE
  8
_6-0_
  6
CONTINUOUS
 62
    7
 10
303.62572408618092
 20
694.95800791185843
 11
302.62572408618092
 21
693.70800791185843
  0
LINE
  8
_6-0_
  6
CONTINUOUS
 62
    7
 10
297.87241526265143
 20
690.30800791185834
 11
297.32572408618091
 21
690.36787103585198
  0
LINE
  8
_6-0_
  6
CONTINUOUS
 62
    7
 10
288.87572408618087
 20
693.68300791185857
 11
287.98895938029852
 21
693.58300791185854
  0
LINE
  8
_6-0_
  6
CONTINUOUS
 62
    7
 10
287.08895938029855
 20
693.58300791185854
 11
287.97572408618089
 21
693.68300791185857
  0
LINE
  8
_6-0_
  6
CONTINUOUS
 62
    7
 10
286.18895938029857
 20
693.58300791185854
 11
287.07572408618091
 21
693.68300791185857
  0
LINE
  8
_6-0_
  6
CONTINUOUS
 62
    7
 10
286.17572408618094
 20
693.68300791185857
 11
285.28895938029854
 21
693.58300791185854
  0
LINE
  8
_6-0_
  6
CONTINUOUS
 62
    7
 10
285.2757240861809
 20
693.68300791185857
 11
284.38895938029862
 21
693.58300791185854
  0
LINE
  8
_6-0_
  6
CONTINUOUS
 62
    7
 10
283.48895938029864
 20
693.58300791185854
 11
284.37572408618098
 21
693.68300791185857
  0
LINE
  8
_6-0_
  6
CONTINUOUS
 62
    7
 10
282.58895938029866
 20
693.58300791185854
 11
283.475724086181
 21
693.68300791185857
  0
LINE
  8
_6-0_
  6
CONTINUOUS
 62
    7
 10
282.57572408618103
 20
693.68300791185857
 11
281.68895938029868
 21
693.58300791185854
  0
LINE
  8
_6-0_
  6
CONTINUOUS
 62
    7
 10
280.78895938029865
 20
693.58300791185854
 11
281.67572408618105
 21
693.68300791185857
  0
LINE
  8
_6-0_
  6
CONTINUOUS
 62
    7
 10
279.88895938029873
 20
693.58300791185854
 11
280.77572408618101
 21
693.68300791185857
  0
LINE
  8
_6-0_
  6
CONTINUOUS
 62
    7
 10
278.98895938029864
 20
693.58300791185854
 11
279.77572408618073
 21
693.67173096326815
  0
LINE
  8
_6-0_
  6
CONTINUOUS
 62
    7
 10
274.48895938029852
 20
693.58300791185854
 11
275.37572408618081
 21
693.68300791185857
  0
LINE
  8
_6-0_
  6
CONTINUOUS
 62
    7
 10
275.3889593802985
 20
693.58300791185854
 11
276.27572408618084
 21
693.68300791185857
  0
LINE
  8
_6-0_
  6
CONTINUOUS
 62
    7
 10
275.37572408618087
 20
693.68300791185857
 11
275.82572408618068
 21
690.28300791185859
  0
LINE
  8
_6-0_
  6
CONTINUOUS
 62
    7
 10
276.28895938029859
 20
693.58300791185854
 11
277.17572408618088
 21
693.68300791185857
  0
LINE
  8
_6-0_
  6
CONTINUOUS
 62
    7
 10
276.27572408618096
 20
693.68300791185857
 11
276.72572408618072
 21
690.28300791185859
  0
LINE
  8
_6-0_
  6
CONTINUOUS
 62
    7
 10
277.18895938029857
 20
693.58300791185854
 11
278.07572408618091
 21
693.68300791185857
  0
LINE
  8
_6-0_
  6
CONTINUOUS
 62
    7
 10
277.17572408618094
 20
693.68300791185857
 11
277.62572408618075
 21
690.28300791185859
  0
LINE
  8
_6-0_
  6
CONTINUOUS
 62
    7
 10
278.08895938029866
 20
693.58300791185854
 11
278.97572408618095
 21
693.68300791185857
  0
LINE
  8
_6-0_
  6
CONTINUOUS
 62
    7
 10
275.82241526265142
 20
690.30800791185834
 11
274.90917996853369
 21
690.40800791185825
  0
LINE
  8
_6-0_
  6
CONTINUOUS
 62
    7
 10
276.72241526265145
 20
690.30800791185834
 11
275.80917996853373
 21
690.40800791185825
  0
LINE
  8
_6-0_
  6
CONTINUOUS
 62
    7
 10
277.62241526265149
 20
690.30800791185834
 11
276.70917996853376
 21
690.40800791185825
  0
LINE
  8
_6-0_
  6
CONTINUOUS
 62
    7
 10
288.87572408618087
 20
693.68300791185857
 11
289.3224152626513
 21
690.30800791185834
  0
LINE
  8
_6-0_
  6
CONTINUOUS
 62
    7
 10
288.40917996853375
 20
690.40800791185825
 11
289.3224152626513
 21
690.30800791185834
  0
LINE
  8
_6-0_
  6
CONTINUOUS
 62
    7
 10
287.97572408618089
 20
693.68300791185857
 11
288.42241526265138
 21
690.30800791185834
  0
LINE
  8
_6-0_
  6
CONTINUOUS
 62
    7
 10
287.50917996853366
 20
690.40800791185825
 11
288.42241526265138
 21
690.30800791185834
  0
LINE
  8
_6-0_
  6
CONTINUOUS
 62
    7
 10
287.07572408618091
 20
693.68300791185857
 11
287.52241526265129
 21
690.30800791185834
  0
LINE
  8
_6-0_
  6
CONTINUOUS
 62
    7
 10
286.60917996853385
 20
690.40800791185825
 11
287.52241526265129
 21
690.30800791185834
  0
LINE
  8
_6-0_
  6
CONTINUOUS
 62
    7
 10
286.17572408618094
 20
693.68300791185857
 11
286.62241526265149
 21
690.30800791185834
  0
LINE
  8
_6-0_
  6
CONTINUOUS
 62
    7
 10
285.70917996853376
 20
690.40800791185825
 11
286.62241526265149
 21
690.30800791185834
  0
LINE
  8
_6-0_
  6
CONTINUOUS
 62
    7
 10
285.2757240861809
 20
693.68300791185857
 11
285.7224152626514
 21
690.30800791185834
  0
LINE
  8
_6-0_
  6
CONTINUOUS
 62
    7
 10
284.80917996853384
 20
690.40800791185825
 11
285.7224152626514
 21
690.30800791185834
  0
LINE
  8
_6-0_
  6
CONTINUOUS
 62
    7
 10
284.37572408618098
 20
693.68300791185857
 11
284.82241526265148
 21
690.30800791185834
  0
LINE
  8
_6-0_
  6
CONTINUOUS
 62
    7
 10
283.90917996853381
 20
690.40800791185825
 11
284.82241526265148
 21
690.30800791185834
  0
LINE
  8
_6-0_
  6
CONTINUOUS
 62
    7
 10
283.475724086181
 20
693.68300791185857
 11
283.92241526265144
 21
690.30800791185834
  0
LINE
  8
_6-0_
  6
CONTINUOUS
 62
    7
 10
283.00917996853394
 20
690.40800791185825
 11
283.92241526265144
 21
690.30800791185834
  0
LINE
  8
_6-0_
  6
CONTINUOUS
 62
    7
 10
282.57572408618103
 20
693.68300791185857
 11
283.02241526265158
 21
690.30800791185834
  0
LINE
  8
_6-0_
  6
CONTINUOUS
 62
    7
 10
282.10917996853379
 20
690.40800791185825
 11
283.02241526265158
 21
690.30800791185834
  0
LINE
  8
_6-0_
  6
CONTINUOUS
 62
    7
 10
281.67572408618105
 20
693.68300791185857
 11
282.12241526265143
 21
690.30800791185834
  0
LINE
  8
_6-0_
  6
CONTINUOUS
 62
    7
 10
282.12241526265143
 20
690.30800791185834
 11
281.20917996853393
 21
690.40800791185825
  0
LINE
  8
_6-0_
  6
CONTINUOUS
 62
    7
 10
280.77572408618101
 20
693.68300791185857
 11
281.22241526265162
 21
690.30800791185834
  0
LINE
  8
_6-0_
  6
CONTINUOUS
 62
    7
 10
281.22241526265162
 20
690.30800791185834
 11
280.3091799685339
 21
690.40800791185825
  0
LINE
  8
_6-0_
  6
CONTINUOUS
 62
    7
 10
279.87572408618109
 20
693.68300791185857
 11
280.32241526265153
 21
690.30800791185834
  0
LINE
  8
_6-0_
  6
CONTINUOUS
 62
    7
 10
280.32241526265153
 20
690.30800791185834
 11
279.77241526265129
 21
690.36823335469251
  0
LINE
  8
_6-0_
  6
CONTINUOUS
 62
    7
 10
279.77241526265129
 20
690.36823335469251
 11
279.40917996853386
 21
690.40800791185825
  0
LINE
  8
_6-0_
  6
CONTINUOUS
 62
    7
 10
278.975724086181
 20
693.68300791185857
 11
279.4224152626515
 21
690.30800791185834
  0
LINE
  8
_6-0_
  6
CONTINUOUS
 62
    7
 10
279.4224152626515
 20
690.30800791185834
 11
278.50917996853383
 21
690.40800791185825
  0
LINE
  8
_6-0_
  6
CONTINUOUS
 62
    7
 10
278.07572408618103
 20
693.68300791185857
 11
278.52241526265146
 21
690.30800791185834
  0
LINE
  8
_6-0_
  6
CONTINUOUS
 62
    7
 10
278.52241526265146
 20
690.30800791185834
 11
277.60917996853379
 21
690.40800791185825
  0
LINE
  8
_6-0_
  6
CONTINUOUS
 62
    7
 10
274.47572408618089
 20
693.68300791185857
 11
274.92241526265133
 21
690.30800791185834
  0
ARC
  8
_6-0_
  6
CONTINUOUS
 62
    7
 10
304.17572408618076
 20
692.00800791185861
 40
3.4999999999999969
 50
80.1291103938605
 51
89.999999999999815
  0
LINE
  8
_6-0_
  6
CONTINUOUS
 62
    7
 10
304.17572408618076
 20
695.50800791185861
 11
304.17572408618076
 21
688.50800791185861
  0
LINE
  8
_6-0_
  6
CONTINUOUS
 62
    7
 10
304.77572408618079
 20
695.45619584177189
 11
304.77572408618079
 21
688.55981998194522
  0
ARC
  8
_6-0_
  6
CONTINUOUS
 62
    7
 10
304.17572408618076
 20
692.00800791185861
 40
3.5000000000000009
 50
270
 51
279.87088960613949
  0
LINE
  8
_6-0_
  6
CONTINUOUS
 62
    7
 10
304.17572408618076
 20
695.50800791185839
 11
302.42217069558791
 21
693.75445452126542
  0
ARC
  8
_6-0_
  6
CONTINUOUS
 62
    7
 10
302.06861730499452
 20
694.10800791185864
 40
0.5
 50
270
 51
315
  0
LINE
  8
_6-0_
  6
CONTINUOUS
 62
    7
 10
304.17572408618076
 20
688.50800791185839
 11
302.42217069558706
 21
690.26156130245204
  0
ARC
  8
_6-0_
  6
CONTINUOUS
 62
    7
 10
302.06861730499384
 20
689.9080079118587
 40
0.499999999999999
 50
45.000000000000611
 51
90.000000000004917
  0
LINE
  8
_6-0_
  6
CONTINUOUS
 62
    7
 10
302.27572408618016
 20
690.40800791185904
 11
302.27572408618016
 21
693.60800791185761
  0
LINE
  8
_6-0_
  6
CONTINUOUS
 62
    7
 10
289.77572408618079
 20
693.68300791185857
 11
288.88895938029839
 21
693.58300791185854
  0
LINE
  8
_6-0_
  6
CONTINUOUS
 62
    7
 10
289.77572408618079
 20
693.68300791185857
 11
290.22241526265123
 21
690.30800791185834
  0
LINE
  8
_6-0_
  6
CONTINUOUS
 62
    7
 10
289.30917996853367
 20
690.40800791185825
 11
290.22241526265123
 21
690.30800791185834
  0
LINE
  8
_6-0_
  6
CONTINUOUS
 62
    7
 10
290.67572408618071
 20
693.68300791185857
 11
289.78895938029837
 21
693.58300791185854
  0
LINE
  8
_6-0_
  6
CONTINUOUS
 62
    7
 10
290.67572408618071
 20
693.68300791185857
 11
291.12241526265115
 21
690.30800791185834
  0
LINE
  8
_6-0_
  6
CONTINUOUS
 62
    7
 10
290.20917996853365
 20
690.40800791185825
 11
291.12241526265115
 21
690.30800791185834
  0
LINE
  8
_6-0_
  6
CONTINUOUS
 62
    7
 10
291.57572408618057
 20
693.68300791185857
 11
290.68895938029823
 21
693.58300791185854
  0
LINE
  8
_6-0_
  6
CONTINUOUS
 62
    7
 10
291.57572408618057
 20
693.68300791185857
 11
291.77572408618073
 21
692.17189680074603
  0
LINE
  8
_6-0_
  6
CONTINUOUS
 62
    7
 10
291.57925349794533
 20
693.65634124519192
 11
291.77572408618073
 21
693.68300791185857
  0
LINE
  8
_6-0_
  6
CONTINUOUS
 62
    7
 10
291.77572408618073
 20
693.68300791185857
 11
291.77572408618073
 21
690.33502079430605
  0
LINE
  8
_6-0_
  6
CONTINUOUS
 62
    7
 10
291.10917996853351
 20
690.40800791185825
 11
291.77572408618073
 21
690.33502079430605
  0
LINE
  8
_6-0_
  6
CONTINUOUS
 62
    7
 10
291.77572408618073
 20
693.60800791185875
 11
302.06861730499463
 21
693.60800791185875
  0
LINE
  8
_6-0_
  6
CONTINUOUS
 62
    7
 10
291.77572408618073
 20
690.40800791185779
 11
302.06861730499378
 21
690.40800791185779
  0
LINE
  8
_6-0_
  6
CONTINUOUS
 62
    7
 10
267.0757240861808
 20
692.5080079118585
 11
270.47572408618078
 21
693.558007911858
  0
LINE
  8
_6-0_
  6
CONTINUOUS
 62
    7
 10
267.0757240861808
 20
691.50800791185839
 11
270.47572408618078
 21
690.458007911859
  0
LINE
  8
_6-0_
  6
CONTINUOUS
 62
    7
 10
270.47572408618072
 20
693.558007911858
 11
270.47572408618072
 21
690.458007911859
  0
LINE
  8
_6-0_
  6
CONTINUOUS
 62
    7
 10
270.47572408618078
 20
693.55800791185811
 11
273.47572408618078
 21
693.55800791185811
  0
LINE
  8
_6-0_
  6
CONTINUOUS
 62
    7
 10
270.47572408618078
 20
690.45800791185889
 11
273.47572408618078
 21
690.45800791185889
  0
LINE
  8
_6-0_
  6
CONTINUOUS
 62
    7
 10
273.5757240861808
 20
693.68300791185857
 11
274.02241526265129
 21
690.30800791185834
  0
LINE
  8
_6-0_
  6
CONTINUOUS
 62
    7
 10
273.58895938029843
 20
693.58300791185854
 11
274.47572408618078
 21
693.68300791185857
  0
LINE
  8
_6-0_
  6
CONTINUOUS
 62
    7
 10
274.92241526265133
 20
690.30800791185834
 11
274.00917996853366
 21
690.40800791185825
  0
LINE
  8
_6-0_
  6
CONTINUOUS
 62
    7
 10
273.47572408618078
 20
693.67173096326815
 11
273.57572408618074
 21
693.68300791185857
  0
LINE
  8
_6-0_
  6
CONTINUOUS
 62
    7
 10
273.47572408618078
 20
693.67173096326815
 11
273.47572408618078
 21
690.36787103585198
  0
LINE
  8
_6-0_
  6
CONTINUOUS
 62
    7
 10
267.0757240861808
 20
692.26095900797998
 11
267.0757240861808
 21
691.75505681573713
  0
LINE
  8
_6-0_
  6
CONTINUOUS
 62
    7
 10
267.0757240861808
 20
691.75505681573713
 11
267.0757240861808
 21
691.50800791185839
  0
LINE
  8
_6-0_
  6
CONTINUOUS
 62
    7
 10
267.0757240861808
 20
692.5080079118585
 11
267.0757240861808
 21
692.26095900797998
  0
LINE
  8
_6-0_
  6
CONTINUOUS
 62
    7
 10
284.29757736195245
 20
694.25138501151423
 11
285.7409010974801
 21
694.50288855492977
  0
LINE
  8
_6-0_
  6
CONTINUOUS
 62
    7
 10
284.29786296564248
 20
689.76408150629914
 11
285.73945684500836
 21
689.51037305572436
  0
LINE
  8
_6-0_
  6
CONTINUOUS
 62
    7
 10
276.5067272181999
 20
689.51037507499564
 11
275.30669882639074
 21
689.71987601907267
  0
LINE
  8
_6-0_
  6
CONTINUOUS
 62
    7
 10
279.54215510192205
 20
689.51037292215517
 11
278.17018689545432
 21
689.75181043869327
  0
LINE
  8
_6-0_
  6
CONTINUOUS
 62
    7
 10
282.64225016999274
 20
689.51011993228485
 11
281.19921203815511
 21
689.76408169318324
  0
LINE
  8
_6-0_
  6
CONTINUOUS
 62
    7
 10
282.64080591752099
 20
694.50564295487652
 11
281.19748553374382
 21
694.24861725386586
  0
LINE
  8
_6-0_
  6
CONTINUOUS
 62
    7
 10
279.54215510192205
 20
694.50564290156183
 11
278.16990440536347
 21
694.26366243405641
  0
LINE
  8
_6-0_
  6
CONTINUOUS
 62
    7
 10
276.5067272181999
 20
694.50564074872148
 11
275.28968558182953
 21
694.28423472463101
  0
LINE
  8
_6-0_
  6
CONTINUOUS
 62
    7
 10
274.02241526265129
 20
690.30800791185834
 11
273.47572408618078
 21
690.36787103585198
  0
LINE
  8
_3-0_
  6
CONTINUOUS
 62
    7
 10
302.72251436128488
 20
707.22394693867705
 11
302.22572408618089
 21
705.005202556418
  0
ARC
  8
_3-0_
  6
CONTINUOUS
 62
    7
 10
312.48089282299452
 20
705.03898703102652
 40
10
 50
147.79020918223455
 51
167.37928935355137
  0
LINE
  8
_3-0_
  6
CONTINUOUS
 62
    7
 10
304.17360864760246
 20
710.61323306593567
 11
304.01987187493398
 21
710.36919570578584
  0
LINE
  8
_3-0_
  6
CONTINUOUS
 62
    7
 10
306.85137564413174
 20
713.44108627694891
 11
307.81349666788412
 21
714.12313432835822
  0
ARC
  8
_3-0_
  6
CONTINUOUS
 62
    7
 10
312.634629595663
 20
705.28302439117613
 40
10
 50
125.33284584983303
 51
147.79020918223407
  0
LINE
  8
_3-0_
  6
CONTINUOUS
 62
    7
 10
296.72572408618112
 20
713.70800791185843
 11
296.72572408618112
 21
714.12313432835822
  0
LINE
  8
_3-0_
  6
CONTINUOUS
 62
    7
 10
296.72572408617975
 20
709.14476687479896
 11
297.24624361776245
 21
708.62424734321621
  0
LINE
  8
_3-0_
  6
CONTINUOUS
 62
    7
 10
296.72572408617998
 20
712.68030078073207
 11
302.62364485743802
 21
706.78238000947408
  0
LINE
  8
_3-0_
  6
CONTINUOUS
 62
    7
 10
298.81842444448819
 20
714.12313432835708
 11
303.50145993970841
 21
709.44009883313697
  0
LINE
  8
_3-0_
  6
CONTINUOUS
 62
    7
 10
302.35395835042226
 20
714.12313432835629
 11
304.88006178660129
 21
711.59703089217737
  0
LINE
  8
_3-0_
  6
CONTINUOUS
 62
    7
 10
305.88949225635622
 20
714.12313432835572
 11
306.68906416781135
 21
713.32356241690059
  0
LINE
  8
_3-0_
  6
CONTINUOUS
 62
    7
 10
295.22572408618043
 20
708.23842242227443
 11
295.01865671641787
 21
708.23842242227443
  0
LINE
  8
_3-0_
  6
CONTINUOUS
 62
    7
 10
298.45944446130147
 20
685.53574237580165
 11
300.72572408618015
 21
687.80202200068038
  0
LINE
  8
_3-0_
  6
CONTINUOUS
 62
    7
 10
297.01865671641963
 20
687.63048853685314
 11
300.72572408617975
 21
691.33755590661326
  0
LINE
  8
_3-0_
  6
CONTINUOUS
 62
    7
 10
297.0186567164194
 20
691.16602244278624
 11
300.72572408618299
 21
694.87308981254978
  0
LINE
  8
_3-0_
  6
CONTINUOUS
 62
    7
 10
297.01865671641929
 20
694.70155634871946
 11
300.72572408618305
 21
698.40862371848311
  0
LINE
  8
_3-0_
  6
CONTINUOUS
 62
    7
 10
297.01865671641912
 20
698.23709025465268
 11
300.72572408618316
 21
701.94415762441668
  0
LINE
  8
_3-0_
  6
CONTINUOUS
 62
    7
 10
297.01865671641821
 20
701.77262416057602
 11
300.00842669502094
 21
704.76239413917881
  0
LINE
  8
_3-0_
  6
CONTINUOUS
 62
    7
 10
295.83363297826543
 20
704.12313432835663
 11
297.96096838008026
 21
706.25046973017129
  0
LINE
  8
_3-0_
  6
CONTINUOUS
 62
    7
 10
295.01865671642042
 20
706.84369197244473
 11
295.91351006513969
 21
707.73854532116411
  0
LINE
  8
_e-0_
  6
CONTINUOUS
 62
    7
 10
346.48030196750267
 20
550.69964773948436
 11
369.57431273508774
 21
550.69964773948436
  0
LINE
  8
_e-0_
  6
CONTINUOUS
 62
    7
 10
329.15979389181382
 20
520.69964773948436
 11
352.25380465939895
 21
520.69964773948436
  0
LINE
  8
_e-0_
  6
CONTINUOUS
 62
    7
 10
296.58505633160013
 20
464.27854724197198
 11
346.48030196750267
 21
550.69964773948436
  0
TEXT
  8
_e-0_
 62
    7
 10
372.64952896841606
 20
540.36465603135832
 40
19.999999999999929
 41
1.0000000000000038
 50
0
  1
リベットルーフ
  0
TEXT
  8
_e-0_
 62
    7
 10
359.16495185398816
 20
510.58621490366352
 40
19.999999999999929
 41
1.000000000000004
 50
0
  1
ＡＹボンド５８０ＮＦ
  0
LINE
  8
_e-0_
  6
CONTINUOUS
 62
    7
 10
301.55910671867582
 20
695.43390539401935
 11
349.76761330912666
 21
611.93432262233944
  0
LINE
  8
_e-0_
  6
CONTINUOUS
 62
    7
 10
349.76761330912666
 20
611.93432262233944
 11
369.90291236397695
 21
611.93432262233944
  0
LINE
  8
_e-0_
  6
CONTINUOUS
 62
    7
 10
332.43271863214898
 20
641.93432262233955
 11
352.43590430707224
 21
641.93432262233955
  0
LINE
  8
_e-0_
  6
CONTINUOUS
 62
    7
 10
315.12659715774907
 20
671.93432262233955
 11
335.04877586018387
 21
671.93432262233955
  0
TEXT
  8
_e-0_
 62
    7
 10
338.03043551229018
 20
661.3450969130447
 40
19.999999999999929
 41
1.0000000000000038
 50
0
  1
ＡＹシールＭＳ－１
  0
TEXT
  8
_e-0_
 62
    7
 10
355.28443127581801
 20
629.53304222404029
 40
19.999999999999929
 41
1.0000000000000038
 50
0
  1
ＹＫ押え金物ＳＬ－１
  0
TEXT
  8
_e-0_
 62
    7
 10
373.07761440695606
 20
602.0344864759179
 40
19.999999999999929
 41
1.0000000000000038
 50
0
  1
ブチルテープ
  0
ENDSEC
  0
EOF
